Oops, an error
Loading. Please wait.

1039 Tab

ver3
ver3

Album

Interactive

More versions @911Tabs.com
20,684 views 30 this week
11 commentsread comments
1 2 3 4 5
accurate
x 28
Autoscroll
+/-
esc
set tempo
stop
Contributor
Tabbers playing skills
intermediate ++
Hey! There's an official Ultimate Guitar app which is ideal
for learning songs when you're away from computer. Get the app
WARNING: You are trying to view
                                    content from Ultimate-Guitar.com
                                    in an unauthorized application,
                                    which is prohibited.

                                    Please use an official Ultimate
                                    Guitar Tabs application for iPhone,
                                    iPad or Android to access legitimate
                                    chords, guitar, bass, and drum tabs
                                    from Ultimate-Guitar.com database.

                                    Type "ultimate guitar tabs" in Apple
                                    App Store's or Android Market's
                                    search to find the application.
                    1,039/SMOOTHED OUT SLAPPY HOURS
                              GREEN DAY
                                (1990)
                        TABBED BY THE DONKEY FLY

TRACK LISTINGS ( All This Is Copied Of The Back Of The CD Case )

1.  At The Library
2.  Don't Leave Me
3.  I Was There
4.  Disappearing Boy
5.  Green Day
6.  Going To Pasalacqua
7.  16
8.  Road To Acceptance
9.  Rest
10. Judges Daughter
11. Paper Lanterns
12. Why Do You Want Him?
13. 409 In Your Coffeemaker
14. Knowledge
15. 1,000 Hours 
16. Dry Ice
17. Only Of You
18. The One I Want
19. I Want To Be Alone

(All Songs From The Album 39/Smooth Except:)
11-14 : Slappy EP (LK35)
15-18 : 1,000 Hours EP (LK17)
19 : Flipside 'The Big One' Compilation
All Songs By Green Day Except "knowledge" by Operation Ivy
Lyrics By Billie Joe (Except "i was there" by john kriftmeyer*)
1990 Green Daze Music , ASCAP , Lookout Records , LLC

*John Krifmeyer Was Green Day's Former Drummer , He Left Before This 
Compilation Was Released.


Note : Some of these tabs are one i've done on PTE , some of them arent, 
The PTE ones are ones i've done most recently. Not all rhythm timings will be right.
-------------------------------------------------------------------------

                               AT THE LIBRARY
                            As recorded by Green Day
              (From the 1990 Album 1,039/SMOOTHED OUT SLAPPY HOURS)



           D                   C5                   B5                   G5
      x 5 4 x x x          x 3 5 5 x x          x 2 4 4 x x          3 5 5 x x x

          D5                    E                  D(*) 
      x 5 7 x x x          0 2 2 1 0 0          x x 0 2 3 2

 Intro
  Q=175
  D       C5        D       C5        D       C5        B5
 4/4
  Gtr I
  PM------------------------------------------------|
|-----------------|-----------------|-----------------|---------------------|
|-----------------|-----------------|-----------------|---------------------|
|-----------------|-----------------|-----------------|-4-4-4-4-4-x-x-------|
|-4-4-4---5-5-5---|-4-4-4---5-5-5---|-4-4-4---5-5-5---|-4-4-4-4-4-x-x-------|
|-5-5-5-0-3-3-3-0-|-5-5-5-0-3-3-3-0-|-5-5-5-0-3-3-3-0-|-2-2-2-2-2-x-x-------|
|-----------------|-----------------|-----------------|---------------14\---|


  D       C5        D       C5        D       C5        B5
  PM------------------------------------------------|
|-----------------|-----------------|-----------------|-----------------|
|-----------------|-----------------|-----------------|-----------------|
|-----------------|-----------------|-----------------|-4-4-4-4-4-4-4---|
|-4-4-4---5-5-5---|-4-4-4---5-5-5---|-4-4-4---5-5-5---|-4-4-4-4-4-4-4-0-|
|-5-5-5-0-3-3-3-0-|-5-5-5-0-3-3-3-0-|-5-5-5-0-3-3-3-0-|-2-2-2-2-2-2-2-0-|
|-----------------|-----------------|-----------------|---------------0-|


    G5      B5        C5      D5        G5      B5        C5      D5
||------------------|-----------------|-----------------|-------------------||
||o-----------------|-----------------|-----------------|------------------o||
||--------0-------0-|-------0-------0-|-------0-------0-|-------0-------0---||
||--------------4---|-----5-------7---|-------------4---|-----5-------7-----||
||o-----5---2-2-----|-3-3-----5-5-----|-----5---2-2-----|-3-3-----5-5------o||
||--3-3-------------|-----------------|-3-3-------------|-------------------||


|---------<7>-----<5>-----<7>-----|-----------------<5>----------||
|-<7>---------<7>-----<7>---------|-------------<7>-----<7>-<7>--||
|-----<7>---------------------<7>-|-<5>-----<5>------------------||
|---------------------------------|-----<5>----------------------||
|---------------------------------|------------------------------||
|---------------------------------|------------------------------||


   Verses 1 & 2
    G5      B5        C5      D5        G5      B5        C5      D5
||------------------|-----------------|-----------------|------------------|
||o-----------------|-----------------|-----------------|------------------|
||--------0-------0-|-------0-------0-|-------0-------0-|-------0-------0--|
||--------------4---|-----5-------7---|-------------4---|-----5-------7----|
||o-----5---2-2-----|-3-3-----5-5-----|-----5---2-2-----|-3-3-----5-5------|
||--3-3-------------|-----------------|-3-3-------------|------------------|


  G5      B5        C5      D5        G5      B5        C5      D5
|-----------------|-----------------|-----------------|-----------------|
|-----------------|-----------------|-----------------|-----------------|
|-------0-------0-|-------0-------0-|-------0-------0-|-------0-------0-|
|-------------4---|-----5-------7---|-------------4---|-----5-------7---|
|-----5---2-2-----|-3-3-----5-5-----|-----5---2-2-----|-3-3-----5-5-----|
|-3-3-------------|-----------------|-3-3-------------|-----------------|


  G5      B5        C5      D5        G5      B5        C5      D5
|-----------------|-----------------|-----------------|-----------------|
|-----------------|-----------------|-----------------|-----------------|
|-------0-------0-|-------0-------0-|-------0-------0-|-------0-------0-|
|-------------4---|-----5-------7---|-------------4---|-----5-------7---|
|-----5---2-2-----|-3-3-----5-5-----|-----5---2-2-----|-3-3-----5-5-----|
|-3-3-------------|-----------------|-3-3-------------|-----------------|


  G5      B5        C5      D5        G5      B5        C5      D5
|-----------------|-----------------|-----------------|-----------------|
|-----------------|-----------------|-----------------|-----------------|
|-------0-------0-|-------0-------0-|-------0-------0-|-------0-------0-|
|-------------4---|-----5-------7---|-------------4---|-----5-------7---|
|-----5---2-2-----|-3-3-----5-5-----|-----5---2-2-----|-3-3-----5-5-----|
|-3-3-------------|-----------------|-3-3-------------|-----------------|


 Chorus
  E            D*                    E           D*
|-------------2-|-(2)-2-2-2-2-2-2--|----0--0-0-0-3-|-(3)-2-2-2-2-2-2--|
|-------------3-|-(3)-3-3-3-3-3-3--|----0--0-0-0-3-|-(3)-3-3-3-3-3-3--|
|-1--1--1-1-1-2-|-(2)-2-2-2-2-2-2--|-1--1--1-1-1-2-|-(2)-2-2-2-2-2-2--|
|-2--2--2-2-2-0-|-(0)-0-0-0-0-0-0--|-2--2--2-2-2-0-|-(0)-0-0-0-0-0-0--|
|-2--2--2-2-2---|------------------|-2--2--2-2-2---|------------------|
|-0--0--0-0-0---|------------------|-0--0--0-0-0---|------------------|


                                    1.
  E           D*                     C5                     D5
|----0--0-0-0-3-|-(3)-2-2-2-2-2-2--|-------------|-------------------||
|----0--0-0-0-3-|-(3)-3-3-3-3-3-3--|-------------|------------------o||
|-1--1--1-1-1-2-|-(2)-2-2-2-2-2-2--|-5----5-5-5--|-(5)-5-5--------0--||
|-2--2--2-2-2-0-|-(0)-0-0-0-0-0-0--|-5----5-5-5--|-(5)-5-5------7----||
|-2--2--2-2-2---|------------------|-3----3-3-3--|-(3)-3-3--5-5-----o||
|-0--0--0-0-0---|------------------|-------------|-------------------||


  2.
  C5
|----------|------||
|----------|------||
|-5--------|-5----||
|-5--------|-5----||
|-3--------|-3----||
|----------|------||


 Guitar Solo
|---------------3-|-(3)-----------------|---------------3-|-(3)----------7-7-7-|
|-3--3--(3)-----3-|-(3)-3-3-3-(3)-3-3-3-|-3--3--(3)-3-3-3-|-(3)-3--3-(3)-8-8-8-|
|-0--0--(0)-0-0-0-|-(0)-0-0-0-(0)-0-0-0-|-0--0--(0)-0-0-0-|-(0)-0--0-(0)-7-7-7-|
|-0--0--(0)-0-0---|-----0-0-0-(0)-0-0-0-|-0--0--(0)-0-0-0-|-(0)-0--0-(0)-0-0-0-|
|-x--x--(x)-x-x---|-----x-x-x-(x)-x-x-x-|-x--x--(x)-x-x-x-|-(x)-x--x-(x)-------|
|-3--3--(3)-3-3---|-----3-3-3-(3)-3-3-3-|-3--3--(3)-3-3-3-|-(3)-3--3-(3)-------|


|-7-8-8-10-10--10-10-|-(10)-8-8-7-7----------|
|-8-8-8--8--8---8--8-|--(8)-8-8-8-8----------|
|-7-7-7--7--7---7--7-|--(7)-7-7-7-7-7S14-0-0-|
|-0-0-0--0--0---0--0-|--(0)-0-0-0-0------0-0-|
|--------------------|-----------------------|
|--------------------|-----------------------|


|-8--8--7--7-8-|-(8)-10--10-(10)-8-7\--|
|-8--8--8--8-8-|-(8)--8---8--(8)-8-8\--|
|-7--7--7--7-7-|-(7)--7---7--(7)-7-7\--|
|-0--0--0--0-0-|-(0)--0---0--(0)-0-0\--|
|--------------|-----------------------|
|--------------|-----------------------|


|-3--3----3--|-(3)--3----3-3-|----------|------------|------------|--------|
|-3--3----3--|-(3)--3----3-3-|-3--------|-(3)--------|-(3)--------|-(3)----|
|-0--0----0--|-(0)--0----0-0-|-0--------|-(0)--------|-(0)--------|-(0)----|
|-0--0----0--|-(0)--0----0-0-|-0--------|-(0)--------|-(0)--------|-(0)----|
|-x--x----x--|-(x)--x----x-x-|-x--------|-(x)--------|-(x)--------|-(x)----|
|-3--3----3--|-(3)--3----3-3-|-3--------|-(3)--------|-(3)--------|-(3)----|


 Bridge
  G5
  PM------------------------------------------------------------------|
|-----------------|-----------------|-----------------|-----------------|
|-----------------|-----------------|-----------------|-----------------|
|-----------------|-----------------|-----------------|-----------------|
|-5-5-5-5-5-5-5-5-|-5-5-5-5-5-5-5-5-|-5-5-5-5-5-5-5-5-|-5-5-5-5-5-5-5-5-|
|-5-5-5-5-5-5-5-5-|-5-5-5-5-5-5-5-5-|-5-5-5-5-5-5-5-5-|-5-5-5-5-5-5-5-5-|
|-3-3-3-3-3-3-3-3-|-3-3-3-3-3-3-3-3-|-3-3-3-3-3-3-3-3-|-3-3-3-3-3-3-3-3-|


  G5                                  D*   
|-----------------|-----------------|-3--3-3-3-3-3-3-|-(3)-3-3--(3)-3-3---|
|-----------------|-----------------|-2--2-2-2-2-2-0-|-(0)-2-2--(2)-2-2---|
|-----------------|-----------------|-2--2-2-2-2-2-2-|-(2)-2-2--(2)-2-2-0-|
|-5-5-5-5-5-5-5-5-|-5-5-5-5-5-5-5-5-|-0--0-0-0-0-0-0-|-(0)-0-0--(0)-0-0-0-|
|-5-5-5-5-5-5-5-5-|-5-5-5-5-5-5-5-5-|----------------|--------------------|
|-3-3-3-3-3-3-3-3-|-3-3-3-3-3-3-3-3-|----------------|--------------------|


   Verse 3
    G5      B5        C5      D5        G5      B5        C5      D5
                                                                            4x
||------------------|-----------------|-----------------|-------------------||
||o-----------------|-----------------|-----------------|------------------o||
||--------0-------0-|-------0-------0-|-------0-------0-|-------0-------0---||
||--------------4---|-----5-------7---|-------------4---|-----5-------7-----||
||o-----5---2-2-----|-3-3-----5-5-----|-----5---2-2-----|-3-3-----5-5------o||
||--3-3-------------|-----------------|-3-3-------------|-------------------||


 Outro
  D       C5        D       C5        D       C5
|-----------------|-----------------|-----------------|
|-----------------|-----------------|-----------------|
|-----------------|-----------------|-----------------|
|-4-4-4---5-5-5---|-4-4-4---5-5-5---|-4-4-4---5-5-5---|
|-5-5-5-0-3-3-3-0-|-5-5-5-0-3-3-3-0-|-5-5-5-0-3-3-3-0-|
|-----------------|-----------------|-----------------|


                              G5
|---------<7>-----<5>-------|----------*|
|-----<7>-----<7>-<5>-0-0---|----------*|
|-<5>-----------------0-0---|----------*|
|---------------------------|-5--------*|
|---------------------------|-5--------*|
|-------------------------0-|-3--------*|


--------------------------------------------------------------------------

                       DONT LEAVE ME
                         

Intro x 4 , on the fourth time stop at the line ive put
                  |
E|-7-7-7--5-5-5--5|5--7-7-7-7----------------------------------------||
B|-7-7-7--5-5-5--7|7--7-7-7-7----------------------------------------||
G|-8-8-8--6-6-6--7|7--8-8-8-8----------------------------------------||
D|-9-9-9--7-7-7--7|7--9-9-9-9----------------------------------------||
A|-9-9-9--7-7-7--5|5--9-9-9-9----------------------------------------||
E|-7-7-7--5-5-5---|---7-7-7-7----------------------------------------||
                  |

Verses x4
Again stop at the line on the fourth time

E|-7-7-7--5-5-5--5|5--7-7-7-7----------------------------------------||
B|-7-7-7--5-5-5--7|7--7-7-7-7----------------------------------------||
G|-8-8-8--6-6-6--7|7--8-8-8-8----------------------------------------||
D|-9-9-9--7-7-7--7|7--9-9-9-9----------------------------------------||
A|-9-9-9--7-7-7--5|5--9-9-9-9----------------------------------------||
E|-7-7-7--5-5-5-------7-7-7-7----------------------------------------||
PM----------------------------

    X 4
E|-7-7-7--5-5-5--5-5--7-7-7-7----------------------------------------||
B|-7-7-7--5-5-5--7-7--7-7-7-7----------------------------------------||
G|-8-8-8--6-6-6--7-7--8-8-8-8----------------------------------------||
D|-9-9-9--7-7-7--7-7--9-9-9-9----------------------------------------||
A|-9-9-9--7-7-7--5-5--9-9-9-9----------------------------------------||
E|-7-7-7--5-5-5-------7-7-7-7----------------------------------------||


Chorus x4
E|------------------------------------------------||
B|--------------7-------------------1-------------||
G|------------7--7----------------0----0----------||
D|-7-7-7-7-7-------7-7--4-4-4-4-4-------0---------||
A|-7-7-7-7-7---------7--4-4-4-4-4-----------------||
E|-5-5-5-5-5---------5--2-2-2-2-2-----------------||


Intro

Verse
Chorus

bridge x 4
E|-7-7-7--5-5-5--5-5--7-7-7-7----------------------------------------||
B|-7-7-7--5-5-5--7-7--7-7-7-7----------------------------------------||
G|-8-8-8--6-6-6--7-7--8-8-8-8----------------------------------------||
D|-9-9-9--7-7-7--7-7--9-9-9-9----------------------------------------||
A|-9-9-9--7-7-7--5-5--9-9-9-9----------------------------------------||
E|-7-7-7--5-5-5-------7-7-7-7----------------------------------------||

Solo Type Bridge
X2
E|-5-5-5-5-5------------2-2-2-2-2-----------------||
B|-5-5-5-5-5----7-------2-2-2-2-2---1-------------||
G|-6-6-6-6-6--7--7------3-3-3-3-3-0----0----------||
D|-7-7-7-7-7-------7----4-4-4-4-4-------0---------||
A|-7-7-7-7-7------------4-4-4-4-4-----------------||
E|-5-5-5-5-5------------2-2-2-2-2-----------------||

E|-5--------------------2-------------------------||
B|-5------------7-------2-----------1-------------||
G|-6----------7--7------3---------0---0-----------||
D|-7---------------7----4--------------0----------||
A|-7--------------------4-------------------------||
E|-5--------------------2-------------------------|| X2

E|------------------------------------------------||
B|--------------7-------------------1-------------||
G|------------7--7----------------0----0----------||
D|-------7-7-------7----------4-4-------0---------||
A|-7-7-7-7-7------------4-4-4-4-4-----------------||
E|-5-5-5-5-5------------2-2-2-2-2-----------------|| X2
PM-----------           ---------

x2 on 2nd time stop at line
E|-7-7-7--5-5-5--5|5--7-7-7-7----------------------------------------||
B|-7-7-7--5-5-5--7|7--7-7-7-7----------------------------------------||
G|-8-8-8--6-6-6--7|7--8-8-8-8----------------------------------------||
D|-9-9-9--7-7-7--7|7--9-9-9-9----------------------------------------||
A|-9-9-9--7-7-7--5|5--9-9-9-9----------------------------------------||
E|-7-7-7--5-5-5---|---7-7-7-7----------------------------------------||

Verse

Chorus x 4

E|-7-7-7--5-5-5--5-5--7----------------------------------------------||
B|-7-7-7--5-5-5--7-7--7----------------------------------------------||
G|-8-8-8--6-6-6--7-7--8----------------------------------------------||
D|-9-9-9--7-7-7--7-7--9----------------------------------------------||
A|-9-9-9--7-7-7--5-5--9----------------------------------------------||
E|-7-7-7--5-5-5-------7----------------------------------------------||

---------------------------------------------------------------------------
                          I Was there

Intro 

E|-----------------------------------------------------------------------||
B|--6-6-6-6-6-6-6-6--5-5-5-5-5-5-5-5--6-6-6-6-6-6-6-6--5-5-5-5-5-5-5-5---||
G|--5-5-5-5-5-5-5-5--5-5-5-5-5-5-5-5--3-3-3-3-3-3-3-3--3-3-3-3-3-3-3-3---||
D|-----------------------------------------------------------------------||
A|-----------------------------------------------------------------------||
E|-----------------------------------------------------------------------||

Verse

E|-----------------------------------------------------------------------||
B|-----------------------------------------------------------------------||
G|-5--5--5-5-5-5--5-5--5-5-5-5--3--3--3-3-3-3--3-3--3-3-3-3--------------||
D|-5--5--5-5-5-5--5-5--5-5-5-5--3--3--3-3-3-3--3-3--3-3-3-3--------------||
A|-3--3--3-3-3-3--3-3--3-3-3-3--1--1--1-1-1-1--1-1--1-1-1-1--------------||
E|-----------------------------------------------------------------------||
  and in the background this can be heard played throughout
E|-----------------------------------------------------------------------||
B|-----------------------------------------------------------------------||
G|---0---0---0-----0---0---0---------------------------------------------||
D|-2---2---2-----0---0---0-----------------------------------------------||
A|-----------------------------------------------------------------------||
E|-----------------------------------------------------------------------||

Chorus  (AKA CHORUS PT 1 FOR P2 OF SOLO)

E|-----------------------------------------------------------------------||
B|-----------------------------------------------------------------------||
G|-------------5--5-5--5-5-5-5--------------5--5-5--5-5-5-5--------------||
D|-3--3--3-3-3-5--5-5--5-5-5-5-3--3-3-3-3-3-5--5-5--5-5-5-5--------------||
A|-3--3--3-3-3-3--3-3--3-3-3-3-3--3-3-3-3-3-3--3-3--3-3-3-3--------------||
E|-1--1--1-1-1-----------------1--1-1-1-1-1------------------------------||

E|-----------------------------------------------------------------------||
B|-----------------------------------------------------------------------||
G|-3--3-3-3-3-3-3-3-3-3-3-3-3-3-3-5--5--5-5-5-5--5-5--5-5-5-5------------||
D|-3--3-3-3-3-3-3-3-3-3-3-3-3-3-3-5--5--5-5-5-5--5-5--5-5-5-5------------||
A|-1--1-1-1-1-1-1-1-1-1-1-1-1-1-1-3--3--3-3-3-3--3-3--3-3-3-3------------||
E|-----------------------------------------------------------------------||

Bridge

E|-----------------------------------------------------------------------||
B|-5--5-5-5-5-5-6-6-5-5-6-6-5-5-3--3-3-3-3-3-4-4-3-3-4-4-3-3-------------||
G|-5--5-5-5-5-5-5---5---5---5---3--3-3-3-3-3-3---3---3---3---------------||
D|-x--x-x-x-x-x-x---x---x---x---x--x-x-x-x-x-x---x---x---x---------------||
A|-3--3-3-3-3-3-3---3---3---3---1--1-1-1-1-1-1---1---1---1---------------||
E|-----------------------------------------------------------------------||

Solo
PT1
E|-----------------------------------------------------------------------||
B|----------13---------------13-------------11-----------11--------------||
G|-12----12----12---12----12-----12-10---10----10--10-10----10-----------||
D|----10---------------10--------------8----------8--8-------------------||
A|-----------------------------------------------------------------------||
E|-----------------------------------------------------------------------||

 then
PT2
E|-----------------------------------------------------------------------||
B|-----------------------------------------------------------------------||
G|-------0-----------0-----------0-----------0---------------------------||
D|-----4---4-------4---4-------4---4-------4---4-------------------------||
A|-5-5-------5-3-3-------3-5-5-------5-3-3-------3-----------------------||
E|-----------------------------------------------------------------------||
                                                                          |
Well that's the tab sorted out now for the lyrics and order of play       |
--------------------------------------------------------------------------|
ORDER OF PLAY                                                             |
--------------------------------------------------------------------------|
INTRO X 2                                                                 |
VERSE X 6                                                                 |
CHORUS X 2                                                                |
VERSE X 6                                                                 |
CHORUS X 2                                                                |
BRIDGE X 2                                                                |
SOLO  PT 1 X 4                                                            |  
SOLO PT 2 X 1                                                             |  
CHORUS PT 1 WITH SOLO PT 2 X 4                                            |
VERSE X 4                                                                 |
CHORUS X 4                                                                |
END ON C5              

----------------------------------------------------------------------------
                  
                            Disappearing Boy                  


 Intro            
 4/4
  Gtr I
  PM-------------------------------------------------|
|-----------------|-----------------|-----------0-------|----|
|-------0---------|-----------------|-------------3-----|----|
|-------2-2-2-----|---4-3-3-------5-|-4-4-2-2-2------2--|----|
|-2-2-2---2-2-----|---4-4-4-------5-|-5-5-0-0-0---------|----|
|-0-0-0-------4-4-|-4-------5-5-5---|-------------------|----|
|-------------2-2-|-2-------3-3-3---|-------------------|----|


  PM----------------------------------------------------------------------|
|-------------------|-----------------|-------------------|-----------------|
|-------------------|-----------------|-------------------|-----------------|
|-------------------|-----------------|-------------------|-2-2-2-2-2-2-2-2-|
|-2-2-2-2-2-2-2-2-2-|-----------------|-------------------|-0-0-0-0-0-0-0-0-|
|-0-0-0-0-0-0-0-0-0-|-4-4-4-4-4-4-4-4-|-5-5-5-5-5-5-5-5-5-|-----------------|
|-------------------|-2-2-2-2-2-2-2-2-|-3-3-3-3-3-3-3-3-3-|-----------------|


   Verse
                                                                            4x
||------------------|-----------------|-----------------|-------------------||
||o-----------------|-----------------|-----------------|------------------o||
||------------------|-----------------|-----------------|-7-7-7-7-7-7-7-7---||
||--7-7-7-7-7-7-7-7-|-4-4-4-4-4-4-4-4-|-5-5-5-5-5-5-5-5-|-7-7-7-7-7-7-7-7---||
||o-7-7-7-7-7-7-7-7-|-4-4-4-4-4-4-4-4-|-5-5-5-5-5-5-5-5-|-5-5-5-5-5-5-5-5--o||
||--5-5-5-5-5-5-5-5-|-2-2-2-2-2-2-2-2-|-3-3-3-3-3-3-3-3-|-------------------||


   Chorus
                                                            4x
||----------------------------------------------------------||
||o--------------------------------------------------------o||
||--4-4-4-4-4-4-5-5-5-5-5-5-5-------------------------------||
||--4-4-4-4-4-4-5-5-5-5-5-5-5-5-5-5-5-5-5-5-5-5-5-5-5-5-----||
||o-2-2-2-2-2-2-3-3-3-3-3-3-3-5-5-5-5-5-5-5-5-5-5-5-5-5----o||
||----------------------------3-3-3-3-3-3-3-3-3-3-3-3-3-----||


 Bridge (P.1 , P.2. , P.1)
 Part 1
  D5      C       B5      A5
|-----0-------0-------0-------0------|
|-------3-------3-------3-------3----|
|-2-2-------0-------4-------2--------|
|-0-------2-------4-------2----------|
|---------3-------2-------0----------|
|------------------------------------|


 Part 2
  D           C       B5      A5
|-----------------0-------0-------0------|
|---7h8p7\5\3-------3-------3-------3----|
|-7-------------0-------4-------2--------|
|-0-----------2-------4-------2----------|
|-------------3-------2-------0----------|
|----------------------------------------|


Order

Intro
Verse 1
Chorus 1
Intro
Verse 2
Chorus 2
Bridge
Intro
Chorus 2
End on A5


---------------------------------------------------------------------------------
                          
                            Green Day
 
Intro:
E|---------------------------------||
B|---------------------------------||
G|--------7------------------------||
D|--9--4--7--9---------------------||
A|--9--4--5--9--(let ring)---------||
E|--7--2-----7---------------------||


E|---------------------------------------------------------------------------||
B|---------------------------------------------------------------------------||
G|---------------------------------------------------------------------------||
D|--6--6--6-6-6---2--2-2--2--2-2---9-9-9-9-9-9-9-9-9-9-9---------------------||
A|--6--6--6-6-6---2--2-2--2--2-2---9-9-9-9-9-9-9-9-9-9-9---(play twice)------||
E|--4--4--4-4-4---0--0-0--0--0-0---7-7-7-7-7-7-7-7-7-7-7---------------------||

E|---------------------------------------------------------------------------||
B|---------------------------------------------------------------------------||
G|---------------------------------------------------------------------------||
D|--6--6--6-6-6---2--2-2--2--2-2---9-9-9-9-9--7--9-9-9-9-9-------------------||
A|--6--6--6-6-6---2--2-2--2--2-2---9-9-9-9-9--7--9-9-9-9-9-------------------||
E|--4--4--4-4-4---0--0-0--0--0-0---7-7-7-7-7--5--7-7-7-7-7-------------------||

Verse:
E|---------------------------------------------------------------------------||
B|---------------------------------------------------------------------------||
G|--9-9-9-9--7-7-7-7--6-6-7-6-5-5-5-5-5-5------------------------------------||
D|--9-9-9-9--7-7-7-7--6-6-7-6-5-5-5-5-5-5--4-4-4-4-4--7-7-7-7-7-7--2---------||
A|--7-7-7-7--5-5-5-5--4-4-5-4-3-3-3-3-3-3--4-4-4-4-4--7-7-7-7-7-7--2---------||
E|-----------------------------------------2-2-2-2-2--5-5-5-5-5-5--0---------||

*Repeat Verse, then:

Chorus
E|---------------------------------------------------------------------------||
B|---------------------------------------------------------------------------||
G|--------------------------4-4-4-4-4-4-4-4-4-4-4----------------------------||
D|--6-6-6-6-6--2-2-2-2-2-2--4-4-4-4-4-4-4-4-4-4-4------(play 3x)-------------||
A|--6-6-6-6-6--2-2-2-2-2-2--2-2-2-2-2-2-2-2-2-2-2----------------------------||
E|--4-4-4-4-4--0-0-0-0-0-0---------------------------------------------------||

E|---------------------------------------------------------------------------||
B|---------------------------------------------------------------------------||
G|--------------------------4-4-4-4-4-2-4-4-4-4-4-4--------------------------||
D|--6-6-6-6-6--2-2-2-2-2-2--4-4-4-4-4-2-4-4-4-4-4-4--------------------------||
A|--6-6-6-6-6--2-2-2-2-2-2--2-2-2-2-2-0-2-2-2-2-2-2--------------------------||
E|--4-4-4-4-4--0-0-0-0-0-0---------------------------------------------------||

*Verse (x3)

*Chorus

*Verse (x2)

Solo
E|----------------------------------||
B|----------------------------------||
G|----------------------------------||
D|-9-9-9-9-9-11-9-7-6-6-6h7-4-2-4---||
A|----------------------------------||
E|----------------------------------||

E|---------------------------------------------||
B|---------------------------------------------||
G|---------------------------------------------||
D|-4-4-4-4-4-7-7-7-7-7-7-2-2-2-2-2-2-2-2-2-2-2-||
A|-4-4-4-4-4-7-7-7-7-7-7-2-2-2-2-2-2-2-2-2-2-2-||
E|-2-2-2-2-2-5-5-5-5-5-5-0-0-0-0-0-0-0-0-0-0-0-||
*PLAY SOLO TWICE

*Verse (x2)

*Chorus

Outro:
E|------------------------------------------------------||
B|------------------------------------------------------||
G|--9-9-9-9--7-7-7-7--6-6-7-6-5-5-5-5-5-5---------------||
D|--9-9-9-9--7-7-7-7--6-6-7-6-5-5-5-5-5-5--7------------||
A|--7-7-7-7--5-5-5-5--4-4-5-4-3-3-3-3-3-3--7-(let ring)-||
E|-----------------------------------------5------------||

----------------------------------------------------------------------------

                         
                            Going To Pasalacqua
Intro   (Volume Swell = >)

E|--------------------------------------------------------------------|
B|--------------------------------------------------------------------|
G|-->-7p6h7p6h7p6h7p6--6~---------------------------------------------|
D|---------------------7~---------------------------------------------|
A|---------------------7~---------------------------------------------|
E|---------------------5~---------------------------------------------|
   
 verse
E|--------------------------------------------------------------------|
B|--------------------------------------------------------------------|
G|-----------777777777------------------------------------------------|
D|-222222222-777777777-7777777777-------------------------------------|
A|-222222222-555555555-7777777777-777777777777777777777---------------|
E|-000000000----------------------------------------------------------|



E|--------------------------------------------------------------------|
B|--------------------------------------------------------------------|
G|-----------777777777------------------------------------------------|
D|-222222222-777777777-7777777777-------------------------------------|
A|-222222222-555555555-7777777777-------------------------------------|
E|-000000000-----------5555555555-------------------------------------|

Pre-Chorus x2

E|--------------------------------------------------------------------|
B|--------------------------------------------------------------------|
G|-77777-------------------777777777----------------------------------|
D|-77777-777777-2222222222-777777777-777777777------------------------|
A|-55555-777777-2222222222-555555555-777777777------------------------|
E|-------555555-0000000000-----------555555555------------------------|

Chorus 

E|--------------------------------------------------------------------|
B|------------------------------------------x2------------------------|
G|--------------------------------777777777---------------------------|
D|-777777777-2222222222-444444444-777777777---------------------------|
A|-777777777-2222222222-444444444-555555555---------------------------|
E|-555555555-0000000000-222222222-------------------------------------|

E|--------------------------------------------------------------------|
B|--------------------------------------------------------------------|
G|--------------------------------------------------------------------|
D|--------------------------------------------------------------------|
A|-7777777777777777777777777777777777777777---------------------------|
E|-5555555555555555555555555555555555555555---------------------------|
Pm xxxxxxxxxxxxxxxxxxxxxxxxxxxxxxxxxxxxxxxx


Bridge

E|----------------------------------------------------------------------|
B|----------------------------------------------------------------------|
G|---77777777---77777777---77777777----77777777---77777777--------------|
D|-7-77777777-7-77777777-7-77777777--7-77777777-7-77777777-7------------|
A|-7-55555555-7-55555555-7-55555555--7-55555555-7-55555555-7------------|
E|-5----------5----------5-----------5----------5----------5------------|

E|--------------------------------------------------------------------|
B|--------------------------------------------------------------------|
G|--------------------------------------------------------------------|
D|--------------------------------------------------------------------|
A|-7777777777777777777777777777777777777777---------------------------|
E|-5555555555555555555555555555555555555555---------------------------|
Pm xxxxxxxxxxxxxxxxxxxxxxxxxxxxxxxxxxxxxxxx




Intro
Verse
Pre-Chorus
Chorus
Verse
Pre-Chorus
Chorus
Bridge
Pre-Chorus
Chorus
End on chorus chords slowing down and Intro


--------------------------------------------------------------------------------
                                16

Intro
  Q=144
 4/4
  Gtr I
|---------------------|--------------------|-----------------|
|-------4---------2---|----5---4-(4)-------|-4--4------2-2---|
|-------4---------2---|----4---4-(4)---4---|-4--4------2-2---|
|-------4---------2---|----2-1-4-(4)---4---|-4--4--4---2-2---|
|-2--2----2-0--0----0-|--------2-(2)-2-6-2-|-2--2--2-0-0-0---|
|---------------------|-0------------------|---------------0-|


|--------------------|---------------------|---------------------|
|----5---4-(4)-------|-------4---------2---|----5---4-(4)--------|
|----4---4-(4)---4---|-------4---------2---|----4---4-(4)---4----|
|----2-1-4-(4)---4---|-------4---------2---|----2-1-4-(4)---4----|
|--------2-(2)-2-6-2-|-2--2----2-0--0----0-|--------2-(2)-2-6-2--|
|-0------------------|---------------------|-0-------------------|


                                        Verse
|-----------------|--------------------|----------------------|
|-4--4------2-2---|----5---4-(4)-------|-------4---------2----|
|-4--4------2-2---|----4---4-(4)---4---|-------4---------2----|
|-4--4--4---2-2---|----2-1-4-(4)---4---|-------4-4-------2-2--|
|-2--2--2-0-0-0---|--------2-(2)-2-6-2-|-2--2--2-2-0--0--0-0--|
|---------------0-|-0------------------|----------------------|


|---------------------|---------------------|----------------------|
|----5---4-(4)--------|-------4---------2---|----5---4-(4)---------|
|----4---4-(4)----4---|-------4---------2---|----4---4-(4)----4----|
|----2-1-4-(4)----4---|-------4-4-------2-2-|----2-1-4-(4)----4----|
|--------2-(2)-2--2-2-|-2--2--2-2-0--0--0-0-|--------2-(2)-2--2-2--|
|-0-------------------|---------------------|-0--------------------|


|---------------------|---------------------|---------------------|
|-------4---------2---|----5---4-(4)--------|-------4---------2---|
|-------4---------2---|----4---4-(4)----4---|-------4---------2---|
|-------4-4-------2-2-|----2-1-4-(4)----4---|-------4-4-------2-2-|
|-2--2--2-2-0--0--0-0-|--------2-(2)-2--2-2-|-2--2--2-2-0--0--0-0-|
|---------------------|-0-------------------|---------------------|


|---------------------|---------------------|----------------------|
|----5---4-(4)--------|-------4---------2---|----5---4-(4)---------|
|----4---4--------4---|-------4---------2---|----4---4-(4)----4----|
|----2-1-4-(4)----4---|-------4-4-------2-2-|----2-1-4-(4)----4----|
|--------2-(2)-2--2-2-|-2--2--2-2-0--0--0-0-|--------2-(2)-2--2-2--|
|-0-------------------|---------------------|-0--------------------|


|---------------------|---------------------|---------------------|
|-------4---------2---|----5---4-(4)--------|-------4---------2---|
|-------4---------2---|----4---4-(4)----4---|-------4---------2---|
|-------4-4-------2-2-|----2-1-4-(4)----4---|-------4-4-------2-2-|
|-2--2--2-2-0--0--0-0-|--------2-(2)-2--2-2-|-2--2--2-2-0--0--0-0-|
|---------------------|-0-------------------|---------------------|


                                             Chorus
|---------------------|---------------------|------------------|
|----5---4-(4)--------|-------4---------2---|----5---4---------|
|----4---4-(4)----4---|-------4---------2---|----4---4---4-4-4-|
|----2-1-4-(4)----4---|-------4-4-------2-2-|----2-1-4-4-4-4-4-|
|--------2-(2)-2--2-2-|-2--2--2-2-0--0--0-0-|--------2-2-2-2-2-|
|-0-------------------|---------------------|-0----------------|


|-----------------|-----------------|-----------------|-----------------|
|---------3-3-3-3-|-----------------|---------3-3-3-3-|-----------------|
|-5-5-5-5-2-2-2-2-|-4-4-4-4-4-4-4-4-|-5-5-5-5-2-2-2-2-|-4-4-4-4-4-4-4-4-|
|-5-5-5-5-0-0-0-0-|-4-4-4-4-4-4-4-4-|-5-5-5-5-0-0-0-0-|-4-4-4-4-4-4-4-4-|
|-3-3-3-3---------|-2-2-2-2-2-2-2-2-|-3-3-3-3---------|-2-2-2-2-2-2-2-2-|
|-----------------|-----------------|-----------------|-----------------|


|-----------------|-----------------|-----------------|-----------------|
|---------3-3-3-3-|-----------------|---------3-3-3-3-|-----------------|
|-5-5-5-5-2-2-2-2-|-4-4-4-4-4-4-4-4-|-5-5-5-5-2-2-2-2-|-4-4-4-4-4-4-4-4-|
|-5-5-5-5-0-0-0-0-|-4-4-4-4-4-4-4-4-|-5-5-5-5-0-0-0-0-|-4-4-4-4-4-4-4-4-|
|-3-3-3-3---------|-2-2-2-2-2-2-2-2-|-3-3-3-3---------|-2-2-2-2-2-2-2-2-|
|-----------------|-----------------|-----------------|-----------------|


 Break
|---------------------|--------------------|------------------|
|-------4---------2---|----5---4-(4)-------|-4--4------2-2----|
|-------4---------2---|----4---4-(4)---4---|-4--4------2-2----|
|-------4---------2---|----2-1-4-(4)---4---|-4--4--4---2-2----|
|-2--2----2-0--0----0-|--------2-(2)-2-6-2-|-2--2--2-0-0-0----|
|---------------------|-0------------------|---------------0--|


                      Verse
|--------------------|---------------------|---------------------|
|----5---4-(4)-------|-------4---------2---|----5---4-(4)--------|
|----4---4-(4)---4---|-------4---------2---|----4---4-(4)----4---|
|----2-1-4-(4)---4---|-------4-4-------2-2-|----2-1-4-(4)----4---|
|--------2-(2)-2-6-2-|-2--2--2-2-0--0--0-0-|--------2-(2)-2--2-2-|
|-0------------------|---------------------|-0-------------------|


|---------------------|---------------------|---------------------|
|-------4---------2---|----5---4-(4)--------|-------4---------2---|
|-------4---------2---|----4---4-(4)----4---|-------4---------2---|
|-------4-4-------2-2-|----2-1-4-(4)----4---|-------4-4-------2-2-|
|-2--2--2-2-0--0--0-0-|--------2-(2)-2--2-2-|-2--2--2-2-0--0--0-0-|
|---------------------|-0-------------------|---------------------|


|---------------------|---------------------|----------------------|
|----5---4-(4)--------|-------4---------2---|----5---4-(4)---------|
|----4---4-(4)----4---|-------4---------2---|----4---4-(4)----4----|
|----2-1-4-(4)----4---|-------4-4-------2-2-|----2-1-4-(4)----4----|
|--------2-(2)-2--2-2-|-2--2--2-2-0--0--0-0-|--------2-(2)-2--2-2--|
|-0-------------------|---------------------|-0--------------------|


|---------------------|---------------------|---------------------|
|-------4---------2---|----5---4-(4)--------|-------4---------2---|
|-------4---------2---|----4---4-(4)----4---|-------4---------2---|
|-------4-4-------2-2-|----2-1-4-(4)----4---|-------4-4-------2-2-|
|-2--2--2-2-0--0--0-0-|--------2-(2)-2--2-2-|-2--2--2-2-0--0--0-0-|
|---------------------|-0-------------------|---------------------|


|---------------------|---------------------|----------------------|
|----5---4-(4)--------|-------4---------2---|----5---4-(4)---------|
|----4---4-(4)----4---|-------4---------2---|----4---4-(4)----4----|
|----2-1-4-(4)----4---|-------4-4-------2-2-|----2-1-4-(4)----4----|
|--------2-(2)-2--2-2-|-2--2--2-2-0--0--0-0-|--------2-(2)-2--2-2--|
|-0-------------------|---------------------|-0--------------------|


                       Chorus
|---------------------|------------------|-----------------|------------------|
|-------4---------2---|----5---4---------|---------3-3-3-3-|------------------|
|-------4---------2---|----4---4---4-4-4-|-5-5-5-5-2-2-2-2-|-4-4-4-4-4-4-4-4--|
|-------4-4-------2-2-|----2-1-4-4-4-4-4-|-5-5-5-5-0-0-0-0-|-4-4-4-4-4-4-4-4--|
|-2--2--2-2-0--0--0-0-|--------2-2-2-2-2-|-3-3-3-3---------|-2-2-2-2-2-2-2-2--|
|---------------------|-0----------------|-----------------|------------------|


|-----------------|-----------------|-----------------|-----------------|
|---------3-3-3-3-|-----------------|---------3-3-3-3-|-----------------|
|-5-5-5-5-2-2-2-2-|-4-4-4-4-4-4-4-4-|-5-5-5-5-2-2-2-2-|-4-4-4-4-4-4-4-4-|
|-5-5-5-5-0-0-0-0-|-4-4-4-4-4-4-4-4-|-5-5-5-5-0-0-0-0-|-4-4-4-4-4-4-4-4-|
|-3-3-3-3---------|-2-2-2-2-2-2-2-2-|-3-3-3-3---------|-2-2-2-2-2-2-2-2-|
|-----------------|-----------------|-----------------|-----------------|


                                     Solo/Interlude
                                      Gtr II
|-----------------|-----------------|---------5-5---5---5-----5--------|
|---------3-3-3-3-|-----------------|---------7-7---7---7-----7--------|
|-5-5-5-5-2-2-2-2-|-4-4-4-4-4-4-4-4-|---------8-8---8---8-----8--------|
|-5-5-5-5-0-0-0-0-|-4-4-4-4-4-4-4-4-|----------------------------------|
|-3-3-3-3---------|-2-2-2-2-2-2-2-2-|-2-2-2-2--------------------------|
|-----------------|-----------------|-------------7---7---7-7---7-7-7--|


|---------5-5---5---5-----5-------|---------5-5---5---5-----5-------|
|---------7-7---7---7-----7-------|---------7-7---7---7-----7-------|
|---------8-8---8---8-----8-------|---------8-8---8---8-----8-------|
|---------------------------------|---------------------------------|
|---------------------------------|---------------------------------|
|-7-7-7-7-----7---7---7-7---7-7-7-|-7-7-7-7-----7---7---7-7---7-7-7-|


|---------5-5---5---5-----5-------|---------5-5---5---5-----5-------|
|---------7-7---7---7-----7-------|---------7-7---7---7-----7-------|
|---------8-8---8---8-----8-------|---------8-8---8---8-----8-------|
|---------------------------------|---------------------------------|
|---------------------------------|---------------------------------|
|-7-7-7-7-----7---7---7-7---7-7-7-|-7-7-7-7-----7---7---7-7---7-7-7-|


|---------5-5---5---5-----5-------|---------5-5---5---5-----5-------|
|---------7-7---7---7-----7-------|---------7-7---7---7-----7-------|
|---------8-8---8---8-----8-------|---------8-8---8---8-----8-------|
|---------------------------------|---------------------------------|
|---------------------------------|---------------------------------|
|-7-7-7-7-----7---7---7-7---7-7-7-|-7-7-7-7-----7---7---7-7---7-7-7-|


|---------5-5---5---5-----5-------|---------5-5---5---5-----5---5---|
|---------7-7---7---7-----7-------|---------7-7---7---7-----7---7---|
|---------8-8---8---8-----8-------|---------8-8---8---8-----8---8---|
|---------------------------------|---------------------------------|
|---------------------------------|---------------------------------|
|-7-7-7-7-----7---7---7-7---7-7-7-|-7-7-7-7-----7---7---7-7---7-7-7-|


 Instrumental Chorus
  Gtr I
|---------------------|-----------------|-----------------|-----------------|
|---------------------|---------3-3-3-3-|-----------------|---------3-3-3-3-|
|----------4--4-4-4-4-|-5-5-5-5-2-2-2-2-|-4-4-4-4-4-4-4-4-|-5-5-5-5-2-2-2-2-|
|-------4--4--4-4-4-4-|-5-5-5-5-0-0-0-0-|-4-4-4-4-4-4-4-4-|-5-5-5-5-0-0-0-0-|
|-2--2--2--2--2-2-2-2-|-3-3-3-3---------|-2-2-2-2-2-2-2-2-|-3-3-3-3---------|
|---------------------|-----------------|-----------------|-----------------|


|-----------------|-----------------|-----------------|-----------------|
|-----------------|---------3-3-3-3-|-----------------|---------3-3-3-3-|
|-4-4-4-4-4-4-4-4-|-5-5-5-5-2-2-2-2-|-4-4-4-4-4-4-4-4-|-5-5-5-5-2-2-2-2-|
|-4-4-4-4-4-4-4-4-|-5-5-5-5-0-0-0-0-|-4-4-4-4-4-4-4-4-|-5-5-5-5-0-0-0-0-|
|-2-2-2-2-2-2-2-2-|-3-3-3-3---------|-2-2-2-2-2-2-2-2-|-3-3-3-3---------|
|-----------------|-----------------|-----------------|-----------------|


                   Verse
|-----------------|---------------------|----------------------|
|-----------------|-------4---------2---|----5---4-(4)---------|
|-4-4-4-4-4-4-4-4-|-------4---------2---|----4---4-(4)----4----|
|-4-4-4-4-4-4-4-4-|-------4-4-------2-2-|----2-1-4-(4)----4----|
|-2-2-2-2-2-2-2-2-|-2--2--2-2-0--0--0-0-|--------2-(2)-2--2-2--|
|-----------------|---------------------|-0--------------------|


|---------------------|---------------------|---------------------|
|-------4---------2---|----5---4-(4)--------|-------4---------2---|
|-------4---------2---|----4---4-(4)----4---|-------4---------2---|
|-------4-4-------2-2-|----2-1-4-(4)----4---|-------4-4-------2-2-|
|-2--2--2-2-0--0--0-0-|--------2-(2)-2--2-2-|-2--2--2-2-0--0--0-0-|
|---------------------|-0-------------------|---------------------|


|---------------------|---------------------|----------------------|
|----5---4-(4)--------|-------4---------2---|----5---4-(4)---------|
|----4---4-(4)----4---|-------4---------2---|----4---4-(4)----4----|
|----2-1-4-(4)----4---|-------4-4-------2-2-|----2-1-4-(4)----4----|
|--------2-(2)-2--2-2-|-2--2--2-2-0--0--0-0-|--------2-(2)-2--2-2--|
|-0-------------------|---------------------|-0--------------------|


|---------------------|---------------------|---------------------|
|-------4---------2---|----5---4-(4)--------|-------4---------2---|
|-------4---------2---|----4---4-(4)----4---|-------4---------2---|
|-------4-4-------2-2-|----2-1-4-(4)----4---|-------4-4-------2-2-|
|-2--2--2-2-0--0--0-0-|--------2-(2)-2--2-2-|-2--2--2-2-0--0--0-0-|
|---------------------|-0-------------------|---------------------|


|---------------------|---------------------|----------------------|
|----5---4-(4)--------|-------4---------2---|----5---4-(4)---------|
|----4---4-(4)----4---|-------4---------2---|----4---4-(4)----4----|
|----2-1-4-(4)----4---|-------4-4-------2-2-|----2-1-4-(4)----4----|
|--------2-(2)-2--2-2-|-2--2--2-2-0--0--0-0-|--------2-(2)-2--2-2--|
|-0-------------------|---------------------|-0--------------------|


                       Chorus
|---------------------|------------------|-----------------|------------------|
|-------4---------2---|----5---4---------|---------3-3-3-3-|------------------|
|-------4---------2---|----4---4---4-4-4-|-5-5-5-5-2-2-2-2-|-4-4-4-4-4-4-4-4--|
|-------4-4-------2-2-|----2-1-4-4-4-4-4-|-5-5-5-5-0-0-0-0-|-4-4-4-4-4-4-4-4--|
|-2--2--2-2-0--0--0-0-|--------2-2-2-2-2-|-3-3-3-3---------|-2-2-2-2-2-2-2-2--|
|---------------------|-0----------------|-----------------|------------------|


|-----------------|-----------------|-----------------|-----------------|
|---------3-3-3-3-|-----------------|---------3-3-3-3-|-----------------|
|-5-5-5-5-2-2-2-2-|-4-4-4-4-4-4-4-4-|-5-5-5-5-2-2-2-2-|-4-4-4-4-4-4-4-4-|
|-5-5-5-5-0-0-0-0-|-4-4-4-4-4-4-4-4-|-5-5-5-5-0-0-0-0-|-4-4-4-4-4-4-4-4-|
|-3-3-3-3---------|-2-2-2-2-2-2-2-2-|-3-3-3-3---------|-2-2-2-2-2-2-2-2-|
|-----------------|-----------------|-----------------|-----------------|


|-----------------|-----------------|-----------------|-----------------|
|---------3-3-3-3-|-----------------|---------3-3-3-3-|-----------------|
|-5-5-5-5-2-2-2-2-|-4-4-4-4-4-4-4-4-|-5-5-5-5-2-2-2-2-|-4-4-4-4-4-4-4-4-|
|-5-5-5-5-0-0-0-0-|-4-4-4-4-4-4-4-4-|-5-5-5-5-0-0-0-0-|-4-4-4-4-4-4-4-4-|
|-3-3-3-3---------|-2-2-2-2-2-2-2-2-|-3-3-3-3---------|-2-2-2-2-2-2-2-2-|
|-----------------|-----------------|-----------------|-----------------|


|-----------------|-----------------|-----------------|-----------------|
|---------3-3-3-3-|-----------------|---------3-3-3-3-|-----------------|
|-5-5-5-5-2-2-2-2-|-4-4-4-4-4-4-4-4-|-5-5-5-5-2-2-2-2-|-4-4-4-4-4-4-4-4-|
|-5-5-5-5-0-0-0-0-|-4-4-4-4-4-4-4-4-|-5-5-5-5-0-0-0-0-|-4-4-4-4-4-4-4-4-|
|-3-3-3-3---------|-2-2-2-2-2-2-2-2-|-3-3-3-3---------|-2-2-2-2-2-2-2-2-|
|-----------------|-----------------|-----------------|-----------------|


                                     Outro
|-----------------|-----------------|---------------------|-----------------|
|---------3-3-3-3-|-----------------|-------4---------2---|----5---4-(4)----|
|-5-5-5-5-2-2-2-2-|-4-4-4-4-4-4-4-4-|-------4---------2---|----4---4-(4)----|
|-5-5-5-5-0-0-0-0-|-4-4-4-4-4-4-4-4-|-------4---------2---|----2-1-4-(4)----|
|-3-3-3-3---------|-2-2-2-2-2-2-2-2-|-2--2----2-0--0----0-|--------2-(2)----|
|-----------------|-----------------|---------------------|-0---------------|


|------------------|------------|------------|--------|
|-(4)--------------|-(4)--------|-(4)--------|-(4)----|
|-(4)--------------|-(4)--------|-(4)--------|-(4)----|
|-(4)--------------|-(4)--------|-(4)--------|-(4)----|
|-(2)--------------|-(2)--------|-(2)--------|-(2)----|
|------------------|------------|------------|--------|


|------------|------------|------------|--------*|
|-(4)--------|-(4)--------|-(4)--------|-(4)----*|
|-(4)--------|-(4)--------|-(4)--------|-(4)----*|
|-(4)--------|-(4)--------|-(4)--------|-(4)----*|
|-(2)--------|-(2)--------|-(2)--------|-(2)----*|
|------------|------------|------------|--------*|

--------------------------------------------------------------------------------
                         Road To Acceptance

Intro
E|---------------------------------------------------|---------|-------------||
B|---------------------------------------------------|---------|-15-15-15-15-||
G|-6-6-6-7-7-7-7-6-6-6-7-7-7-7-6-6-6-7-7-7-7-9-9-9-9-|-7-7-7-7-|-14-14-14-14-||
D|-4-4-4-5-5-5-5-4-4-4-5-5-5-5-4-4-4-5-5-5-5-7-7-7-7-|-5-5-5-5-|-12-12-12-12-||
A|---------------------------------------------------|---------|-------------||
E|---------------------------------------------------|---------|-------------||

Verse   bass line with something like this played by BJ
E|----------------------------------------------------------------------|
B|----------------------------------------------------------------------|
G|----------------------------------------------------------------------|
D|----------------------------------------------------------------------|
A|-9-9-10--9-9-10--9-9-10--9-9-10--9-9-10--9-9-10-----------------------|
E|----------------------------------------------------------------------|


pre chorus

E|-------------------------------------------------||
B|-------------------------------------------------||
G|-4-4-4-4-4-4-4-4-4-----------------------7-7-----||
D|-4-4-4-4-4-4-4-4-4-7-7-7-7-7-7-7-7-7-4-4-7-7-7-7-||
A|-2-2-2-2-2-2-2-2-2-7-7-7-7-7-7-7-7-7-4-4-5-5-7-7-||
E|-------------------5-5-5-5-5-5-5-5-5-2-2-----5-5-||

chorus

E|-----------------------------------------------------------------||
B|-----------------------------------------------------------------||
G|-7-7-7-7-7-7-7-7-5-5-5-5-5-5-5-5-----------------7-7-7-7-7-7-7-7-||
D|-7-7-7-7-7-7-7-7-5-5-5-5-5-5-5-5-7-7-7-7-7-7-7-7-7-7-7-7-7-7-7-7-||
A|-5-5-5-5-5-5-5-5-3-3-3-3-3-3-3-3-7-7-7-7-7-7-7-7-5-5-5-5-5-5-5-5-||
E|---------------------------------5-5-5-5-5-5-5-5-----------------|| x2

E|---------------------------------------------||
B|---------------------------------------------||
G|-5-5-5-5---------5-5-5-5---------5-5-5-5-----||
D|-5-5-5-5-5-5-5-5-5-5-5-5-5-5-5-5-5-5-5-5-5---||
A|-3-3-3-3-5-5-5-5-3-3-3-3-5-5-5-5-3-3-3-3-5---||
E|---------3-3-3-3---------3-3-3-3---------3---||

outro 

E|---------------------------------------||
B|---------------------------------------||
G|-5-4----5-4----5-4--------------7------||
D|-5-4-5--5-4-5--5-4-5------------7------||
A|-3-2-5--3-2-5--3-2-5------------5------||
E|-----3------3------3-------------------||


Intro
Verse x 2
Pre-chorus x 2
Chorus
verse x2
pre-chorus x 2
chorus
bridge ( just bass line , lyrics and various feedback) then a pickslide
outro


------------------------------------------------------------------------------

                          Rest

Intro
  Q.=65
           F5        G5                                    F5
 12/8
  Gtr I
|----------------||--------------------------|----------------------------||
|----------------||o-------------------------|---------------------------o||
|------------0---||--------0-----------0-----|-------0-------0-----0------||
|----------------||----------0-----------0---|---------0-------3----------||
|--------------3-||o---5-------5---5-------5-|---5-------------------3---o||
|----------1-----||--3---3-------3---3-------|-3---3-----3-1-----1--------||


 Verses 1 & 3
  $
  G5                                                  F5
|-------------------------|-------------------------|--------------------------|
|-------------------------|-------------------------|--------------------------|
|-------0-------0-----0---|-------0-----0-----0-----|-------0-----0-------0----|
|---------0-------0-----0-|---------0-----0-----0---|---0-----0-----0-------0--|
|---5-------5-------------|---5-------5-------------|-----------------3-3------|
|-3---3-------3-----3-----|-3---3-----------3-----3-|-1---1-----1--------------|


  G5
|-------------------------|-------------------------|--------------------------|
|-------------------------|-------------------------|--------------------------|
|-------0-----------0-----|-------0-----------0-----|-------0-----------0------|
|---------0-----------0---|---------0-----------0---|---------0-----------0----|
|---5-------5---5-------5-|---5-------5---5-------5-|---5-------5---5-------5--|
|-3---3-------3---3-------|-3---3-------3---3-------|-3---3-------3---3--------|


  F5
|-------------------------|
|-------------------------|
|-------0-----------0-----|
|---------0-----------0---|
|---3-------3---3-------3-|
|-1---1-------1---1-------|


                            Chorus
  G5                         Bb5         A5    F5
|-------------------------||--------------------------|
|-------------------------||--------------------------|
|-------0---------0-------||-------0---------0---0----|
|---------0-----------0---||---3-----3-3---2-------3--|
|---5-------5---5-------0-||-1---1-------0------------|
|-3---3-------3-----3-----||-------------------1------|


                   To Coda
  G5                                    F5
|-------------------------|-------------------------|
|-------------------------|-------------------------|
|-------0-----------0-----|---0-----0-----0-----0---|
|---------0-----------0---|-----0-----0-----0-----0-|
|---5-------5---5-------5-|-------------------------|
|-3---3-------3---3-------|-3-----3-----1-----1-----|


  G5
|--------------|---------------------|
|--------------|---------------------|
|--------------|---------------------|
|--------------|---------------------|
|-5------------|-(5)------(5)--------|
|-3------------|-(3)------(3)---3----|


 Verse 2
  G5                                                  F5
|-------------------------|-------------------------|--------------------------|
|-------------------------|-------------------------|--------------------------|
|-------------------------|-------------------0-----|-------0-----------0------|
|-------------------------|---------------------0---|---------0-----------0----|
|-5--5-(5)---(5)----------|-5-5-5-5-5-5---5---------|---3-------3---3-------3--|
|-3---------------3-(3)---|-3-3-3-3-3-3-3---3-----3-|-1---1-------1---1--------|


  G5
|-------------------------|---------------------|-----------------|
|-------------------------|---------------------|-----------------|
|-------0-----------------|------------------0--|------------0----|
|---------0---------------|---------------------|----------0------|
|---5-------5---5---5---5-|-5------(5)---(5)----|-5---(5)---------|
|-3---3-------3---3---3---|-3------(3)---(3)----|-3---(3)---------|


  F5
|-------------------------|
|-------------------------|
|-------0-----------0-----|
|---------0-----------0---|
|---3-------3---3-------3-|
|-1---1-------1---1-------|


                            Chorus
  G5                         Bb5         A5
|-------------------------||--------------------------|
|-------------------------||--------------------------|
|-------0---------0-------||-------0---------0---0----|
|---------0-----------0---||---3-----3-3---2-------3--|
|---5-------5---5-------0-||-1---1-------0------------|
|-3---3-------3-----3-----||-------------------1------|


  G5
|-------------------------||
|-------------------------||
|-------0-----------0-----||
|---------0-----------0---||
|---5-------5---5-------5-||
|-3---3-------3---3-------||


 Interlude
                            Bb5             A5
|-------------------------|--------------------------|
|-------------------------|--------------------------|
|-------0-----------0-----|-------0-----------0------|
|---------0-----------0---|---3-----3-----------2----|
|---5-------5---5-------0-|-1---1-----1-0-0-0-----0--|
|-3---3-------3---3-------|--------------------------|


  Bb5         A5            Bb5         C5            D5
|-------------------------|-------------------------|--------------------------|
|-------------------------|-------------------------|--------------------------|
|-------0-----------0-----|-------0-----------0-----|-------0-----------0------|
|---3-----3-----2-----2---|---3-----3-----5-5---5---|---7-----7---7---7---7----|
|-1---1-----1-0---0-----0-|-1---1-----1-3-3-------3-|-5---5-----5---5-------5--|
|-------------------------|-------------------------|--------------------------|


              D.S. al Coda   &
  D5          F5             G5
|-------------------------||-------------------------|
|-------------------------||-------------------------|
|-------0-------0-----0---||---0-----0-------0-------|
|-7-------7-------0-----0-||-----0-----0---0---------|
|---5-5-------------------||---------------------5-0-|
|-----------0-1-----1-----||-3-----3-----3-----3-----|


  Bb5         A5    F5      G5
|-------------------------|--------------|--------*|
|-------------------------|--------------|--------*|
|-------0-------0-----0---|--------------|--------*|
|---3-----3-------2-----0-|--------------|--------*|
|-1---1-----1-0-----------|-5------------|-(5)----*|
|-------------------1-----|-3------------|-(3)----*|

--------------------------------------------------------------------------------
                      
                                The Judge's Daughter

 verse
E|---------------------------------------------------------------------------||
B|---------------------------------------------------------------------------||
G|--------------------55555--------------------------------------------------||
D|---55555---333333---55555---555555-----------------------------------------||
A|---55555---333333---33333---555555-----------------------------------------||
E|---33333---111111-----------333333-----------------------------------------||

  chorus pt 1
E|---------------------------------------------------------------------------||
B|---------------------------------------------------------------------------||
G|---555555---777777---------------------------------------------------------||
D|---555555---777777---5555--3--555555---------------------------------------||
A|---333333---555555---5555--3--555555---------------------------------------||
E|---------------------3333--1--333333---------------------------------------||
pt 2
E|---------------------------------------------------------------------------||
B|---------------------------------------------------------------------------||
G|---555555---777777---555555---777777---------------------------------------||
D|---555555---777777---555555---777777---5555--3--555555---555--3--555555----||
A|---333333---555555---333333---555555---5555--3--555555---555--3--555555----||
E|---------------------------------------3333--1--333333---333--1--333333----||


  interlude
E|---------------------------------------------------------------------------||
B|---------------------------------------------------------------------------||
G|---------------------------------------------------------------------------||
D|---5555--3--55---5555--3--55---5555--3--55---5555--3--5555-----------------||
A|---5555--3--55---5555--3--55---5555--3--55---5555--3--5555-----------------||
E|---3333--1--33---3333--1--33---3333--1--33---3333--1--3333-----------------||

Solo

E|---------3---------3---------------------------------------||
B|-------3---------3-----------------------------------------||
G|--5^^-------5^^-------5--3--3/2-----2h3--2-----------------||
D|---------------------------------3---------3--0------------||
A|----------------------------------------------0--3-5-5-----||
E|-----------------------------------------------------------||
Pm                                                ------

E|--------------------------------3-3------3-3---3--6p3------||
B|--------------------------------3-3------3-3-3--------6-3--||
G|--------------3-0---3-5-3-5^^--------5^^-------------------||
D|--3--5-5-5-5------5----------------------------------------||
A|-----------------------------------------------------------||
E|-----------------------------------------------------------||
   -----------------------

E|-----------------------------------------------------------||
B|--6^^--6-6-3-----------------------------------------------||
G|--------------5^^--5p3----3-5--5p3--3--------------------x-||
D|---------------------------------------5-4-3-----------5---||
A|----------------------------------------------5-4-3/1------||
E|-----------------------------------------------------------||

E|-----------------------------------------------------------||
B|--------15-------15-------15--------15--15-----------------||
G|--17p15----17^^-----17^^------17^^----------17^^--15----15-||
D|-----------------------------------------------------------||
A|-----------------------------------------------------------||
E|-----------------------------------------------------------

E|------------------------------15-------------------15--16^^||
B|--------------------------15------18^^--18^^--18^----------||
G|--15--17p15------15--17^-----------------------------------||
D|-------------17--------------------------------------------||
A|-----------------------------------------------------------||
E|-----------------------------------------------------------||

E|------------------------3----------3-----------------------||
B|---------------------3----------3--------------------------||
G|--3--5p3-----3--5^^--------5^^--------5^^--5p3-----3--3--3-||
D|----------5-------------------------------------5----------||
A|-----------------------------------------------------------||
E|-----------------------------------------------------------||

E|-------------------------------------||
B|-------------------------------------||
G|-----0--0-----0---0--0--0--0-0--0----||
D|--5--------3--2---5-----5--5----5----||
A|-------------------------------------||
E|-------------------------------------||

(^^ full bend  ^ 1/4 bend)


Verse x 4
Chorus pt 1 x 2
Chorus pt 2 
verse x 2
verse x 4
chorus pt 1 x 2
chorus pt 2
interlude
solo
chorus pt 1 x 2
chorus pt 2
interlude

-----------------------------------------------------------------------------
                            Paper Lanterns


      
   Intro
  
E|---------------------------------------------------------------|
B|---------------------------------------------------------------|
G|------------7--7-----------------------------------------------|
D|-7--7--5-5--7--7--7-7------------------------------------------|
A|-7--7--5-5--5--5--7-7------------------------------------------|
E|-5--5--3-3--------5-5------------------------------------------|

Verse (x2)
  
E|------------------------------------------------------------------------|
B|------------------------------------------------------------------------|
G|------------77777-------------------777777------------------------------|
D|-7777-22222-77777-777777-7777-55555-777777-77777------------------------|
A|-7777-22222-55555-777777-7777-55555-555555-77777------------------------|
E|-5555-00000-55555-555555-5555-33333--------55555------------------------|

Chorus

E|-------------------------------------------------------------------------|
B|-------------------------------------------------------------------------|
G|-77777-99999------------7------77777-99999------------------7------------|
D|-77777-99999------7--7--7-7777-77777-99999-7777-4444-555555-7------------|
A|-55555-77777------7--7--5-7777-55555-77777-7777-4444-555555-5------------|
E|------------------5--5--5-5555-------------5555-2222-333333--------------|

Bridge (played over verse bassline)
E|---------------------------------------------------------------|
B|---------------------------------------------------------------|
G|-----7----7-9b--9b-7-----------------------7-------7-7-9-9b-7--|
D|-7/9---99------------99\77\6\5\4\3\2\1--/9---9-7-9-------------|
A|---------------------------------------------------------------|
E|---------------------------------------------------------------|


Order

Intro (x2 1 guitar, x2 with band)
Verse 1
Chorus
Intro (x2)
Verse 2
Chorus
Intro (x4)
Bridge
Chorus
Intro (x4)


(Chorus)
(Bridge)
(Chorus)

---------------------------------------------------------------------------
                                Why Do You Want Him?



INTRO 

E|------------------------------------------------------|
B|------------------------------------------------------|
G|--9-9-9-9-9-9--6-6-6-6-6-6----------------------------|
D|--9-9-9-9-9-9--6-6-6-6-6-6--7-7-7-7-7-7--9-9-9-9-9-9--|
A|--7-7-7-7-7-7--4-4-4-4-4-4--7-7-7-7-7-7--9-9-9-9-9-9--|
E|----------------------------5-5-5-5-5-5--7-7-7-7-7-7--| X2

E------------------------------------------------------|
B------------------------------------------------------|
G------------------------------------------------------|
D--2-2-2-2-2-2--9-9-9-9-9-9--6-6-6-6-6-6--7-7-7-7-7-7--|
A--2-2-2-2-2-2--9-9-9-9-9-9--6-6-6-6-6-6--7-7-7-7-7-7--|
E--0-0-0-0-0-0--7-7-7-7-7-7--4-4-4-4-4-4--5-5-5-5-5-5--| X 2


VERSES:
E------------------------------------------------------|
B------------------------------------------------------|
G------------------------------------------------------|
D--2-2-2-2-2-2--9-9-9-9-9-9--6-6-6-6-6-6--7-7-7-7-7-7--|
A--2-2-2-2-2-2--9-9-9-9-9-9--6-6-6-6-6-6--7-7-7-7-7-7--|
E--0-0-0-0-0-0--7-7-7-7-7-7--4-4-4-4-4-4--5-5-5-5-5-5--| x4

Chorus 
E|------------------------------------------------------|
B|------------------------------------------------------|
G|--9-9-9-9-9-9--6-6-6-6-6-6----------------------------|
D|--9-9-9-9-9-9--6-6-6-6-6-6--7-7-7-7-7-7--9-9-9-9-9-9--|
A|--7-7-7-7-7-7--4-4-4-4-4-4--7-7-7-7-7-7--9-9-9-9-9-9--|
E|----------------------------5-5-5-5-5-5--7-7-7-7-7-7--|| x4


BRIDGE:
E|---------------------||
B|---------------------||
G|------5--------------||
D|--6-8-5-6-8-8-8-8-8--||
A|--6-8-3-6-8-8-8-8-8--||
E|--4-6---4-6-6-6-6-6--|| X4

Solo
e|-0-0-0-0-0--(0)-0-0-/----0-0------0-----0-------0-------0------0-----0---|
B|-5-5-5-5-5--(5)-5-5-/-9--9-9--10-10-\-9-9-/-10-10-/-12-12-\-10-10--9-9---|
G|-------------------------------------------------------------------------|
D|-------------------------------------------------------------------------|
A|-------------------------------------------------------------------------|
E|-------------------------------------------------------------------------|


e|-----0--0---0---0--0-0-------0--0-0-0-0---0------0-0-0-0--0----0----|
B|-12--12-12-12---9--9-9-/-10--9--5-5-5-5-\-3-/-5--5-5-5-5--3-5--5----|
G|--------------------------------------------------------------------|
D|--------------------------------------------------------------------|
A|--------------------------------------------------------------------|
E|--------------------------------------------------------------------|

e|----------------------------12-12-----12-12------12-12-----12-12--------|
B|-0-----------------12-------12-12-----12-12------12-12-----12-12--------|
G|-----2p-0----------12-------------14b-------14b--------14b--------12----|
D|-----------2p-0--------14-----------------------------------------------|
A|------------------------------------------------------------------------|
E|------------------------------------------------------------------------|

e|--------------------------------------------------------------------------|
B|-15---15---15----15---15---15---15-------15---12-12-----------------------|
G|-14b--14b--14b---12---14b--14---12-/-14--12---12-12--14--12------12--14b--|
D|-------------------------------------------------------------14-----------|
A|--------------------------------------------------------------------------|
E|--------------------------------------------------------------------------|

e|-----12-----------12---------12----------12----------12---12-12---|
B|-12-----------12----------12----------12----------12--------------|
G|---------14b----------14b--------14b----------14b-----------------|
D|------------------------------------------------------------------|
A|------------------------------------------------------------------|
E|------------------------------------------------------------------|

e|-12-12-12-12---15--12---------------------------|
B|-------------------------15---12---15b----------|
G|------------------------------------------------|
D|------------------------------------------------|
A|------------------------------------------------|
E|------------------------------------------------

intro x2
verse x6
chorus x2
verse x6
chorus x4
bridge x4
solo
chorus x4

------------------------------------------------------------------------------

Intro
    Q=155
   4/4
    Gtr I
                 4x
||---------------||----|
||o-------------o||----|
||--5-5----------||----|
||--5-5---4-5----||----|
||o-3-3---4-5-5-o||----|
||------0-2-3-3--||----|


   Verse
                                   8x
||---------------------------------||----|
||o-------------------------------o||----|
||---------------------------------||----|
||--5-5-5-5-5-5-5-3-3-3-3-3-3-3-3--||----|
||o-5-5-5-5-5-5-5-3-3-3-3-3-3-3-3-o||----|
||--3-3-3-3-3-3-3-1-1-1-1-1-1-1-1--||----|


   Chorus
                         3x
||-----------------------||--------------------------|
||o---------------------o||--------------------------|
||--5-5-5-5-5------------||-5-5-5-5-5-7-7-7-7-7-7----|
||--5-5-5-5-5-5-5-5-5-5--||-5-5-5-5-5-7-7-7-7-7-7----|
||o-3-3-3-3-3-5-5-5-5-5-o||-3-3-3-3-3-5-5-5-5-5-5----|
||------------3-3-3-3-3--||--------------------------|


   Interlude
   4/4
    Gtr I
                 4x
||---------------||----|
||o-------------o||----|
||--5-5----------||----|
||--5-5---4-5----||----|
||o-3-3---4-5-5-o||----|
||------0-2-3-3--||----|


   Verse
                                   8x
||---------------------------------||----|
||o-------------------------------o||----|
||---------------------------------||----|
||--5-5-5-5-5-5-5-3-3-3-3-3-3-3-3--||----|
||o-5-5-5-5-5-5-5-3-3-3-3-3-3-3-3-o||----|
||--3-3-3-3-3-3-3-1-1-1-1-1-1-1-1--||----|


   Chorus
                         3x
||-----------------------||--------------------------|
||o---------------------o||--------------------------|
||--5-5-5-5-5------------||-5-5-5-5-5-7-7-7-7-7-7----|
||--5-5-5-5-5-5-5-5-5-5--||-5-5-5-5-5-7-7-7-7-7-7----|
||o-3-3-3-3-3-5-5-5-5-5-o||-3-3-3-3-3-5-5-5-5-5-5----|
||------------3-3-3-3-3--||--------------------------|


                 4x
||---------------||----|
||o-------------o||----|
||--5-5----------||----|
||--5-5---4-5----||----|
||o-3-3---4-5-5-o||----|
||------0-2-3-3--||----|


||----------------------------||----|
||o--------------------------o||----|
||----------------------------||----|
||--5-5---------3-3-----------||----|
||o-5-5--2-3-2--3-3--0-1-0---o||----|
||--3-3---------1-1-----------||----|


                              4x
||----------------------------||----|
||o--------------------------o||----|
||----------------------------||----|
||--5-5---------3-3-----------||----|
||o-5-5--x-x-x--3-3--x-x-x---o||----|
||--3-3---------1-1-----------||----|


 Solo
|-15-17-17-15-17--17-15--17-17-15-17-17-15--17-17--15-17-17-15-17-17--15-17--17-15-17-17-15--17-17--15-15-|
|-17-20-20-17-20--20-17--20-20-17-20-20-17--20-20--17-20-20-17-20-20--17-20--20-17-20-20-17--20-20--17----|
|-19-------19--------19--------19-------19---------19-------19--------19--------19-------19---------19----|
|---------------------------------------------------------------------------------------------------------|
|---------------------------------------------------------------------------------------------------------|
|---------------------------------------------------------------------------------------------------------|
|
| Gtr II
|---------------------------------------------------------------------------------------------------------|
|---------------------------------------------------------------------------------------------------------|
|--6--6--6-------------------6--6--6-------------------6--6--6-------------------6--6---------------------|
|--6--6--6--5-(5)--6-(6)--6--6--6--6--5-(5)--6-(6)--6--6--6--6--5-(5)--6-(6)--6--6--6--5-(5)--6-(6)--6----|
|--4--4--4--5-(5)--6-(6)--6--4--4--4--5-(5)--6-(6)--6--4--4--4--5-(5)--6-(6)--6--4--4--5-(5)--6-(6)--6----|
|-----------3-(3)--4-(4)--4-----------3-(3)--4-(4)--4-----------3-(3)--4-(4)--4--------3-(3)--4-(4)--4----|


|-(15)---15---14----12--14-12-12-14-(14)------------10-14-12-12----12--12-14--12-19-17-------17-(17)-------|
|----------------------------------------13-----12--------------14---------------------19-17---------------|
|--------------------------------------------14------------------------------------------------------------|
|----------------------------------------------------------------------------------------------------------|
|----------------------------------------------------------------------------------------------------------|
|----------------------------------------------------------------------------------------------------------|
|
|----------------------------------------------------------------------------------------------------------|
|----------------------------------------------------------------------------------------------------------|
|---6--6--6-----------------6--6--6---------------------6--6--6--------------------------------------------|
|---6--6--6-5-(5)-6-(6)--6--6--6--6---5--(5)--6-(6)--6--6--6--6--5-(5)--6-(6)--6--6-----6--6--6---6--6-6-6-|
|---4--4--4-5-(5)-6-(6)--6--4--4--4---5--(5)--6-(6)--6--4--4--4--5-(5)--6-(6)--6--6-----6--6--6---6--6-6-6-|
|-----------3-(3)-4-(4)--4------------3--(3)--4-(4)--4-----------3-(3)--4-(4)--4--4-----4--4--4---4--4-4-4-|


   Chorus
                         3x
||-----------------------||--------------------------|
||o---------------------o||--------------------------|
||--5-5-5-5-5------------||-5-5-5-5-5-7-7-7-7-7-7----|
||--5-5-5-5-5-5-5-5-5-5--||-5-5-5-5-5-7-7-7-7-7-7----|
||o-3-3-3-3-3-5-5-5-5-5-o||-3-3-3-3-3-5-5-5-5-5-5----|
||------------3-3-3-3-3--||--------------------------|


                         3x
||-----------------------||--------------------------|
||o---------------------o||--------------------------|
||--5-5-5-5-5------------||-5-5-5-5-5-7-7-7-7-7-7----|
||--5-5-5-5-5-5-5-5-5-5--||-5-5-5-5-5-7-7-7-7-7-7----|
||o-3-3-3-3-3-5-5-5-5-5-o||-3-3-3-3-3-5-5-5-5-5-5----|
||------------3-3-3-3-3--||--------------------------|


    Q=155
   4/4
    Gtr I
                 4x
||---------------||----|
||o-------------o||----|
||--5-5----------||----|
||--5-5---4-5----||----|
||o-3-3---4-5-5-o||----|
||------0-2-3-3--||----|


                              3x
||----------------------------||----|
||o--------------------------o||----|
||----------------------------||----|
||--5-5--4-5-4--3-3--2-3-2----||----|
||o-5-5--2-3-2--3-3--0-1-0---o||----|
||--3-3---------1-1-----------||----|


|------------------------------------|
|------------------------------------|
|------------------------------------|
|-5-5--4-5-4--3-3---------------x----|
|-5-5--2-3-2--3-3---------------x----|
|-3-3---------1-1---------------x----|


--------------------------------------------------------------------------
                                  Knowledge


Intro/Verse/Chorus
     D7            C7      G
e----------------------------3-33---|
B-----7---77-7---7-5-5-555---3-33---| x2
G-----5---55-5---5-3-3-333---4-44---|
D-----7---77-7-7-7-5-5-555-5-5-55---|
A---5-5-5-55-5-5-5-3-3-333-5--------|
E--------------------------3--------|

Solo (over verse Chords) at 1:11

e--------10~~~~~10~~~~~10~~~~~10~~~~~10~~~~~10~~~~~10~~~~~10~~-|
B---10h13--10h13--10h13--10h13--10h13--10h13--10h13--10h13-----|
G--------------------------------------------------------------|
D--------------------------------------------------------------|
A--------------------------------------------------------------|
E--------------------------------------------------------------|

Solo cont. at 1:15
                         3/4   1/2                       1/2
e------------------10---------13^-10h13p10-10------------------|
B----------------10--10-13^-10---------------13-10-------------|
G---10h12-10--10----------------------------------12-10-12^-12-|
D-----------12-------------------------------------------------|
A--------------------------------------------------------------|
E--------------------------------------------------------------|

Solo cont. at 1:20
        ~~         1/4
e----------10-10---------------------------------|
B----------10---10-------------------------------|
G---10--10--------12^-10-12-10-------------------|
D-----12----------------------12-10--10-12~~~~---|
A----------------------------------12------------|
E------------------------------------------------|


Order of Song

Intro
Verse 1
Chorus
Verse 2
Chorus
Solo (over verse chords)
Verse 3 (Bass only)
Chorus x2
End on C7
-----------------------------------------------------------------------------
                                   1,000 Hours

   F#11
      2 4 4 3 0 0

 Intro
  Q=178
  A5    D5/A        A5    D5/A        A5    D5/A        A            N.C.
 4/4
  Gtr I
|-----------------|-----------------|-----------------|----------------||
|-----------------|-----------------|-----------------|-----2-2-2------||
|-----------------|-----------------|-----------------|-----2-2-2--2---||
|-2-2-2-0-0-0-0-0-|-2-2-2-0-0-0-0-0-|-2-2-2-0-0-0-0-0-|-2-2-2-2-2--2-0-||
|-0-0-0-0-0-0-0-0-|-0-0-0-0-0-0-0-0-|-0-0-0-0-0-0-0-0-|-0-0-0-0-0--0-0-||
|-----------------|-----------------|-----------------|----------------||


   Verse
    A5    D5/A              A5    D5/A
                                                   4x
||------------------------|------------------------||-|
||o-----------------------|-----------------------o||-|
||--------(2)---(2)-(2)---|-------(2)---(2)-(2)----||-|
||--2-2-2--0--0--0---0----|-2-2-2--0--0--0---0-----||-|
||o-0-0-0--0--0--0---0--0-|-0-0-0--0--0--0---0--0-o||-|
||------------------------|------------------------||-|


    A5    D5/A                A5    D5/A
                                                        4x
||--------------------------|---------------------------||
||o-------------------------|--------------------------o||
||--------(2)-(2)-(2)-(2)---|-------(2)-(2)-(2)-(2)-----||
||--2-2-2--0---0---0---0--0-|-2-2-2--0---0---0---0--0---||
||o-0-0-0--0---0---0---0--0-|-0-0-0--0---0---0---0--0--o||
||--------------------------|---------------------------||


   Chorus
    F#11        G6
                                        4x
||--------0-------|--------0-(0)--------||
||o-------0-0-----|--------0-(0)---0---o||
||-----3--3-3-3---|--------4-(4)---4-4--||
||--4--4--4-4-4-5-|-(5)--5-5-(5)-5-5----||
||o-4--4--4-4-4-5-|-(5)--5-5-(5)-5-5---o||
||--2--2--2-2-2-3-|-(3)--3-3-(3)-3-3----||


    A5    D5/A        A5    D5/A
||------------------|------------------||
||o-----------------|-----------------o||
||------------------|------------------||
||--2-2-2-0-0-0-0---|-2-2-2-0-0-0-0----||
||o-0-0-0-0-0-0-0-0-|-0-0-0-0-0-0-0-0-o||
||------------------|------------------||


   Verse 2
    A5    D5/A                A5    D5/A
                                                       4x
||--------------------------|--------------------------||
||o-------------------------|-------------------------o||
||--------(2)-(2)-(2)-(2)---|-------(2)-(2)-(2)-(2)----||
||--2-2-2--0---0---0---0--0-|-2-2-2--0---0---0---0--0--||
||o-0-0-0--0---0---0---0--0-|-0-0-0--0---0---0---0--0-o||
||--------------------------|--------------------------||


      A5    D5/A              A5    D5/A
                                                      4x
|-||------------------------|-------------------------||
|-||o-----------------------|------------------------o||
|-||--------(2)---(2)-(2)---|-------(2)---(2)-(2)-----||
|-||--2-2-2--0--0--0---0----|-2-2-2--0--0--0---0------||
|-||o-0-0-0--0--0--0---0--0-|-0-0-0--0--0--0---0--0--o||
|-||------------------------|-------------------------||


   Chorus 2
    F#11        G6
                                        4x
||--------0-------|--------0-(0)--------||
||o-------0-0-----|--------0-(0)---0---o||
||-----3--3-3-3---|--------4-(4)---4-4--||
||--4--4--4-4-4-5-|-(5)--5-5-(5)-5-5----||
||o-4--4--4-4-4-5-|-(5)--5-5-(5)-5-5---o||
||--2--2--2-2-2-3-|-(3)--3-3-(3)-3-3----||


    A5    D5/A        A5      D5/A
                                       4x
||------------------|------------------||
||o-----------------|-----------------o||
||------------------|------------------||
||--2-2-2-0-0-0-0---|-2-2-2-0-0-0-0----||
||o-0-0-0-0-0-0-0-0-|-0-0-0-0-0-0-0-0-o||
||------------------|------------------||


   Bridge
    F#11               G6
                                         4x
||----0-------0------|---0-------0-------||
||o-----0-------0----|-----0-------0----o||
||--------3-------3--|-------4-------4---||
||--4-------4--------|-5-------5---------||
||o------------------|------------------o||
||-------------------|-------------------||


    A5    D5/A        A5    D5/A
                                       3x
||------------------|------------------||
||o-----------------|-----------------o||
||------------------|------------------||
||--2-2-2-0-0-0-0---|-2-2-2-0-0-0-0----||
||o-0-0-0-0-0-0-0-0-|-0-0-0-0-0-0-0-0-o||
||------------------|------------------||


  A5    D5/A        A5    D5/A
|-----------------|---------------------||
|-----------------|---------------15-15-||
|-----------------|---------------------||
|-2-2-2-0-0-0-0---|-2-2-2-0-0-0-0-12-12-||
|-0-0-0-0-0-0-0-0-|-0-0-0-0-0-0-0--0--0-||
|-----------------|---------------------||


 Guitar Solo
  N.C.(A)
|--------------------------|
|-15--15-14-14-14-14-14-15-|
|--------------------------|
|-12--12-11-11-11-11-11-12-|
|--0---0--0--0--0--0--0--0-|
|--------------------------|


|----------------------------------|--------------------|
|-(15)-14-(14)-12-(12)-12-12-10-10-|-10--10-8-8-8-8-8-8-|
|----------------------------------|--------------------|
|-(12)-11-(11)--9--(9)--9--9--7--7-|--7---7-5-5-5-5-5-5-|
|--(0)--0--(0)--0--(0)--0--0--0--0-|--0---0-0-0-0-0-0-0-|
|----------------------------------|--------------------|


|-----------------------|-----------------|
|-(8)-7-(7)-5-(5)-5-5-5-|-5s7-7-7-7s8-8-8-|
|-(0)-------------------|-----------------|
|-----4-(4)-2-(2)-2-2-2-|-2s4-4-4-4s5-5-5-|
|-(0)-0-(0)-0-(0)-0-0-0-|-0---0-0-0---0-0-|
|-----------------------|-----------------|


|-----------------------|-----------------------|
|-8s10-10-10--12-12-12--|-14--14-15-(15)-15-14--|
|-----------------------|-----------------------|
|-5s=7--7--7---9--9--9--|-11--11-12-(12)-12-11--|
|----0--0--0---0--0--0--|--0---0--0--(0)--0--0--|
|-----------------------|-----------------------|


|-------------------------|-----------------------|
|-14-15-(15)-15-14--14s15-|-15--15-14-(14)-14-12--|
|-------------------------|-----------------------|
|-11-12-(12)-12-11--11s12-|-12--12-11-(11)-11--9--|
|--0--0--(0)--0--0---0----|--0---0--0--(0)--0--0--|
|-------------------------|-----------------------|


|-------------------------|------------------------|
|-12-14-(14)-15-15s14-14--|-15----14-(14)s12-12----|
|-------------------------|------------------------|
|--9-11-(11)-12-12s11-11--|-12----11-(11)s=9--9s===|
|--0--0--(0)--0--0-----0--|--0--0--0--(0)-----0----|
|-------------------------|------------------------|


|-----------------------|----------------------|
|---14-(14)---15--14s15-|-15--15-14-(14)---12--|
|-----------------------|----------------------|
|-7-11-(11)---12--11s12-|-12--12-11-(11)----9--|
|----0--(0)-0--0---0----|--0---0--0--(0)-0--0--|
|-----------------------|----------------------|


|---------------------|-------------------|
|-12-10-(10)s8-8--8-8-|-8--(8)-7-(7)--5---|
|---------------------|-------------------|
|--9--7--(7)s5-5--5-5-|-5--(5)-4-(4)--2---|
|--0--0--(0)---0--0-0-|-0---0--0-(0)--0---|
|---------------------|-------------------|


                       Outro
                        A    Asus4      A    Asus4      A    Asus4
|--------------------||---------------|---------------|---------------|
|-(5)-5-5--5-5-5-2-2-||-2--x-3-(3)----|-2--x-3-(3)----|-2--x-3-(3)----|
|----------------2-2-||-2--x-2-(2)----|-2--x-2-(2)----|-2--x-2-(2)----|
|-(2)-2-2--2-2-2-2-2-||-2--x-2-(2)----|-2--x-2-(2)----|-2--x-2-(2)----|
|-(0)-0-0--0-0-0-0-0-||-0----0-(0)----|-0----0-(0)----|-0----0-(0)----|
|--------------------||---------------|---------------|---------------|


  A    Asus4
|---------------|------------:------------:------------:--------*|
|-2--x-3-(3)----|-(3)--------:-(3)--------:-(3)--------:-(3)----*|
|-2--x-2-(2)----|--2---------:-(2)--------:-(2)--------:-(2)----*|
|-2--x-2-(2)----|--2---------:-(2)--------:-(2)--------:-(2)----*|
|-0----0-(0)----|--0---------:-(0)--------:-(0)--------:-(0)----*|
|---------------|------------:------------:------------:--------*|

--------------------------------------------------------------------------------

                                      Dry Ice
Intro
E|---------------------------------------------------------------------|
B|--------------------2-----3------2-------------------2-----3-----2---|
G|-2-2-2-2-----4--------2-----2------2----2-----4--------2-----2-----2-|
D|-2-2-2---2-----2--------------------------2-----2--------------------|
A|-0-0-0-----0-----0------0-----0------0------0-----0------0-----0-----|
E|---------------------------------------------------------------------|


Verse (x2)
   G#5  C5   C#5  G#5    G#5  C5   C#5  D#5
E|---------------------------------------------------------------|
B|---------------------------------------------------------------|
G|------5555-6666-------------5555-6666-888888-------------------|
D|-6666-5555-6666-666666-6666-5555-6666-888888-------------------|
A|-6666-3333-4444-666666-6666-3333-4444-666666-------------------|
E|-4444-----------444444-4444------------------------------------|

Chorus
   C#5  G#5  (x3)  C#5  D#5
E|---------------------------------------------------------------|
B|---------------------------------------------------------------|
G|-6666------------6666------------------------------------------|
D|-6666-666666-----6666-888888-----------------------------------|
A|-4444-666666-----4444-888888-----------------------------------|
E|------444444----------666666-----------------------------------|

Bridge (x2)
   G#5  F5   C#5    G#5  F5   C#5  D#5
E|---------------------------------------------------------------|
B|---------------------------------------------------------------|
G|-----------666666-----------6666-------------------------------|
D|-6666-3333-666666-6666-3333-6666-888888------------------------|
A|-6666-3333-444444-6666-3333-4444-888888------------------------|
E|-4444-1111--------4444-1111------666666------------------------|

E|---------------------------------------------5--------5-----------|
B|--------------------------------4--5/7--(7)-----7--8-----8--7-----|
G|-2--2-2-2-2--4--4^6--2-2--2-2-------------------------------------|
D|------------------------------------------------------------------|
A|------------------------------------------------------------------|
E|------------------------------------------------------------------|

E|-----5-------5----------------------------------------------------|
B|-(7)---7--8----8--8-----------------------------------------------|
G|----------------------2--2-2-2-2--4--2--4^6----4-2----------------|
D|----------------------------------------------------4--4--2-------|
A|------------------------------------------------------------------|
E|------------------------------------------------------------------|

E|------------------------------------------2-----------------------|
B|----------------------------------------2-----------------14--17^-|
G|----------------2-----2h4p2-----2--4^6-------4^6^4---16^----------|
D|--4p2-----2--4-----4---------4------------------------------------|
A|-------4----------------------------------------------------------|
E|------------------------------------------------------------------|

E|----------------14--17^--(17)--17--14---------14-14--17-16-14-----|
B|--17^--17^--17-------------------------17^19------------------17--|
G|------------------------------------------------------------------|
D|------------------------------------------------------------------|
A|------------------------------------------------------------------|
E|------------------------------------------------------------------\

E|-----------------------------------------14------------------5---5|
B|-15-14-----------------------------------14----------------5---5--|
G|--------16-14-14-14-16p14-14-14--16^18------14------14/5----------|
D|-----------------------------------------------16^----------------|
A|------------------------------------------------------------------|
E|------------------------------------------------------------------|

E|-5-5-5----2------2---------10-------10-------------12-------12--------|
B|-5-5-5/2----2------2----------10-------10-------------12-------12-----|
G|--------------3------3--11-------11-------11-11/13-------13-------13--|
D|----------------------------------------------------------------------|
A|----------------------------------------------------------------------|
E|----------------------------------------------------------------------|

Intro
Verse 1
Chorus
G#5-C5-C#5-G#5 x2
Verse 2
Chorus x2
Bridge
Solo
Intro
Verse 1
Chorus x2
Bridge
End on G#5


(Chorus x2)
(Bridge)
(Solo)
(Intro)
(Verse 1)
(Chorus x2)
(Bridge)


----------------------------------------------------------------------------


                                   Only Of You
        
          F#5                  A5                   D5                   B5
      2 4 4 x x x          x 0 2 2 x x          x x 0 2 3 x          x 2 4 4 x x

           A                    B                 D6sus2                 E5
      x 0 2 2 2 x          x 2 4 4 4 x          x 5 7 7 0 0          x 7 9 9 x x

        E5open
      0 2 2 x x x

 Intro
  Q=184
             F#5A5 D5 A5      B5
 4/4
  Gtr I
|---------||----------------|-----------------|
|---------||-------3--------|-----------------|
|---------||----2--2--2-(2)s|=4-4-4-4-4-4-4---|
|---------||-4--2--0--2-(2)s|=4-4-4-4-4-4-4---|
|---------||-4--0-----0-(0)s|=2-2-2-2-2-2-2-0-|
|---------||-2--------------|-----------------|


  F#5A5 D5 A5      B5
|----------------|-----------------|
|-------3--------|-----------------|
|----2--2--2-(2)s|=4-4-4-4-4-4-4---|
|-4--2--0--2-(2)s|=4-4-4-4-4-4-4---|
|-4--0-----0-(0)s|=2-2-2-2-2-2-2-0-|
|-2--------------|-----------------|


  F#5A5 D5 A5      B5                F#5A5 D5 A5      B5
|----------------|-----------------|----------------|------------------|
|-------3--------|-----------------|-------3--------|------------------|
|----2--2--2-(2)s|=4-4-4-4-4-4-4---|----2--2--2-(2)s|=4-4-4-4-4-4-4----|
|-4--2--0--2-(2)s|=4-4-4-4-4-4-4---|-4--2--0--2-(2)s|=4-4-4-4-4-4-4----|
|-4--0-----0-(0)s|=2-2-2-2-2-2-2-0-|-4--0-----0-(0)s|=2-2-2-2-2-2-2-0--|
|-2--------------|-----------------|-2--------------|------------------|


  A           B                  D6sus2            E5
|---------------|----------------0-0-|-0--0--0-0-0---|------------------|
|-2--2--2-2-2-4-|-(4)-4-4--4-4-4-0-0-|-0--0--0-0-0---|------------------|
|-2--2--2-2-2-4-|-(4)-4-4--4-4-4-7-7-|-7--7--7-7-7-9-|-(9)-9-9--9-9-9-9-|
|-2--2--2-2-2-4-|-(4)-4-4--4-4-4-7-7-|-7--7--7-7-7-9-|-(9)-9-9--9-9-9-9-|
|-0--0--0-0-0-2-|-(2)-2-2--2-2-2-5-5-|-5--5--5-5-5-7-|-(7)-7-7--7-7-7-7-|
|---------------|--------------------|---------------|------------------|


  A           B                  D6sus2            E5
|---------------|----------------0-0-|-0--0--0-0-0---|------------------|
|-2--2--2-2-2-4-|-(4)-4-4--4-4-4-0-0-|-0--0--0-0-0---|------------------|
|-2--2--2-2-2-4-|-(4)-4-4--4-4-4-7-7-|-7--7--7-7-7-9-|-(9)-9-9--9-9-9-9-|
|-2--2--2-2-2-4-|-(4)-4-4--4-4-4-7-7-|-7--7--7-7-7-9-|-(9)-9-9--9-9-9-9-|
|-0--0--0-0-0-2-|-(2)-2-2--2-2-2-5-5-|-5--5--5-5-5-7-|-(7)-7-7--7-7-7-7-|
|---------------|--------------------|---------------|------------------|


   Verses 1 & 2
    A           B                  D6sus2            E5
||----------------|----------------0-0-|-0--0--0-0-0---|-------------------|
||o-2--2--2-2-2-4-|-(4)-4-4--4-4-4-0-0-|-0--0--0-0-0---|-------------------|
||--2--2--2-2-2-4-|-(4)-4-4--4-4-4-7-7-|-7--7--7-7-7-9-|-(9)-9-9--9-9-9-9--|
||--2--2--2-2-2-4-|-(4)-4-4--4-4-4-7-7-|-7--7--7-7-7-9-|-(9)-9-9--9-9-9-9--|
||o-0--0--0-0-0-2-|-(2)-2-2--2-2-2-5-5-|-5--5--5-5-5-7-|-(7)-7-7--7-7-7-7--|
||----------------|--------------------|---------------|-------------------|


  A           B                  D6sus2            E5
|---------------|----------------0-0-|-0--0--0-0-0---|------------------|
|-2--2--2-2-2-4-|-(4)-4-4--4-4-4-0-0-|-0--0--0-0-0---|------------------|
|-2--2--2-2-2-4-|-(4)-4-4--4-4-4-7-7-|-7--7--7-7-7-9-|-(9)-9-9--9-9-9-9-|
|-2--2--2-2-2-4-|-(4)-4-4--4-4-4-7-7-|-7--7--7-7-7-9-|-(9)-9-9--9-9-9-9-|
|-0--0--0-0-0-2-|-(2)-2-2--2-2-2-5-5-|-5--5--5-5-5-7-|-(7)-7-7--7-7-7-7-|
|---------------|--------------------|---------------|------------------|


  A           B                  D6sus2            E5
|---------------|----------------0-0-|-0--0--0-0-0---|------------------|
|-2--2--2-2-2-4-|-(4)-4-4--4-4-4-0-0-|-0--0--0-0-0---|------------------|
|-2--2--2-2-2-4-|-(4)-4-4--4-4-4-7-7-|-7--7--7-7-7-9-|-(9)-9-9--9-9-9-9-|
|-2--2--2-2-2-4-|-(4)-4-4--4-4-4-7-7-|-7--7--7-7-7-9-|-(9)-9-9--9-9-9-9-|
|-0--0--0-0-0-2-|-(2)-2-2--2-2-2-5-5-|-5--5--5-5-5-7-|-(7)-7-7--7-7-7-7-|
|---------------|--------------------|---------------|------------------|


  A           B                  D6sus2            E5
|---------------|----------------0-0-|-0--0--0-0-0---|------------------|
|-2--2--2-2-2-4-|-(4)-4-4--4-4-4-0-0-|-0--0--0-0-0---|------------------|
|-2--2--2-2-2-4-|-(4)-4-4--4-4-4-7-7-|-7--7--7-7-7-9-|-(9)-9-9--9-9-9-9-|
|-2--2--2-2-2-4-|-(4)-4-4--4-4-4-7-7-|-7--7--7-7-7-9-|-(9)-9-9--9-9-9-9-|
|-0--0--0-0-0-2-|-(2)-2-2--2-2-2-5-5-|-5--5--5-5-5-7-|-(7)-7-7--7-7-7-7-|
|---------------|--------------------|---------------|------------------|


 Chorus
  F#5A5 D5 A5      B5                F#5A5 D5 A5      B5
|----------------|-----------------|----------------|------------------|
|-------3--------|-----------------|-------3--------|------------------|
|----2--2--2-(2)s|=4-4-4-4-4-4-4---|----2--2--2-(2)s|=4-4-4-4-4-4-4----|
|-4--2--0--2-(2)s|=4-4-4-4-4-4-4---|-4--2--0--2-(2)s|=4-4-4-4-4-4-4----|
|-4--0-----0-(0)s|=2-2-2-2-2-2-2-0-|-4--0-----0-(0)s|=2-2-2-2-2-2-2-0--|
|-2--------------|-----------------|-2--------------|------------------|


                                                     1.
  F#5A5 D5 A5      B5                F#5A5 D5 A5      B5
|----------------|-----------------|----------------|-----------|
|-------3--------|-----------------|-------3--------|-----------|
|----2--2--2-(2)s|=4-4-4-4-4-4-4---|----2--2--2-(2)s|=4---------|
|-4--2--0--2-(2)s|=4-4-4-4-4-4-4---|-4--2--0--2-(2)s|=4---------|
|-4--0-----0-(0)s|=2-2-2-2-2-2-2-0-|-4--0-----0-(0)s|=2---------|
|-2--------------|-----------------|-2--------------|-----------|


  A           B                  D6sus2            E5
|---------------|----------------0-0-|-0--0--0-0-0---|------------------|
|-2--2--2-2-2-4-|-(4)-4-4--4-4-4-0-0-|-0--0--0-0-0---|------------------|
|-2--2--2-2-2-4-|-(4)-4-4--4-4-4-7-7-|-7--7--7-7-7-9-|-(9)-9-9--9-9-9-9-|
|-2--2--2-2-2-4-|-(4)-4-4--4-4-4-7-7-|-7--7--7-7-7-9-|-(9)-9-9--9-9-9-9-|
|-0--0--0-0-0-2-|-(2)-2-2--2-2-2-5-5-|-5--5--5-5-5-7-|-(7)-7-7--7-7-7-7-|
|---------------|--------------------|---------------|------------------|


  A           B                  D6sus2            E5
|---------------|----------------0-0-|-0--0--0-0-0---|-------------------||
|-2--2--2-2-2-4-|-(4)-4-4--4-4-4-0-0-|-0--0--0-0-0---|------------------o||
|-2--2--2-2-2-4-|-(4)-4-4--4-4-4-7-7-|-7--7--7-7-7-9-|-(9)-9-9--9-9-9-9--||
|-2--2--2-2-2-4-|-(4)-4-4--4-4-4-7-7-|-7--7--7-7-7-9-|-(9)-9-9--9-9-9-9--||
|-0--0--0-0-0-2-|-(2)-2-2--2-2-2-5-5-|-5--5--5-5-5-7-|-(7)-7-7--7-7-7-7-o||
|---------------|--------------------|---------------|-------------------||


             Bridge
  2.
  B5          B                A                   F#5E5opF#5E5open
|----------||----------------|-------------------|---------------|
|----------||-4--4-4-4-4-4---|-2-2-2-2-2-2-2-----|---------------|
|-4--------||-4--4-4-4-4-4---|-2-2-2-2-2-2-2-----|---------------|
|-4--------||-4--4-4-4-4-4---|-2-2-2-2-2-2-2-----|-4--2-2-4--2-2-|
|-2--------||-2--2-2-2-2-2-0-|-0-0-0-0-0-0-0-----|-4--2-2-4--2-2-|
|----------||----------------|---------------0-0-|-2--0-0-2--0-0-|


  F#5E5opF#5E5openB                A                   F#5E5opF#5E5open
|---------------|----------------|-------------------|---------------|
|---------------|-4--4-4-4-4-4---|-2-2-2-2-2-2-2-----|---------------|
|---------------|-4--4-4-4-4-4---|-2-2-2-2-2-2-2-----|---------------|
|-4--2-2-4--2-2-|-4--4-4-4-4-4---|-2-2-2-2-2-2-2-----|-4--2-2-4--2-2-|
|-4--2-2-4--2-2-|-2--2-2-2-2-2-0-|-0-0-0-0-0-0-0-----|-4--2-2-4--2-2-|
|-2--0-0-2--0-0-|----------------|---------------0-0-|-2--0-0-2--0-0-|


  F#5E5opF#5E5openB                A                   F#5E5opF#5E5open
|---------------|----------------|-------------------|---------------|
|---------------|-4--4-4-4-4-4---|-2-2-2-2-2-2-2-----|---------------|
|---------------|-4--4-4-4-4-4---|-2-2-2-2-2-2-2-----|---------------|
|-4--2-2-4--2-2-|-4--4-4-4-4-4---|-2-2-2-2-2-2-2-----|-4--2-2-4--2-2-|
|-4--2-2-4--2-2-|-2--2-2-2-2-2-0-|-0-0-0-0-0-0-0-----|-4--2-2-4--2-2-|
|-2--0-0-2--0-0-|----------------|---------------0-0-|-2--0-0-2--0-0-|


  F#5E5opF#5E5openB                A                   F#5E5opF#5E5open
|---------------|----------------|-------------------|---------------|
|---------------|-4--4-4-4-4-4---|-2-2-2-2-2-2-2-----|---------------|
|---------------|-4--4-4-4-4-4---|-2-2-2-2-2-2-2-----|---------------|
|-4--2-2-4--2-2-|-4--4-4-4-4-4---|-2-2-2-2-2-2-2-----|-4--2-2-4--2-2-|
|-4--2-2-4--2-2-|-2--2-2-2-2-2-0-|-0-0-0-0-0-0-0-----|-4--2-2-4--2-2-|
|-2--0-0-2--0-0-|----------------|---------------0-0-|-2--0-0-2--0-0-|


                  Guitar Solo
  F#5E5opF#5E5open D5
|---------------||-10-10-------10-10-------10-10-|
|---------------||-10-10-------10-10-------10-10-|
|---------------||-------12b14-------12b14-------|
|-4--2-2-4--2-2-||-------------------------------|
|-4--2-2-4--2-2-||-------------------------------|
|-2--0-0-2--0-0-||-------------------------------|
|
| Gtr II
|---------------||-------------------------------|
|---------------||-------------------------------|
|---------------||--7-----------7-----------7----|
|---------------||--7-----------7-----------7----|
|---------------||--5--5--5-----5--5--5-----5--5-|
|---------------||-------------------------------|


|-------10-10-------10-10----------|---------------------------------------|
|-------10-10-------10-10-10-13----|-(13)------13------13---------13-13----|
|-12b14-------12b14----------12b14-|-(12)b14---12b14---12b14r(12)-10-12b14-|
|----------------------------------|---------------------------------------|
|----------------------------------|---------------------------------------|
|----------------------------------|---------------------------------------|
|
|----------------------------------|---------------------------------------|
|----------------------------------|---------------------------------------|
|--------7-----------7--7-----7----|---7-------------7--7------7---7--7----|
|--------7-----------7--7-----7----|---7-------------7--7------7---7--7----|
|--5-----5--5--5-----5--5--5--5----|---5-----5--5----5--5------5---5--5----|
|----------------------------------|---------------------------------------|


  D5
|-----------------------------|----------------------10----------|
|-(13)----13-13-13------------|-------------------10----------10-|
|-(12)b14-12-10-12-10---10-10-|-12p10----10-12b14-------12b14----|
|-----------------------------|-------12-------------------------|
|-----------------------------|----------------------------------|
|-----------------------------|----------------------------------|
|
|-----------------------------|----------------------------------|
|-----------------------------|----------------------------------|
|----------7--7--7--7-7--7--7-|--7-----------7-----------7-------|
|----------7--7--7--7-7--7--7-|--7-----------7-----------7-------|
|---5------5--5--5--5-5--5--5-|--5-----5--5--5-----5--5--5-----5-|
|-----------------------------|----------------------------------|


|-10----------10----------10-10-|-13p10----------------------------------|
|----------10----------10-------|-------13-10-13b15r(13)-10--------------|
|----12b14-------12b14----------|---------------------------12b14r(12)---|
|-------------------------------|----------------------------------------|
|-------------------------------|----------------------------------------|
|-------------------------------|----------------------------------------|
|
|-------------------------------|----------------------------------------|
|-------------------------------|----------------------------------------|
|-----7-----------7-----7-----7-|--7-----------7------7---7--7------7----|
|-----7-----------7-----7-----7-|--7-----------7------7---7--7------7----|
|--5--5-----5--5--5-----5--5--5-|--5-----5--5--5------5---5--5------5----|
|-------------------------------|----------------------------------------|


  D5
|------------------------13-|-15-13----13-15b17---15b17---15b17-|
|---------------------------|-------15--------------------------|
|-10-10h12-10----10/--------|-----------------------------------|
|-------------12------------|-----------------------------------|
|---------------------------|-----------------------------------|
|---------------------------|-----------------------------------|
|
|---------------------------|-----------------------------------|
|---------------------------|-----------------------------------|
|-----7-----7--7--7--7-7--7-|--7-----------7------------7-------|
|-----7-----7--7--7--7-7--7-|--7-----------7------------7-------|
|--5--5-----5--5--5--5-5--5-|--5-----5--5--5----5--5----5--5----|
|---------------------------|-----------------------------------|


|-(15)b17-15-13---------/10-10-|-13-12-10----------------------------------------|
|---------------15-15----------|----------13-11-10-------------------------------|
|------------------------------|-------------------12-10-10-10-10-10-10-10-12b14-|
|------------------------------|-------------------------------------------------|
|------------------------------|-------------------------------------------------|
|------------------------------|-------------------------------------------------|
|
|------------------------------|-------------------------------------------------|
|------------------------------|-------------------------------------------------|
|----------7--------7-7------7-|--7-----------------7-----7-----7-----7-----7----|
|----------7--------7-7------7-|--7-----------------7-----7-----7-----7-----7----|
|---5------5--5--5--5-5---5--5-|--5-----5-----5-----5-----5-----5-----5-----5----|
|------------------------------|-------------------------------------------------|


  D5
                                    PM---------------------|
|---------10-10-------10-10-10---|------------------------------------------------|
|---------10-10-------10-10-10-x-|------------------------------------------------|
|-(12)b14-------12b14------------|-------------------------10------10-10-10-12b14-|
|--------------------------------|----------10-12-10-12-12----x-12----------------|
|--------------------------------|-10-12-12---------------------------------------|
|--------------------------------|------------------------------------------------|
|
|--------------------------------|------------------------------------------------|
|--------------------------------|------------------------------------------------|
|----------7--7--7-----7--7--7-7-|--7-----------------7----------------7----------|
|----------7--7--7-----7--7--7-7-|--7-----------------7----------------7----------|
|---5------5--5--5-----5--5--5-5-|--5-----5-----5-----5-----5----5-----5-----5----|
|--------------------------------|------------------------------------------------|


|---------10-10-10-10-10------------|-10-------10-10-------10-10-10---|
|---------10-10-10-10-10------------|-10-------10-10-------10-10------|
|-(12)b14----------------12b14r(12)-|----12b14-------12b14------------|
|-----------------------------------|---------------------------------|
|-----------------------------------|---------------------------------|
|-----------------------------------|---------------------------------|
|
|-----------------------------------|---------------------------------|
|-----------------------------------|---------------------------------|
|----------7--------7--7---------7--|--7-----------7--7-----7--7--7---|
|----------7--------7--7---------7--|--7-----------7--7-----7--7--7---|
|---5------5--5--5--5--5--5------5--|--5--5-----5--5--5-----5--5--5---|
|-----------------------------------|---------------------------------|


                              Outro
                               A           B
|-13p10---------------------||---------------|
|-------13-10-13b15r========||=2--2--2-2-2-4-|
|---------------------------||-2--2--2-2-2-4-|
|---------------------------||-2--2--2-2-2-4-|
|---------------------------||-0--0--0-0-0-2-|
|---------------------------||---------------|
|
|---------------------------||---------------|
|---------------------------||---------------|
|--------7--7--7----7-7-7-7-||---------------|
|--------7--7--7----7-7-7-7-||---------------|
|--5-----5--5--5----5-5-5-5-||---------------|
|---------------------------||---------------|


                 D6sus2            E5
|----------------0-0-|-0--0--0-0-0---|--------------------|
|-(4)-4-4--4-4-4-0-0-|-0--0--0-0-0---|--------------------|
|-(4)-4-4--4-4-4-7-7-|-7--7--7-7-7-9-|-(9)-9-9--9-9-9-9---|
|-(4)-4-4--4-4-4-7-7-|-7--7--7-7-7-9-|-(9)-9-9--9-9-9-9---|
|-(2)-2-2--2-2-2-5-5-|-5--5--5-5-5-7-|-(7)-7-7--7-7-7-7---|
|--------------------|---------------|--------------------|
|
|--------------------|---------------|--------------------|
|--------------------|---------------|--------------------|
|--------------------|---------------|--------------------|
|--------------------|---------------|--------------------|
|--------------------|---------------|--------------------|
|--------------------|---------------|--------------------|


    A           B                  D6sus2            E5
                                                                            4x
||----------------|----------------0-0-|-0--0--0-0-0---|--------------------||
||o-2--2--2-2-2-4-|-(4)-4-4--4-4-4-0-0-|-0--0--0-0-0---|-------------------o||
||--2--2--2-2-2-4-|-(4)-4-4--4-4-4-7-7-|-7--7--7-7-7-9-|-(9)-9-9--9-9-9-9---||
||--2--2--2-2-2-4-|-(4)-4-4--4-4-4-7-7-|-7--7--7-7-7-9-|-(9)-9-9--9-9-9-9---||
||o-0--0--0-0-0-2-|-(2)-2-2--2-2-2-5-5-|-5--5--5-5-5-7-|-(7)-7-7--7-7-7-7--o||
||----------------|--------------------|---------------|--------------------||


  A           B                  D6sus2
|---------------|----------------0-0-|
|-2--2--2-2-2-4-|-(4)-4-4--4-4-4-0-0-|
|-2--2--2-2-2-4-|-(4)-4-4--4-4-4-7-7-|
|-2--2--2-2-2-4-|-(4)-4-4--4-4-4-7-7-|
|-0--0--0-0-0-2-|-(2)-2-2--2-2-2-5-5-|
|---------------|--------------------|


              E5                     A
|-0--0--0-0-0---|------------------|----------*|
|-0--0--0-0-0---|------------------|-2--------*|
|-7--7--7-7-7-9-|-(9)-9-9--9-9-9-9-|-2--------*|
|-7--7--7-7-7-9-|-(9)-9-9--9-9-9-9-|-2--------*|
|-5--5--5-5-5-7-|-(7)-7-7--7-7-7-7-|-0--------*|
|---------------|------------------|----------*|

-----------------------------------------------------------------------------
                         The One I Want

Intro
    Moderately Fast Rock Q=179
    E5                          F#5
   4/4
    Gtr I
||-----------|--------------------|-------------------|-------------------||
||o----------|--------------------|-------------------|------------------o||
||--4--------|-(4)----(4)--(4)----|-------------------|-------------------||
||--2--------|-(2)----(2)--(2)--4-|-(4)-4-4-4-4-4-4-4-|-4-4-4-4-4-4-4-----||
||o----------|------------------4-|-(4)-4-4-4-4-4-4-4-|-4-4-4-4-4-4-4----o||
||-----------|------------------2-|-(2)-2-2-2-2-2-2-2-|-2-2-2-2-2-2-2-----||


   Verse
    B5                     F#5
||-----------------------|---------------------|
||o----------------------|---------------------|
||--4--------------------|---------------------|
||--4--4--4--4--4--4--4--|-4-------4----4----4-|
||o-2--2--2--2--2--2--2--|-4-4--4--4-4--4-4--4-|
||-----------------------|-2-2--2--2-2--2-2--2-|


                                                   Pre-Chorus
  A5                     E5                         C#5         A5
|----------------------|---------------------||-||----------------|
|----------------------|--------------------o||-||o---------------|
|-2--------------------|---------------------||-||--6--6--6-6-6-2-|
|-2--2--2--2--2--2--2--|-2-------2----2-2-2--||-||--6--6--6-6-6-2-|
|-0--0--0--0--0--0--0--|-2-2--2--2-2--2-2-2-o||-||o-4--4--4-4-4-0-|
|----------------------|-0-0--0--0-0--0-0-0--||-||----------------|


                     B5
|------------------|---------------|-------------------||
|------------------|---------------|------------------o||
|-(2)-2-2--2-2-2-2-|-4--4--4-4-4-4-|-(4)-4-4--4-4-4-4--||
|-(2)-2-2--2-2-2-2-|-4--4--4-4-4-4-|-(4)-4-4--4-4-4-4--||
|-(0)-0-0--0-0-0-0-|-2--2--2-2-2-2-|-(2)-2-2--2-2-2-2-o||
|------------------|---------------|-------------------||


   Verse 2
    B5                     F#5
||-----------------------|---------------------|
||o----------------------|---------------------|
||--4--------------------|---------------------|
||--4--4--4--4--4--4--4--|-4-------4----4----4-|
||o-2--2--2--2--2--2--2--|-4-4--4--4-4--4-4--4-|
||-----------------------|-2-2--2--2-2--2-2--2-|


                                                   Pre-Chorus
  A5                     E5                         C#5         A5
|----------------------|---------------------||-||----------------|
|----------------------|--------------------o||-||o---------------|
|-2--------------------|---------------------||-||--6--6--6-6-6-2-|
|-2--2--2--2--2--2--2--|-2-------2----2-2-2--||-||--6--6--6-6-6-2-|
|-0--0--0--0--0--0--0--|-2-2--2--2-2--2-2-2-o||-||o-4--4--4-4-4-0-|
|----------------------|-0-0--0--0-0--0-0-0--||-||----------------|


                     B5
|------------------|---------------|-------------------||
|------------------|---------------|------------------o||
|-(2)-2-2--2-2-2-2-|-4--4--4-4-4-4-|-(4)-4-4--4-4-4-4--||
|-(2)-2-2--2-2-2-2-|-4--4--4-4-4-4-|-(4)-4-4--4-4-4-4--||
|-(0)-0-0--0-0-0-0-|-2--2--2-2-2-2-|-(2)-2-2--2-2-2-2-o||
|------------------|---------------|-------------------||


   Chorus
                                    F#5
||------------------|-----------------|
||o-----------------|-----------------|
||------------------|-----------------|
||--2-2-2-2-2-2-2-2-|-2-2-2-2-2-2-2-4-|
||o-2-2-2-2-2-2-2-2-|-2-2-2-2-2-2-2-4-|
||--0-0-0-0-0-0-0-0-|-0-0-0-0-0-0-0-2-|


                                      E5
                                         4x
|-------------------|--------------------||
|-------------------|-------------------o||
|-------------------|--------------------||
|-(4)-4-4-4-4-4-4-4-|-4-4-4-4-4-4-4-4----||
|-(4)-4-4-4-4-4-4-4-|-4-4-4-4-4-4-4-4---o||
|-(2)-2-2-2-2-2-2-2-|-2-2-2-2-2-2-2-2----||


   Verse 3
    B5                     F#5
||-----------------------|---------------------|
||o----------------------|---------------------|
||--4--------------------|---------------------|
||--4--4--4--4--4--4--4--|-4-------4----4----4-|
||o-2--2--2--2--2--2--2--|-4-4--4--4-4--4-4--4-|
||-----------------------|-2-2--2--2-2--2-2--2-|


  A5                     E5                         C#5         A5
|----------------------|---------------------||-||----------------|
|----------------------|--------------------o||-||o---------------|
|-2--------------------|---------------------||-||--6--6--6-6-6-2-|
|-2--2--2--2--2--2--2--|-2-------2----2-2-2--||-||--6--6--6-6-6-2-|
|-0--0--0--0--0--0--0--|-2-2--2--2-2--2-2-2-o||-||o-4--4--4-4-4-0-|
|----------------------|-0-0--0--0-0--0-0-0--||-||----------------|


                     B5
|------------------|---------------|-------------------||
|------------------|---------------|------------------o||
|-(2)-2-2--2-2-2-2-|-4--4--4-4-4-4-|-(4)-4-4--4-4-4-4--||
|-(2)-2-2--2-2-2-2-|-4--4--4-4-4-4-|-(4)-4-4--4-4-4-4--||
|-(0)-0-0--0-0-0-0-|-2--2--2-2-2-2-|-(2)-2-2--2-2-2-2-o||
|------------------|---------------|-------------------||


   Chorus
                                    F#5
                                                                             4x
||------------------|-----------------|-------------------|------------------||
||o-----------------|-----------------|-------------------|-----------------o||
||------------------|-----------------|-------------------|------------------||
||--2-2-2-2-2-2-2-2-|-2-2-2-2-2-2-2-4-|-(4)-4-4-4-4-4-4-4-|-4-4-4-4-4-4-4-4--||
||o-2-2-2-2-2-2-2-2-|-2-2-2-2-2-2-2-4-|-(4)-4-4-4-4-4-4-4-|-4-4-4-4-4-4-4-4-o||
||--0-0-0-0-0-0-0-0-|-0-0-0-0-0-0-0-2-|-(2)-2-2-2-2-2-2-2-|-2-2-2-2-2-2-2-2--||


 Solo
                           F#5
|------------------------|---------------------------|
|------------------------|---------------------------|
|--4---------------------|---------------------------|
|--4-4--4--4--4--4--4--4-|---------------------------|
|--2-2--2--2--2--2--2--2-|--4--4--4--4--4--4---4---4-|
|------------------------|--2--2--2--2--2--2---2---2-|
|
| Gtr II
|-11---11-11-12-12-12-12-|---------------------------|
|------------------------|-14-14-16-17-16-17-(17)-17-|
|------------------------|---------------------------|
|------------------------|---------------------------|
|------------------------|---------------------------|
|------------------------|---------------------------|


  A5                     E5                         B5
|----------------------|--------------------------|------------------------|
|----------------------|--------------------------|------------------------|
|----------------------|--------------------------|--4---------------------|
|--2---2-2--2--2--2--2-|--------------------------|--4---4--4--4--4--4--4--|
|--0---0-0--0--0--0--0-|---2---2--2-2--2--2--2--2-|--2---2--2--2--2--2--2--|
|----------------------|---0---0--0-0--0--0--0--0-|------------------------|
|
|----------------------|--------------------------|------------------------|
|----------------------|--------------------------|-16--16-16-17-17-17-17--|
|----------------------|--------------------------|------------------------|
|-19--19---19-19-19-18-|-(18)-18-18---18-18-18-18-|------------------------|
|----------------------|--------------------------|------------------------|
|----------------------|--------------------------|------------------------|


  F#5                         A5
|---------------------------|----------------------|
|---------------------------|----------------------|
|---------------------------|----------------------|
|---------------------------|--2---2-2--2--2--2--2-|
|--4--4--4--4--4--4---4---4-|--0---0-0--0--0--0--0-|
|--2--2--2--2--2--2---2---2-|----------------------|
|
|---------------------------|----------------------|
|-------16-17-16-17-(17)-17-|----------------------|
|-18-18---------------------|----------------------|
|---------------------------|-19--19---19-19-19-18-|
|---------------------------|----------------------|
|---------------------------|----------------------|


  E5                         C#5
|--------------------------|----------------------|
|--------------------------|----------------------|
|--------------------------|--6---6---6--6--6--2--|
|--------------------------|--6---6---6--6--6--2--|
|---2---2--2-2--2--2--2--2-|--4---4---4--4--4--0--|
|---0---0--0-0--0--0--0--0-|----------------------|
|
|--------------------------|----------------------|
|--------------------------|---------------14-14--|
|--------------------------|-16--16--16-16--------|
|-(18)-18-18---18-18-18-18-|----------------------|
|--------------------------|----------------------|
|--------------------------|----------------------|


       A5                   B5
|-------------------------|---------------------|
|-------------------------|---------------------|
|--(2)--2--2---2--2--2--2-|--4---4---4--4--4--4-|
|--(2)--2--2---2--2--2--2-|--4---4---4--4--4--4-|
|--(0)--0--0---0--0--0--0-|--2---2---2--2--2--2-|
|-------------------------|---------------------|
|
|-------------------------|---------------------|
|-(14)-14-14--16-17-16-17-|-19--19--19-19-21-21-|
|-------------------------|---------------------|
|-------------------------|---------------------|
|-------------------------|---------------------|
|-------------------------|---------------------|


                            C#5
|-------------------------|----------------------|
|-------------------------|----------------------|
|--(4)--4--4---4--4--4--4-|--6---6---6--6--6--2--|
|--(4)--4--4---4--4--4--4-|--6---6---6--6--6--2--|
|--(2)--2--2---2--2--2--2-|--4---4---4--4--4--0--|
|-------------------------|----------------------|
|
|-------------------------|----------------------|
|-(21)-21-21--19-19-19-19-|-17--17--17-17-16-16--|
|-------------------------|----------------------|
|-------------------------|----------------------|
|-------------------------|----------------------|
|-------------------------|----------------------|


       A5                   B5
|-------------------------|---------------------|
|-------------------------|---------------------|
|--(2)--2--2---2--2--2--2-|--4---4---4--4--4--4-|
|--(2)--2--2---2--2--2--2-|--4---4---4--4--4--4-|
|--(0)--0--0---0--0--0--0-|--2---2---2--2--2--2-|
|-------------------------|---------------------|
|
|-------------------------|---------------------|
|-(16)-16-16--14-14-14-14-|-12--12--12-12-10-10-|
|-------------------------|---------------------|
|-------------------------|---------------------|
|-------------------------|---------------------|
|-------------------------|---------------------|


                        C#5
|---------------------|-----------------|
|---------------------|-----------------|
|--(4)--4--4--4-4-4-4-|-6--6--6-6-6--2--|
|--(4)--4--4--4-4-4-4-|-6--6--6-6-6--2--|
|--(2)--2--2--2-2-2-2-|-4--4--4-4-4--0--|
|---------------------|-----------------|
|
|---------------------|-----------------|
|-(10)-10-10--9-9-9-9-|-9--9--9-9-9-10--|
|---------------------|-----------------|
|---------------------|-----------------|
|---------------------|-----------------|
|---------------------|-----------------|


       A5                      B5
|-------------------------|----------------|
|-------------------------|----------------|
|--(2)--2--2---2--2--2--2-|-4--4--4-4-4--4-|
|--(2)--2--2---2--2--2--2-|-4--4--4-4-4--4-|
|--(0)--0--0---0--0--0--0-|-2--2--2-2-2--2-|
|-------------------------|----------------|
|
|-------------------------|----------------|
|-(10)-10-10--10-10-10-10-|-9--9--9-9-9-10-|
|-------------------------|----------------|
|-------------------------|----------------|
|-------------------------|----------------|
|-------------------------|----------------|


                            C#5
|-------------------------|----------------|
|-------------------------|----------------|
|--(4)--4--4---4--4--4--4-|-6--6--6-6-6-2--|
|--(4)--4--4---4--4--4--4-|-6--6--6-6-6-2--|
|--(2)--2--2---2--2--2--2-|-4--4--4-4-4-0--|
|-------------------------|----------------|
|
|-------------------------|-----------7-7--|
|-(10)-10-10--10-10-10-10-|-9--9--9-9------|
|-------------------------|----------------|
|-------------------------|----------------|
|-------------------------|----------------|
|-------------------------|----------------|


      A5             B5
|------------------|-------------------------|
|------------------|-------------------------|
|-(2)-2-2--2-2-2-2-|--4---4-----4--4---4---4-|
|-(2)-2-2--2-2-2-2-|--4---4-----4--4---4---4-|
|-(0)-0-0--0-0-0-0-|--2---2-----2--2---2---2-|
|------------------|-------------------------|
|
|-(7)-7-7--9-9-9-9-|-11--11-11-11-12-(12)-12-|
|------------------|-------------------------|
|------------------|-------------------------|
|------------------|-------------------------|
|------------------|-------------------------|
|------------------|-------------------------|


                             Chorus
                              E5
|-------------------------||-------------------|
|-------------------------||o------------------|
|-(4)--4--4-----4--4--4-4-||-------------------|
|-(4)--4--4-----4--4--4-4-||--2-2-2-2-2-2-2-2--|
|-(2)--2--2-----2--2--2-2-||o-2-2-2-2-2-2-2-2--|
|-------------------------||--0-0-0-0-0-0-0-0--|
|
|-14--14-16-16-18-18-19---||-------------------|
|-------------------------||o------------------|
|-------------------------||-------------------|
|-------------------------||-------------------|
|-------------------------||o------------------|
|-------------------------||-------------------|


  E5                F#5
                                                         5x
|-----------------|-------------------|------------------||
|-----------------|-------------------|-----------------o||
|-----------------|-------------------|------------------||
|-2-2-2-2-2-2-2-4-|-(4)-4-4-4-4-4-4-4-|-4-4-4-4-4-4-4-4--||
|-2-2-2-2-2-2-2-4-|-(4)-4-4-4-4-4-4-4-|-4-4-4-4-4-4-4-4-o||
|-0-0-0-0-0-0-0-2-|-(2)-2-2-2-2-2-2-2-|-2-2-2-2-2-2-2-2--||


                                  F#5
|-----------------|-----------------|
|-----------------|-----------------|
|-----------------|-----------------|
|-2-2-2-2-2-2-2-2-|-2-2-2-2-2-2-2-4-|
|-2-2-2-2-2-2-2-2-|-2-2-2-2-2-2-2-4-|
|-0-0-0-0-0-0-0-0-|-0-0-0-0-0-0-0-2-|
|
|                   Gtr II
|-----------------|-----------------|
|-----------------|-----------------|
|-----------------|-----------------|
|-----------------|-----------------|
|-----------------|-----------------|
|-----------------|-----------------|


                                        B5
|-------------------|-----------------|-------|
|-------------------|-----------------|-------|
|-------------------|-----------------|-------|
|-(4)-4-4-4-4-4-4-4-|-4-4-4-4-4-4-4-4-|--4----|
|-(4)-4-4-4-4-4-4-4-|-4-4-4-4-4-4-4-4-|--2----|
|-(2)-2-2-2-2-2-2-2-|-2-2-2-2-2-2-2-2-|-------|
|
|-------------------|-----------------|-------|
|-------------------|-----------------|-------|
|-------------------|-----------------|-------|
|-------------------|-----------------|-------|
|-------------------|-----------------|-------|
|-------------------|-----------------|-19----|


                                                  B
|-----------------|------------|--------------------*|
|-----------------|------------|--------------------*|
|-----------------|------------|--------------------*|
|--(4)------------|-(4)--------|-(4)----(4)--(4)----*|
|--(2)------------|-(2)--------|-(2)----(2)--(2)--2-*|
|-----------------|------------|--------------------*|
|
|-----------------|------------|--------------------*|
|-----------------|------------|--------------------*|
|-----------------|------------|--------------------*|
|-----------------|------------|--------------------*|
|-----------------|------------|--------------------*|
|-(19)----(19)----|------------|--------------------*|

-------------------------------------------------------------------------------

                       I Want To Be Alone

                          
Intro
  Fast Rock Q=192
              D5
 4/4
  Gtr I
              PM----------------------------|
|-----------|-----------------|----------------|
|-----------|-----------------|----------------|
|-----------|-----------------|----------------|
|-----------|-----7---7-5-----|-7-----5-----7--|
|-------x-0-|-5-5---5-----5-5-|---5-5---5-5----|
|-----------|-----------------|----------------|


  Dadd11C     Dadd11  C     Dadd11
|-----------------|-----------------|
|-----------------|-----------------|
|-----0-----0-----|-0-----0---0-----|
|---4-----2-----4-|-----2---4---4---|
|-5-----3-----5---|---3---3s5-------|
|-----------------|-----------------|


  D5                                  Dadd11C     Dadd11  C     Dadd11
  PM------------------------------|
|-----------------|-----------------|-----------------|-----------------|
|-----------------|-----------------|-----------------|-----------------|
|-----------------|-----------------|-----0-----0-----|-0-----0---0-----|
|-----7-----5-----|-7-----5-----7---|---4-----2-----4-|-----2---4---4---|
|-5-5---5-5---5-5-|---5-5---5-5---0-|-5-----3-----5---|---3---3s5-------|
|-----------------|-----------------|-----------------|-----------------|


   Verse
    $
    D5                                  Dadd11C     Dadd11  C     Dadd11
    PM------------------------------|
||------------------|-----------------|-----------------|----------------|
||o-----------------|-----------------|-----------------|----------------|
||------------------|-----------------|-----0-----0-----|-0-----0---0----|
||------7-----5-----|-7-----5-----7---|---4-----2-----4-|-----2---4---4--|
||o-5-5---5-5---5-5-|---5-5---5-5---0-|-5-----3-----5---|---3---3s5------|
||------------------|-----------------|-----------------|----------------|


  D5                                  Dadd11C     Dadd11  C     Dadd11
  PM------------------------------|
|-----------------|-----------------|-----------------|-----------------|
|-----------------|-----------------|-----------------|-----------------|
|-----------------|-----------------|-----0-----0-----|-0-----0---0-----|
|-----7-----5-----|-7-----5-----7---|---4-----2-----4-|-----2---4---4---|
|-5-5---5-5---5-5-|---5-5---5-5---0-|-5-----3-----5---|---3---3s5-------|
|-----------------|-----------------|-----------------|-----------------|


  D5                                  Dadd11C     Dadd11  C     Dadd11
  PM------------------------------|
|-----------------|-----------------|-----------------|-----------------|
|-----------------|-----------------|-----------------|-----------------|
|-----------------|-----------------|-----0-----0-----|-0-----0---0-----|
|-----7-----5-----|-7-----5-----7---|---4-----2-----4-|-----2---4---4---|
|-5-5---5-5---5-5-|---5-5---5-5---0-|-5-----3-----5---|---3---3s5-------|
|-----------------|-----------------|-----------------|-----------------|


  D5                                  Dadd11C     Dadd11  C     Dadd11
  PM------------------------------|
|-----------------|-----------------|-----------------|-----------------|
|-----------------|-----------------|-----------------|-----------------|
|-----------------|-----------------|-----0-----0-----|-0-----0---0-----|
|-----7-----5-----|-7-----5-----7---|---4-----2-----4-|-----2---4---4---|
|-5-5---5-5---5-5-|---5-5---5-5---0-|-5-----3-----5---|---3---3s5-------|
|-----------------|-----------------|-----------------|-----------------|


 Chorus
  G5          A5                     D           Bm
|---------------|------------------|---------------|-------------------|
|---------------|------------------|-7--7--7-----3-|-(3)-3-3--3-3-3-3--|
|---------------|------------------|-7--7--7-----4-|-(4)-4-4--4-4-4-4--|
|-5--5--5-5-5-7-|-(7)-7-7--7-7-7-7-|-7--7--7-----4-|-(4)-4-4--4-4-4-4--|
|-5--5--5-5-5-7-|-(7)-7-7--7-7-7-7-|-5--5--5-0-0-2-|-(2)-2-2--2-2-2-2--|
|-3--3--3-3-3-5-|-(5)-5-5--5-5-5-5-|---------------|-------------------|


  G5          A5                     D           Bm
|---------------|------------------|---------------|-------------------|
|---------------|------------------|-7--7--7-----3-|-(3)-3-3--3-3-3-3--|
|---------------|------------------|-7--7--7-----4-|-(4)-4-4--4-4-4-4--|
|-5--5--5-5-5-7-|-(7)-7-7--7-7-7-7-|-7--7--7-----4-|-(4)-4-4--4-4-4-4--|
|-5--5--5-5-5-7-|-(7)-7-7--7-7-7-7-|-5--5--5-0-0-2-|-(2)-2-2--2-2-2-2--|
|-3--3--3-3-3-5-|-(5)-5-5--5-5-5-5-|---------------|-------------------|


  G5          A5                     D           Bm
|---------------|------------------|---------------|-------------------|
|---------------|------------------|-7--7--7-----3-|-(3)-3-3--3-3-3-3--|
|---------------|------------------|-7--7--7-----4-|-(4)-4-4--4-4-4-4--|
|-5--5--5-5-5-7-|-(7)-7-7--7-7-7-7-|-7--7--7-----4-|-(4)-4-4--4-4-4-4--|
|-5--5--5-5-5-7-|-(7)-7-7--7-7-7-7-|-5--5--5-0-0-2-|-(2)-2-2--2-2-2-2--|
|-3--3--3-3-3-5-|-(5)-5-5--5-5-5-5-|---------------|-------------------|


                                    Post Chorus
  G5          A5                     D5
                                     PM------------------------------|
|---------------|------------------|-----------------|------------------|
|---------------|------------------|-----------------|------------------|
|---------------|------------------|-----------------|------------------|
|-5--5--5-5-5-7-|-(7)-7-7--7-7-7-7-|-----7-----5-----|-7-----5-----7----|
|-5--5--5-5-5-7-|-(7)-7-7--7-7-7-7-|-5-5---5-5---5-5-|---5-5---5-5---0--|
|-3--3--3-3-3-5-|-(5)-5-5--5-5-5-5-|-----------------|------------------|


                   1.                 2.
         To Coda
  Dadd11C     Dadd11  C     Dadd11       C     Dadd11
|-----------------|-----------------||----------------|
|-----------------|----------------o||----------------|
|-----0-----0-----|-0-----0---0-----||-0-----0---0----|
|---4-----2-----4-|-----2---4---4---||-----2---4---4--|
|-5-----3-----5---|---3---3s5------o||---3---3s5------|
|-----------------|-----------------||----------------|


  D5                                  Dadd11C     Dadd11  C     Dadd11
  PM------------------------------|
|-----------------|-----------------|-----------------|-----------------|
|-----------------|-----------------|-----------------|-----------------|
|-----------------|-----------------|-----0-----0-----|-0-----0---0-----|
|-----7-----5-----|-7-----5-----7---|---4-----2-----4-|-----2---4---4---|
|-5-5---5-5---5-5-|---5-5---5-5---0-|-5-----3-----5---|---3---3s5-------|
|-----------------|-----------------|-----------------|-----------------|


 Guitar Solo
  D5
  Gtr II
|-<7>-----<7>-----<5>-------------|-----------------<7>-<7>-----|
|---------------------<7>---------|-------------<7>---------0---|
|-----<7>-----<7>---------<5>-----|-<5>-----<5>-----------------|
|-----------------------------<5>-|-----<5>---------------------|
|---------------------------------|-----------------------------|
|---------------------------------|-----------------------------|
|
| Gtr I
|  PM---------------------------------------------------------|
|---------------------------------|-----------------------------|
|---------------------------------|-----------------------------|
|---------------------------------|--7-----------7--------------|
|--7---7---7---7---7---7---7---7--|--7---7---7---7---7---7--7-7-|
|--5---5---5---5---5---5---5---5--|--5---5---5---5---5---5--5-5-|
|---------------------------------|-----------------------------|


  Dadd11C     Dadd11  C     Dadd11
|-----------------|-----------------|
|-----------------|-----------------|
|-----0-----0-----|-0-----0---0-----|
|---4-----2-----4-|-----2---4---4---|
|-5-----3-----5---|---3---3s5-------|
|-----------------|-----------------|
|
|-----------------|-----------------|
|-----------------|-----------------|
|-----0-----0-----|-0-----0---0-----|
|---4-----2-----4-|-----2---4---4---|
|-5-----3-----5---|---3---3s5-------|
|-----------------|-----------------|


  D5
|-----------------<5>-----<7>-----|---------<7>-<7>-<7>-<7>-------|
|-----<7>-----<7>-----<7>-----<7>-|-------------------------<7>---|
|-<5>-----<5>---------------------|-<5>-<5>-----------------------|
|---------------------------------|-------------------------------|
|---------------------------------|-------------------------------|
|---------------------------------|-------------------------------|
|
|  PM-----------------------------------------------------------|
|---------------------------------|-------------------------------|
|---------------------------------|-------------------------------|
|---------------------------------|--7-----------7----------------|
|--7---7---7---7---7---7---7---7--|--7---7---7---7---7---7---7--7-|
|--5---5---5---5---5---5---5---5--|--5---5---5---5---5---5---5--5-|
|---------------------------------|-------------------------------|


  Dadd11C     Dadd11  C     Dadd11
|-----------------|----------------------|
|-----------------|---------------10-10--|
|-----0-----0-----|-0-----0---/12--------|
|---4-----2-----4-|-----2----------------|
|-5-----3-----5---|---3-----5------------|
|-----------------|----------------------|
|
|-----------------|----------------------|
|-----------------|----------------------|
|-----0-----0-----|-0-----0-----0--------|
|---4-----2-----4-|-----2---4------4-----|
|-5-----3-----5---|---3---3s5------------|
|-----------------|----------------------|


  D5
|------------------------10b12-10-12-|-12b14-----12b14==(12)---12r-12b14==|
|-13b15-----13b15==(13)r-------------|------------------------------------|
|------------------------------------|------------------------------------|
|------------------------------------|------------------------------------|
|------------------------------------|------------------------------------|
|------------------------------------|------------------------------------|
|
|  PM--------------------------------------------------------------|
|------------------------------------|------------------------------------|
|------------------------------------|------------------------------------|
|------------------------------------|--7---------7-----------------------|
|--7----7-7--7-------7----7-----7--7-|--7----7-7--7-------7--7--7---7-----|
|--5----5-5--5-------5----5-----5--5-|--5----5-5--5-------5--5--5---5-----|
|------------------------------------|------------------------------------|


  Dadd11            C       Dadd11           C              Dadd11
|-(12)r-12-10h12p10----10---12-12b14==|=(12)-12-10h12p10----10---10-17-17--|
|-------------------12----------------|------------------12----------------|
|-------------------------------------|------------------------------------|
|-------------------------------------|------------------------------------|
|-------------------------------------|------------------------------------|
|-------------------------------------|------------------------------------|
|
|-------------------------------------|------------------------------------|
|-------------------------------------|------------------------------------|
|-----------0-------------0-----------|---0---------------0----0-----------|
|--------4--------------2-------4-----|----------2-----------4----4--------|
|---5----------------3-------5--------|-------3-----------3s=5-------------|
|-------------------------------------|------------------------------------|


  D5
   TP   TP TP TP   TP
|-17---15-14-12---10---|-13-12-10------------------------------------------|
|----------------------|----------13-12-10---------------------------------|
|----------------------|-------------------13-12-10-10-10-10-12-10-12b12.5-|
|----------------------|---------------------------------------------------|
|----------------------|---------------------------------------------------|
|----------------------|---------------------------------------------------|
|
|  PM--------------------------------------------------------------|
|----------------------|---------------------------------------------------|
|----------------------|---------------------------------------------------|
|----------------------|---------------------------------------------------|
|--7-7--7--7--7-7--7-7-|--7-----7-----7-----7-----7-----7-----7-----7------|
|--5-5--5--5--5-5--5-5-|--5-----5-----5-----5-----5-----5-----5-----5------|
|----------------------|---------------------------------------------------|


  Dadd11      C           Dadd11        C           Dadd11
|-------10-10-------10-10-------10-|-10-------10-10----------------|
|-------10-10-------10-10-------10-|-10-------10-10----------------|
|-12b14-------12b14-------12b14----|----12b14-------12b14r=(12)\---|
|----------------------------------|-------------------------------|
|----------------------------------|-------------------------------|
|----------------------------------|-------------------------------|
|
|----------------------------------|-------------------------------|
|----------------------------------|-------------------------------|
|-----------0-----------0----------|--0-----------0----------------|
|--------4-----------2-----------4-|-----------2-----4-------------|
|--5-----------3-----------5-------|-----3-----------5-------5-----|
|----------------------------------|-------------------------------|


   Bridge
                                                          D.S. al Coda
    D5                                  Dadd11C     Dadd11  C     Dadd11
    Gtr I
    PM------------------------------|
||------------------|-----------------|-----------------|-----------------||
||o-----------------|-----------------|-----------------|----------------o||
||------------------|-----------------|-----0-----0-----|-0-----0---0-----||
||------7-----5-----|-7-----5-----7---|---4-----2-----4-|-----2---4---4---||
||o-5-5---5-5---5-5-|---5-5---5-5---0-|-5-----3-----5---|---3---3s5------o||
||------------------|-----------------|-----------------|-----------------||


                    Outro
  &
    C     Dadd11     D5
                     PM------------------------------|
|----------------||------------------|-----------------|
|----------------||o-----------------|-----------------|
|-0-----0---0----||------------------|-----------------|
|-----2---4---4--||------7-----5-----|-7-----5-----7---|
|---3---3s5------||o-5-5---5-5---5-5-|---5-5---5-5---0-|
|----------------||------------------|-----------------|


  Dadd11C     Dadd11  C     Dadd11
|-----------------|-------------------||
|-----------------|------------------o||
|-----0-----0-----|-0-----0---0-------||
|---4-----2-----4-|-----2---4---4-----||
|-5-----3-----5---|---3---3s5--------o||
|-----------------|-------------------||


  D5                                 Dadd11C     Dadd11  C     Dadd11
  PM------------|
|-----------------|----------------|-----------------|----------------*|
|-----------------|----------------|-----------------|----------------*|
|-----------------|----------------|-----0-----0-----|-0-----0--------*|
|-----7-----5-----|-7-----5-----7--|---4-----2-----4-|-----2---4\-----*|
|-5-5---5-5---5-5-|---5-5---5-5----|-5-----3-----5---|---3-----5\-----*|
|-----------------|----------------|-----------------|----------------*|

-------------------------------------------------------------------------------

That's It......the whole album........hope its satisfactory
comments
print report bad tab
11 comments total. Showing first comments.
+2 reply
Robo_Hobo wrote on August 12 2005, 12:00 am

dude,awesome

0 reply
Donkey Fly wrote on September 17 2005, 12:00 am

WTF , Someones voted 1 stars on all my tabs

0 reply
sittingonastar wrote on January 7 2006, 12:07 pm

why did people vote this tab down so low? it's definitely a 5-star tab.

I want to post or [tab]
guest
You may want to rate the tab now too:
select rating
Please do not post tabs as comments. Select "correction" instead!