Oops, an error
Loading. Please wait.

21 Guns Live Tab

ver1
ver1

Whole song

Interactive

More versions @911Tabs.com
14,728 views 6 this week
no commentswrite comment
1 2 3 4 5
excellent!
x 2
Autoscroll
+/-
esc
set tempo
stop
Difficulty
novice
Hey! There's an official Ultimate Guitar app which is ideal
for learning songs when you're away from computer. Get the app
WARNING: You are trying to view
                                    content from Ultimate-Guitar.com
                                    in an unauthorized application,
                                    which is prohibited.

                                    Please use an official Ultimate
                                    Guitar Tabs application for iPhone,
                                    iPad or Android to access legitimate
                                    chords, guitar, bass, and drum tabs
                                    from Ultimate-Guitar.com database.

                                    Type "ultimate guitar tabs" in Apple
                                    App Store's or Android Market's
                                    search to find the application.

                    Green Day - 21 Guns Live

Turning Standard E B G D A E

| \  slide up
| /  slide down
| h  hammer-on
| p  pull-off
| ~  hold chord/note
| +  harmonic
| x  Mute note
| ^  Raise srting

Email: yair.escobedo@hotmail.com

Guitar 1 - Billie Joe Armstrong

Guitar 2 - Jason White


Intro

Guitar 2 (clean)

e|--------------------------------------------------------------------------|
B|---6~---3~---10~---5~---6~---3~---10~---5~~~------------------------------|
G|--------------------------------------------------------------------------|
D|--------------------------------------------------------------------------|
A|---5~---1~---8~----3~---5~---1~---8~----3~~~------------------------------|
E|--------------------------------------------------------------------------|

Verse

Guitar 1 (acoustic)


e|---0---1---1-------0---1---1-------0---1---1-------1-----------------------|
B|---3---1---1---1---3---1---1---1---3---1---1---1---1--x8-1--x8-------------|
G|---2---3---2---0---2---3---2---0---2---3---2---0---3-----0-----------------|
D|---0---3---3---2---0---3---3---2---0---3---3---2---3-----2-----------------|
A|-------1---3---3-------1---3---3-------1---3---3---1-----3-----------------|
E|-----------1---------------1---------------1-------------------------------|


e|---0---1---1-------0---1---1-------0---1---1-------1~----------------------|
B|---3---1---1---1---3---1---1---1---3---1---1---1---1~----------------------|
G|---2---3---2---0---2---3---2---0---2---3---2---0---3~----------------------|
D|---0---3---3---2---0---3---3---2---0---3---3---2---3~----------------------|
A|-------1---3---3-------1---3---3-------1---3---3---1~----------------------|
E|-----------1---------------1---------------1-------------------------------|

The guitar 2 enters with the drums (clean)

e|--------------------------------------------------------------------------|
B|---6~---3~---10~---5~---6~---3~---10~---5~--------------------------------|
G|--------------------------------------------------------------------------|
D|--------------------------------------------------------------------------|
A|---5~---1~---8~----3~---5~---1~---8~----3~--------------------------------|
E|--------------------------------------------------------------------------|


e|--------------------------------------------------------------------------|
B|---6~---3~---10~---5~---6~---3~---10~---5~---3~~~-------------------------|
G|--------------------------------------------------------------------------|
D|--------------------------------------------------------------------------|
A|---5~---1~---8~----3~---5~---1~---8~----3~---1~~~-------------------------|
E|--------------------------------------------------------------------------|


Pre-Chourus

Both Guitars
e|------------------|
B|------------------|
G|----5-------------|
D|----5-------------|
A|----3-------------|
E|------------------|


Chorus

Guitar 1 (acoustic)

e|---------------------------------------------------------------------------|
B|---------------------------------------------------------------------------|
G|--------------7-7---5-5-5-5--3-3-3-3---------5-5-5-5-5-5-5-5---------------|
D|--3-3---2-2---7-7---5-5-5-5--3-3-3-3-3-3-3-3-5-5-5-5-5-5-5-5---------------|
A|--3-3---3-3---5-5---3-3-3-3--1-1-1-1-3-3-3-3-3-3-3-3-3-3-3-3---------------|
E|--1-1---0-0--------------------------1-1-1-1-------------------------------|

e|---------------------------------------------------------------------------|
B|---------------------------------------------------------------------------|
G|--------------7-7---5-5-5-5--3-3-3-3---------5-5-5-5-5-5-5-5---------------|
D|--3-3---2-2---7-7---5-5-5-5--3-3-3-3-3-3-3-3-5-5-5-5-5-5-5-5---------------|
A|--3-3---3-3---5-5---3-3-3-3--1-1-1-1-3-3-3-3-3-3-3-3-3-3-3-3---------------|
E|--1-1---0-0--------------------------1-1-1-1-------------------------------|

e|---------------------------------------------------------------------------|
B|---------------------------------------------------------------------------|
G|--3-3-3-3----------5~------------------------------------------------------|
D|--3-3-3-3-3-3-3-3--5~------------------------------------------------------|
A|--1-1-1-1-3-3-3-3--3~------------------------------------------------------|
E|----------1-1-1-1----------------------------------------------------------|


Guitar 2 (distorsion)

e|---------------------------------------------------------------------------|
B|---------------------------------------------------------------------------|
G|--------------7-7---5-5-5-5--3-3-3-3---------5-5-5-5----9-10-12------------|
D|--3-3---2-2---7-7---5-5-5-5--3-3-3-3-3-3-3-3-5-5-5-5-----------------------|
A|--3-3---3-3---5-5---3-3-3-3--1-1-1-1-3-3-3-3-3-3-3-3-----------------------|
E|--1-1---0-0--------------------------1-1-1-1-------------------------------|

e|---------------------------------------------------------------------------|
B|---------------------------------------------------------------------------|
G|--------------7-7---5-5-5-5--3-3-3-3---------5-5-5-5----9-10-12------------|
D|--3-3---2-2---7-7---5-5-5-5--3-3-3-3-3-3-3-3-5-5-5-5-----------------------|
A|--3-3---3-3---5-5---3-3-3-3--1-1-1-1-3-3-3-3-3-3-3-3-----------------------|
E|--1-1---0-0--------------------------1-1-1-1-------------------------------|


e|---------------------------------------------------------------------------|
B|---------------------------------------------------------------------------|
G|--3-3-3-3----------5~------------------------------------------------------|
D|--3-3-3-3-3-3-3-3--5~------------------------------------------------------|
A|--1-1-1-1-3-3-3-3--3~------------------------------------------------------|
E|----------1-1-1-1----------------------------------------------------------|


Verse 2

Guitar 1 (acoustic)

e|---0---1---1-------0---1---1-------0---1---1-------1-----------------------|
B|---3---1---1---1---3---1---1---1---3---1---1---1---1--x8-1--x8-------------|
G|---2---3---2---0---2---3---2---0---2---3---2---0---3-----0-----------------|
D|---0---3---3---2---0---3---3---2---0---3---3---2---3-----2-----------------|
A|-------1---3---3-------1---3---3-------1---3---3---1-----3-----------------|
E|-----------1---------------1---------------1-------------------------------|


e|---0---1---1-------0---1---1-------0---1---1-------1~----------------------|
B|---3---1---1---1---3---1---1---1---3---1---1---1---1~----------------------|
G|---2---3---2---0---2---3---2---0---2---3---2---0---3~----------------------|
D|---0---3---3---2---0---3---3---2---0---3---3---2---3~----------------------|
A|-------1---3---3-------1---3---3-------1---3---3---1~----------------------|
E|-----------1---------------1---------------1-------------------------------|

Guitar 2 (clean)

e|--------------------------------------------------------------------------|
B|---6~---3~---10~---5~---6~---3~---10~---5~--------------------------------|
G|--------------------------------------------------------------------------|
D|--------------------------------------------------------------------------|
A|---5~---1~---8~----3~---5~---1~---8~----3~--------------------------------|
E|--------------------------------------------------------------------------|

e|--------------------------------------------------------------------------|
B|---6~---3~---10~---5~---6~---3~---10~---5~--------------------------------|
G|--------------------------------------------------------------------------|
D|--------------------------------------------------------------------------|
A|---5~---1~---8~----3~---5~---1~---8~----3~--------------------------------|
E|--------------------------------------------------------------------------|

e|--------------------------------------------------------------------------|
B|---6~---3~---10~---5~---6~---3~---10~---5~--------------------------------|
G|--------------------------------------------------------------------------|
D|--------------------------------------------------------------------------|
A|---5~---1~---8~----3~---5~---1~---8~----3~--------------------------------|
E|--------------------------------------------------------------------------|

e|--------------------------------------------------------------------------|
B|---6~---3~---10~---5~---6~---3~---10~---5~---3~~~-------------------------|
G|--------------------------------------------------------------------------|
D|--------------------------------------------------------------------------|
A|---5~---1~---8~----3~---5~---1~---8~----3~---1~~~-------------------------|
E|--------------------------------------------------------------------------|

Pre-Chourus

Both Guitars
e|------------------|
B|------------------|
G|----5-------------|
D|----5-------------|
A|----3-------------|
E|------------------|


Chorus 2

Guitar 1 (acoustic)

e|---------------------------------------------------------------------------|
B|---------------------------------------------------------------------------|
G|--------------7-7---5-5-5-5--3-3-3-3---------5-5-5-5-5-5-5-5---------------|
D|--3-3---2-2---7-7---5-5-5-5--3-3-3-3-3-3-3-3-5-5-5-5-5-5-5-5---------------|
A|--3-3---3-3---5-5---3-3-3-3--1-1-1-1-3-3-3-3-3-3-3-3-3-3-3-3---------------|
E|--1-1---0-0--------------------------1-1-1-1-------------------------------|

e|---------------------------------------------------------------------------|
B|---------------------------------------------------------------------------|
G|--------------7-7---5-5-5-5--3-3-3-3---------5-5-5-5-5-5-5-5---------------|
D|--3-3---2-2---7-7---5-5-5-5--3-3-3-3-3-3-3-3-5-5-5-5-5-5-5-5---------------|
A|--3-3---3-3---5-5---3-3-3-3--1-1-1-1-3-3-3-3-3-3-3-3-3-3-3-3---------------|
E|--1-1---0-0--------------------------1-1-1-1-------------------------------|


e|---------------------------------------------------------------------------|
B|---------------------------------------------------------------------------|
G|--3-3-3-3----------5-5-5-5-5-5-5-5-----------------------------------------|
D|--3-3-3-3-3-3-3-3--5-5-5-5-5-5-5-5-----------------------------------------|
A|--1-1-1-1-3-3-3-3--3-3-3-3-3-3-3-3-----------------------------------------|
E|----------1-1-1-1----------------------------------------------------------|

Guitar 2 (distorsion)

e|---------------------------------------------------------------------------|
B|---------------------------------------------------------------------------|
G|--------------7-7---5-5-5-5--3-3-3-3---------5-5-5-5----9-10-12------------|
D|--3-3---2-2---7-7---5-5-5-5--3-3-3-3-3-3-3-3-5-5-5-5-----------------------|
A|--3-3---3-3---5-5---3-3-3-3--1-1-1-1-3-3-3-3-3-3-3-3-----------------------|
E|--1-1---0-0--------------------------1-1-1-1-------------------------------|

e|---------------------------------------------------------------------------|
B|---------------------------------------------------------------------------|
G|--------------7-7---5-5-5-5--3-3-3-3---------5-5-5-5----9-10-12------------|
D|--3-3---2-2---7-7---5-5-5-5--3-3-3-3-3-3-3-3-5-5-5-5-----------------------|
A|--3-3---3-3---5-5---3-3-3-3--1-1-1-1-3-3-3-3-3-3-3-3-----------------------|
E|--1-1---0-0--------------------------1-1-1-1-------------------------------|


e|---------------------------------------------------------------------------|
B|---------------------------------------------------------------------------|
G|--3-3-3-3----------5-5-5-5-5-5-5-5-----------------------------------------|
D|--3-3-3-3-3-3-3-3--5-5-5-5-5-5-5-5-----------------------------------------|
A|--1-1-1-1-3-3-3-3--3-3-3-3-3-3-3-3-----------------------------------------|
E|----------1-1-1-1----------------------------------------------------------|


Bridge

Guitar 1 (acoustic)

e|---------------------------------------------------------------------------|
B|---------------------------------------------------------------------------|
G|--7-7--3-3--------5-5-5-5--7-7--3-3-----------2-2-2-2----------------------|
D|--7-7--3-3--3-3---5-5-5-5--7-7--3-3--3-3-3-3--2-2-2-2----------------------|
A|--5-5--1-1--3-3---3-3-3-3--5-5--1-1--3-3-3-3--0-0-0-0----------------------|
E|------------1-1----------------------1-1-1-1-------------------------------|

e|---------------------------------------------------------------------------|
B|---------------------------------------------------------------------------|
G|--7-7--3-3---------------2-2-2-2--3-3-3-3-3-3-3-3--5-5-5-5-5-5-5-5---------|
D|--7-7--3-3--3-3-3-3------2-2-2-2--3-3-3-3-3-3-3-3--5-5-5-5-5-5-5-5---------|
A|--5-5--1-1--3-3-3-3------0-0-0-0--1-1-1-1-1-1-1-1--3-3-3-3-3-3-3-3---------|
E|------------1-1-1-1--------------------------------------------------------|


Guitar 2 (distorsion)

e|---------------------------------------------------------------------------|
B|---------------------------------------------------------------------------|
G|--7-7--3-3--------5-5-5-5--7-7--3-3-----------2-2-2-2----------------------|
D|--7-7--3-3--3-3---5-5-5-5--7-7--3-3--3-3-3-3--2-2-2-2----------------------|
A|--5-5--1-1--3-3---3-3-3-3--5-5--1-1--3-3-3-3--0-0-0-0----------------------|
E|------------1-1----------------------1-1-1-1-------------------------------|

e|---------------------------------------------------------------------------|
B|---------------------------------------------------------------------------|
G|--7-7--3-3---------------2-2-2-2---7-7-7-7-7-7-7-7--9-9-9-9-9-9-9-9--------|
D|--7-7--3-3--3-3-3-3------2-2-2-2---7-7-7-7-7-7-7-7--9-9-9-9-9-9-9-9--------|
A|--5-5--1-1--3-3-3-3------0-0-0-0---5-5-5-5-5-5-5-5--7-7-7-7-7-7-7-7--------|
E|------------1-1-1-1--------------------------------------------------------|


Solo

Guitar 1 (acoustic)

e|---------------------------------------------------------------------------|
B|---------------------------------------------------------------------------|
G|--------------------7-7-7-7--5-5-5-5--3-3-3-3---------5-5-5-5-5-5-5-5------|
D|--3-3-3-3--2-2-2-2--7-7-7-7--5-5-5-5--3-3-3-3-3-3-3-3-5-5-5-5-5-5-5-5------|
A|--3-3-3-3--3-3-3-3--5-5-5-5--3-3-3-3--1-1-1-1-3-3-3-3-3-3-3-3-3-3-3-3------|
E|--1-1-1-1--0-0-0-0----------------------------1-1-1-1----------------------|

e|---------------------------------------------------------------------------|
B|---------------------------------------------------------------------------|
G|--------------------7-7-7-7--5-5-5-5--3-3-3-3-----------5-5-5-5-5-5-5-5----|
D|--3-3-3-3--2-2-2-2--7-7-7-7--5-5-5-5--3-3-3-3--3-3-3-3--5-5-5-5-5-5-5-5----|
A|--3-3-3-3--3-3-3-3--5-5-5-5--3-3-3-3--1-1-1-1--3-3-3-3--3-3-3-3-3-3-3-3----|
E|--1-1-1-1--0-0-0-0-----------------------------1-1-1-1---------------------|

e|---------------------------------------------------------------------------|
B|---------------------------------------------------------------------------|
G|--3-3-3-3-----------2-2-2-2-2-2-2-2----------------------------------------|
D|--3-3-3-3--3-3-3-3--2-2-2-2-2-2-2-2----------------------------------------|
A|--1-1-1-1--3-3-3-3--0-0-0-0-0-0-0-0----------------------------------------|
E|-----------1-1-1-1---------------------------------------------------------|


Guitar 2 (distorsion)

e|------------------------------------------------------------------------|
b|-----------10--------8-----10-------------------------------------------|
g|-----------------10----------------10-------10-------9---------10---7---|
d|-------10--------------------------------10-----10----------------------|
a|--/8--------------------------------------------------------------------|
e|------------------------------------------------------------------------|

e|---------------------------------------------------------|
b|-------3----------1--------------------------------------|
g|-----3---3------2--------------/9^--9^--9^--9^--10--12---|
d|--------------3------------------------------------------|
a|---------------------------------------------------------|
e|---------------------------------------------------------|

e|------------------------------------------------------------------------|
b|-----------10--------8-----10-------------------------------------------|
g|-----------------10----------------10-------10-------9---------10--7----|
d|-------10--------------------------------10-----10----------------------|
a|--/8--------------------------------------------------------------------|
e|------------------------------------------------------------------------|

e|---------------------------------------------------------|
b|-------3----------1--------------------------------------|
g|-----3---3------2--------------/9^--9^--9^--9^--10-12^---|
d|--------------3------------------------------------------|
a|---------------------------------------------------------|
e|---------------------------------------------------------|


e|-----------------------------------------------------------------|
b|-------3---3-------1---------------------------------------------|
g|-----3---3-------2--------------/9^--9^--9^--9^--9^--9^--9^--9^--|
d|---------------3-------------------------------------------------|
a|-----------------------------------------------------------------|
e|-----------------------------------------------------------------|

Bridge

Guitar 2 (clean)

e|--------------------------------------------------------------------------|
B|---6~---3~---10~---5~---6~---3~---10~---5~~~------------------------------|
G|--------------------------------------------------------------------------|
D|--------------------------------------------------------------------------|
A|---5~---1~---8~----3~---5~---1~---8~----3~~~------------------------------|
E|--------------------------------------------------------------------------|

Verse

Guitar 1 (acoustic)

e|---0---1---1-------0---1---1-------0---1---1-------1~----------------------|
B|---3---1---1---1---3---1---1---1---3---1---1---1---1~----------------------|
G|---2---3---2---0---2---3---2---0---2---3---2---0---3~----------------------|
D|---0---3---3---2---0---3---3---2---0---3---3---2---3~----------------------|
A|-------1---3---3-------1---3---3-------1---3---3---1~----------------------|
E|-----------1---------------1---------------1-------------------------------|


Final Chorous

Guitar 1 (acoustic)

e|---------------------------------------------------------------------------|
B|---------------------------------------------------------------------------|
G|--------------7-7---5-5-5-5--3-3-3-3---------5-5-5-5-5-5-5-5---------------|
D|--3-3---2-2---7-7---5-5-5-5--3-3-3-3-3-3-3-3-5-5-5-5-5-5-5-5---------------|
A|--3-3---3-3---5-5---3-3-3-3--1-1-1-1-3-3-3-3-3-3-3-3-3-3-3-3---------------|
E|--1-1---0-0--------------------------1-1-1-1-------------------------------|

e|---------------------------------------------------------------------------|
B|---------------------------------------------------------------------------|
G|--------------7-7---5-5-5-5--3-3-3-3---------5-5-5-5-5-5-5-5---------------|
D|--3-3---2-2---7-7---5-5-5-5--3-3-3-3-3-3-3-3-5-5-5-5-5-5-5-5---------------|
A|--3-3---3-3---5-5---3-3-3-3--1-1-1-1-3-3-3-3-3-3-3-3-3-3-3-3---------------|
E|--1-1---0-0--------------------------1-1-1-1-------------------------------|


e|---------------------------------------------------------------------------|
B|---------------------------------------------------------------------------|
G|--------------7-7---5-5-5-5--3-3-3-3---------5-5-5-5-5-5-5-5---------------|
D|--3-3---2-2---7-7---5-5-5-5--3-3-3-3-3-3-3-3-5-5-5-5-5-5-5-5---------------|
A|--3-3---3-3---5-5---3-3-3-3--1-1-1-1-3-3-3-3-3-3-3-3-3-3-3-3---------------|
E|--1-1---0-0--------------------------1-1-1-1-------------------------------|

e|---------------------------------------------------------------------------|
B|---------------------------------------------------------------------------|
G|--------------7-7---5-5-5-5--3-3-3-3---------5-5-5-5-5-5-5-5---------------|
D|--3-3---2-2---7-7---5-5-5-5--3-3-3-3-3-3-3-3-5-5-5-5-5-5-5-5---------------|
A|--3-3---3-3---5-5---3-3-3-3--1-1-1-1-3-3-3-3-3-3-3-3-3-3-3-3---------------|
E|--1-1---0-0--------------------------1-1-1-1-------------------------------|

e|---------------------------------------------------------------------------|
B|---------------------------------------------------------------------------|
G|--3-3-3-3----------5~------------------------------------------------------|
D|--3-3-3-3-3-3-3-3--5~------------------------------------------------------|
A|--1-1-1-1-3-3-3-3--3~------------------------------------------------------|
E|----------1-1-1-1----------------------------------------------------------|

Guitar 2 (distorsion)

e|---------------------------------------------------------------------------|
B|---------------------------------------------------------------------------|
G|--------------7-7---5-5-5-5--3-3-3-3---------5-5-5-5----9-10-12------------|
D|--3-3---2-2---7-7---5-5-5-5--3-3-3-3-3-3-3-3-5-5-5-5-----------------------|
A|--3-3---3-3---5-5---3-3-3-3--1-1-1-1-3-3-3-3-3-3-3-3-----------------------|
E|--1-1---0-0--------------------------1-1-1-1-------------------------------|

e|---------------------------------------------------------------------------|
B|---------------------------------------------------------------------------|
G|--------------7-7---5-5-5-5--3-3-3-3---------5-5-5-5----9-10-12------------|
D|--3-3---2-2---7-7---5-5-5-5--3-3-3-3-3-3-3-3-5-5-5-5-----------------------|
A|--3-3---3-3---5-5---3-3-3-3--1-1-1-1-3-3-3-3-3-3-3-3-----------------------|
E|--1-1---0-0--------------------------1-1-1-1-------------------------------|

e|---------------------------------------------------------------------------|
B|---------------------------------------------------------------------------|
G|--------------7-7---5-5-5-5--3-3-3-3---------5-5-5-5----9-10-12------------|
D|--3-3---2-2---7-7---5-5-5-5--3-3-3-3-3-3-3-3-5-5-5-5-----------------------|
A|--3-3---3-3---5-5---3-3-3-3--1-1-1-1-3-3-3-3-3-3-3-3-----------------------|
E|--1-1---0-0--------------------------1-1-1-1-------------------------------|

e|---------------------------------------------------------------------------|
B|---------------------------------------------------------------------------|
G|--------------7-7---5-5-5-5--3-3-3-3---------5-5-5-5----9-10-12------------|
D|--3-3---2-2---7-7---5-5-5-5--3-3-3-3-3-3-3-3-5-5-5-5-----------------------|
A|--3-3---3-3---5-5---3-3-3-3--1-1-1-1-3-3-3-3-3-3-3-3-----------------------|
E|--1-1---0-0--------------------------1-1-1-1-------------------------------|

e|---------------------------------------------------------------------------|
B|---------------------------------------------------------------------------|
G|--3-3-3-3----------5~------------------------------------------------------|
D|--3-3-3-3-3-3-3-3--5~------------------------------------------------------|
A|--1-1-1-1-3-3-3-3--3~------------------------------------------------------|
E|----------1-1-1-1----------------------------------------------------------|
comments
We did not receive enough feedback on this tab! Please rate:
print report bad tab
1 2 3 4 5
I want to post or [tab]
guest
You may want to rate the tab now too:
select rating
Please do not post tabs as comments. Select "correction" instead!