Oops, an error
Loading. Please wait.

21St Century Breakdown Bass Tab

ver1
ver1

Album

Whole song

Interactive

More versions @911Tabs.com
32,124 views 35 this week
2 commentsread comments
1 2 3 4 5
excellent!
x 14
Autoscroll
+/-
esc
set tempo
stop
Contributor
Hey! There's an official Ultimate Guitar app which is ideal
for learning songs when you're away from computer. Get the app
WARNING: You are trying to view
                                    content from Ultimate-Guitar.com
                                    in an unauthorized application,
                                    which is prohibited.

                                    Please use an official Ultimate
                                    Guitar Tabs application for iPhone,
                                    iPad or Android to access legitimate
                                    chords, guitar, bass, and drum tabs
                                    from Ultimate-Guitar.com database.

                                    Type "ultimate guitar tabs" in Apple
                                    App Store's or Android Market's
                                    search to find the application.
Here is the whole 21st Century Breakdown albulm on bass
Please Rate!


-------------------------------------------------------------------------------
			     21stCentury Breakdown
-------------------------------------------------------------------------------

1)-21st Century Breakdown

Verse/Chorus
G|---------------------------------------------------------------------------|
D|------------------------------------------------6-4-3h4p4------------------|
A|-4--4-4---4-4-4-----------------4--4-4---4-4-4-------------6--4------------|
E|----------------4-4-4-2--2-2-----------------------------------------------|

Pre Chorus
G|---------------------------------------------------------------------------|
D|---------------------------------------------------------------------------|
A|-1-1-1-1-1-1-1-1-----------------1-1-1-1-1-1-1-1---------------------------|
E|-----------------2-2-2-2-2-2-2-2-----------------2-2-2--2--4---------------|

After 2nd Chorus        we are the class of.....
G|---------------------------------------------------------------------------|
D|---------------------------------------------------------------------------|
A|----------4--------------4--------------4----------------------------------|
E|--4-(x3)----4--------------4----------------4-------------4-4-4-4-4-4-4-4--|

G|-----------------------------------------------------------------------------|
D|--------------------6--------------------------------------------------------|
A|--4-4444-4444-4444------(x4)-------------------------------------------------|
E|-----------------------------------------------------------------------------|

Verse
G|---------------------------------------------------------------------------|
D|---------------------------------------------------------------------------|
A|--4-4444-4444-4444--------4--4-4444-4444-----------------------------------|
E|--------------------2--4-----------------444444444444----------------------|
repeat as neccassary

  i praise liberty.....
G|---------------------------------------------------------------------------|
D|---------------------------------------------------------------------------|
A|--4-44-44-44-4------------4-44-44-44-4-------------4-44-44-44-4------------|
E|--------------4-44-44-44-4------------44-44-44-44-4------------4-44-44-44--|
   Dont cross the line....
G|---------------------------------------------------------------------------|
D|---------------------------------------------------------------------------|
A|------------4-------4-------4----------------------------------------------|
E|--22-44--22--4---22---4--22---4~----4~----4~----4~----4~----4~---4~---4~---|

G|-----------------------------------------------------------------------------|
D|-----------------------------------------------------------------------------|
A|--4----4-3-----3-1------1/11-----11-9-------9-0-----0-4----4-4-4---4-(x2)----|
E|-----------------------------------------------------------------------------|

G|---------------------------------------------------------------------------|
D|---------------------------------------------------------------------------|
A|--4----4-3------3----------------------------------------------------------|
E|------------------6-----6-4-----4-2-----2/5--------------------------------|


2)- Know Your Enemy

come in with
El-2-2-2-2-2-2-2

Verse/Chorus
G|---------------------------------------------------------------------------|
D|---------------------------------------------------------------------------|
A|--------7-7-------------7-7-------------7-7--------------------------------|
E|--7---7-----7-7-x-x-7-7-----7-7-5-7---7-----7-7-x-x-2-2-2-2-2-2-2----------|

Bridge
G|---------------------------------------------------------------------------|
D|---------------------------------------------------------------------------|
A|--7---7-7-7-7-7------------------------------------------------------------|
E|----------------7---7-7-7-7-7-7-7--(x3)-0-2~-------------------------------|

for the first solo play the main riff and for the second solo play the bridge


3)- Viva La Gloria!

Chorus      Glooooooooriaaaaa!
G|---------------------------------------------------------------------------|
D|---------------------------------------------------------------------------|
A|-7(x16)----------4(16)---------------2-2-2/4-4-----------------------------|
E|---------4(x16)----------5(x32)--0-0------------5(16)--7(x16)-----(x2)-----|

Verse
G|---------------------------------------------------------------------------|
D|---------------------------------------------------------------------------|
A|-----------------44-444-444-444-4------------------------------------------|
E|-00-000-044-444-4----------------55-555-500-000-077-777-777-777-7----------|

Pre Chorus
G|---------------------------------------------------------------------------|
D|---------------------------------------------------------------------------|
A|--0-00-00-0-0-0-2-22-2-2222------------------------------------------------|
E|---------------------------------------------------------------------------|

Outro
G|---------------------------------------------------------------------------|
D|---------------------------------------------------------------------------|
A|--12------------12-----------------0-------------0-----2--2----------------|
E|---------12---------16--14--12-------------0--------------------(x2)-------|

G|---------------------------------------------------------------------------|
D|---------------------------------------------------------------------------|
A|--7--------7---------7---------7----------7\-------------------------------|
E|---------------------------------------------------------------------------|


4)- Before the Lobotomy

Intro
G|---------------------------------------------------------------------------|
D|---------------------------------------------------------------------------|
A|----------4----------4--------------4----------4---------------------------|
E|-44444444----2---4------2----4---2-----2----4-------2-----4----2-----------|

Verse
G|---------------------------------------------------------------------------|
D|---------------------------------------------------------------------------|
A|---4----------------4------------------------------------------------------|
E|------2--4---2---4--------r------------------------------------------------|

Chorus         its enough to make you sick
G|---------------------------------------------------------------------------|
D|---------------------------------------------------------------------------|
A|-------4---------4----------4---------4------------------------------------|
E|---2-----4-4--2-----4-4--2----4-4-2------4---------------------------------|

after 2cd chorus
G|---------------------------------------------------------------------------|
D|---------------------------------------------------------------------------|
A|---------------------------------------------------------------------------|
E|-4-4-4-4-4-4-4-4-----------------------------------------------------------|

Bridge      like refugees
G|---------------------------------------------------------------------------|
D|---------------------------------------------------------------------------|
A|-4--4--44-4--4----------------------2-2-222--------------------------------|
E|---------------4--44-444-4---(x4)----------2--22-2222--(x2)----------------|

G|---------------------------------------------------------------------------|
D|---------------------------------------------------------------------------|
A|--2-2-2-2-2-2-2-2-4---4-4-4-4-(slowly relaese from pm)---------------------|
E|---------------------------------------------------------------------------|

Outro    Dreamin...i was only dreamin...
G|---------------------------------------------------------------------------|
D|-----4444----4444----3333----3333----2222----2222--------------------------|
A|-------------------------------------------------2222222255555555----------|
E|-2222----2222----1111----1111----0000----0000----------------------(x4)----|


5)- Christains Inferno

Main Riff/ Verse
G|---------------------------------------------------------------------------|
D|----------------455555555-------------------------------455555555----------|
A|-222222222222222---------33333333--------222222222222222-------------------|
E|-----------------------------------(x3)---------------------------5-5-5-5-5|

Chorus
G|---------------------------------------------------------------------------|
D|--------------------------55555555-----------------------------------------|
A|--55555555--------55555555-------------------------------------------------|
E|----------55555555---------------------------------------------------------|

Guitar Solo
G|---------------------------------------------------------------------------|
D|---------22222222----3333--------------------------------------------------|
A|-22222222--------3333----22222222--(x4)------------------------------------|
E|---------------------------------------------------------------------------|


6)- Last Night on Earth

Verse
G|---------------------------------------------------------------------------|
D|---7-------7-------7-------7----------------------7--------7---------------|
A|-----------------------------------5-------5-------------------------------|
E|---------------------------------------------------------------------------|

Chorus
G|---------------------------------------------------------------------------|
D|----------------7-------7--------------------------------------/12h14p12---|
A|-5------5--------------------(x2)--10------8------7-----5------------------|
E|---------------------------------------------------------------------------|


7)- East Jesus Nowhere

Main Riff
G|-------------xx-xx-xx-x------------------------------------------------------|
D|-------------xx-xx-xx-x------------------------------------------------------|
A|--7-10-7-5-7-xx-xx-xx-x------------------------------------------------------|
E|-------------xx-xx-xx-x----(x4)----------------------------------------------|

Verse 1
G|---------------------------------------------------------------------------|
D|---------------------------------------------------------------------------|
A|--5---7--xx-xx-xx-xx-xx-x--------------------------------------------------|
E|----5----xx-xx-xx-xx-xx-x---(x4)-------------------------------------------|

Then play the main the main riff x4

Pre Chorus
G|---------------------------------------------------------------------------|
D|---------------------------------------------------------------------------|
A|--5------------------------------5------------------7-77-77-77-7-----------|
E|----5--7--77-77-77-77-77-7-(x3)-----5---5-55-55-55-5-----------------------|

Chorus
G|---------------------------------------------------------------------------|
D|---------------------------------------------------------------------------|
A|-------------------0-0-000-03-33-2-22----------------------0-0-000-03-33-55|
E|-0-0-000-03-3-333-3----------------------0-0-000-03-3-333-3----------------|

Then play the main riff x4

Bass Solo thingy
G|---------------------------------------------------------------------------|
D|------------------------1-------1---------2-2-222----------------1---------|
A|----------------02-2-222-2-2-222-----------------0-------02-2-222-2--------|
E|-0-0-00023-3-333-------------------(x2)-----------3-3-333------------------|
play the first part again

then play 2cd Pre Chorus
G|---------------------------------------------------------------------------|
D|---------------------------------------------------------------------------|
A|-5-------------------------------5--------------55555555-------------------|
E|---5--7--xx-xx-xx-xx-xx-x--(x3)-----5---77777777---------------------------|

Then play the chorus
the the main riff x4

Bridge
G|---------------------------------------------------------------------------|
D|---------------------------------------------------------------------------|
A|-7777777777777~--(x3)---7-----7----7---------------------------------------|
E|---------------------------------------------------------------------------|

Then play the 2cd pre chorus
the play the chorus behind the guitar solo

During the weird drum roll play
G|---------------------------------------------------------------------------|
D|-----2---2-3---3-2--2------------------------------------------------------|
A|----2---2-----2------2-----------------------------------------------------|
E|-0----------------------(x4)-----------------------------------------------|

Outro
G|---------------------------------------------------------------------------|
D|---------------------------------------------------------------------------|
A|--7--10--7--5--7------------------5---7------7777--------------------------|
E|-----------------xx-xx-xx-x-(x4)----5--------------------------------------|


8)- Peacemaker

Verse
G|---------------------------------------------------------------------------|
D|---------------------------------------------------------------------------|
A|-2--0---0--222-0---0-------------------------------------------------------|
E|------2----------2-------after you play that so many times---2(x64)--------|

Chorus
G|---------------------------------------------------------------------------|
D|---------------------------------------------------------------------------|
A|----------2-(x32)----------2-(16)----------2-(x16)-------------------------|
E|-2-(x32)-----------0-(x16)--------2-(x16)----------------------------------|
its pretty easy to figure out where to play everything


9)- Last of the American Girls

Intro
G|---------------------------------------------------------------------------|
D|---------------------------------------------------------------------------|
A|-02222222222222222-2-(x16)--7-(x16)--2-(x16)--9-(x5)-----------------------|
E|---------------------------------------------------------------------------|

Verse
G|---------------------------------------------------------------------------|
D|---------------------------------------------------------------------------|
A|-2-(x16)--7-(x16)--2-(x16)--9-(x8)-7-7-6-6-4-4-4-4-------------------------|
E|---------------------------------------------------------------------------|

Chorus
G|---------------------------------------------------------------------------|
D|---------------------------------------------------------------------------|
A|-14-(x16)--7-(x16)--14-(x8)-9-9-9------------------------------------------|
E|---------------------------------------------------------------------------|

after the chorus play
G|---------------------------------------------------------------------------|
D|---------------------------------------------------------------------------|
A|-2-2-2-2/7-7-7-7-7\2-2-2-2-2-2/7-7-7-7-7\----------------------------------|
E|---------------------------------------------------------------------------|
for the solos just play the chorus


10)- Murder City

Chorus
G|---------------------------------------------------------------------------|
D|-------------------6-(x16)-------------------------------------------------|
A|----------6-(x16)-----------5(x16)-----------------------------------------|
E|-7-(x16)-------------------------------------------------------------------|

Verse
G|---------------------------------------------------------------------------|
D|---------------------------------------------------------------------------|
A|--------7-(x8)--------7-(x8)--------9-(x16)-------7-(x16)------------------|
E|-7-(x8)--------4-(16)--------7-(x8)---------(x2)---------------------------|


11)- Viva La Gloria? (Little Girl)

Chorus
G|---------------------------------------------------------------------------|
D|------------------------------3-3-3-3--------------------------------------|
A|--------344--44-433--3-1-----------------------344--44-43333333333333------|
E|-1111111---44--4---33----4-3-1-1-1-1----1111111---44--4--------------------|

Verse
G|---------------------------------------------------------------------------|
D|----------------------------------------------------3-3-3-3----------------|
A|---23------88---8---4--4--44--33--3-1------3-3-3-3-3-3-3-3--4-4-4-433------|
E|-11--(x4)-----------------------33----4-3-1-1-1-1----------4-4-4-4---33----|

G|---------------------------------------------------------------------------|
D|-------------------3-3-3-3-------------------------------------------------|
A|-3-1------3-3-3-3-3-3-3-3--4-4-4-4-33--3-1-------23--23/-88---8---4--4-44--|
E|-----4-3-1-1-1-1----------4-4-4-4----33----4-3-11--11----------------------|

G|---------------------------------------------------------------------------|
D|---------------------------------------------------------------------------|
A|-33--3-1-------23----------------------------------------------------------|
E|---33----4-3-11--1---------------------------------------------------------|

play chorus again and then
G|---------------------------------------------------------------------------|
D|---------------------------------------------------------------------------|
A|--15-15-15-15-15-13-11-10-8888888888888888---------------------------------|
E|---------------------------------------------------------------------------|

Bridge
G|---------------------------------------------------------------------------|
D|---------------------------------------------------------------------------|
A|-44444444--------------333333333-15-15-15-15-15-15-15-15-------------------|
E|---------44444444-(x3)-----------------------------------------------------|

Guitar Solo
G|---------------------------------------------------------------------------|
D|---------------------------------------------------------------------------|
A|-88888888-66666666-5555------6666-3333-------------------------------------|
E|------------------------6666-----------(x4)--------------------------------|
finish with the chorus


12)- Restless Heart Syndrome

1st and 2nd Verse (2nd verse play it x8)
G|---------------------------------------------------------------------------|
D|---------------------------------------------------------------------------|
A|--10---10-8---8-7---7-6-----5/---------------------------------------------|
E|-------------------------------------(x4)----------------------------------|

1st and 2nd Chorus
G|---------------------------------------------------------------------------|
D|---------------------------------------------------------------------------|
A|---------------------------------------------------------------------------|
E|--8--8-6--6-5--5-4---3/----------------------------------------------------|

after 2nd chorus
G|-----------------------------------------------------------------------------|
D|-----------------------------------------------------------------------------|
A|-5-(x16)--10-(x8)-8-(x8)-7777333388885555--play again without the first 16---| notes
E|-----------------------------------------------------------------------------|

Guitar Solo
G|---------------------------------------------------------------------------|
D|---------------------------------------------------------------------------|
A|-----------7777-6665-------------------------------------------------------|
E|-3333-1111-------------(x4)------------------------------------------------|

3rd Chorus
G|---------------------------------------------------------------------------|
D|---------------------------------------------------------------------------|
A|---------------7777333388885555----------------------7777333388885555------|
E|-33----111-----------------------(x2)--3(x8)--1(x8)------------------------|

Outro
G|---------------------------------------------------------------------------|
D|---------------------------------------------------------------------------|
A|------------------6666----666--665-----------------------------------------|
E|-3333----3333----------------------(x4)------3---3---3---3---3-------------|


13)- Horseshoes and Handgrenades

Main Riff/ Verse
G|---------------------------------------------------------------------------|
D|---------------------------------------------------------------------------|
A|-----57--75----------------------------------------------------------------|
E|-7--7------550-2-0-2-0-2---------------------------------------------------|

Bridge thing
G|---------------------------------------------------------------------------|
D|---------------------------------------------------------------------------|
A|--14(x8)--12(x8)--11(x8)--10-10-10-----------------------------------------|
E|---------------------------------------------------------------------------|

Chorus
G|---------------------------------------------------------------------------|
D|---------------------------------------------------------------------------|
A|--7777777777777------------------------------------------------------------|
E|---------------5567777777777777665-----------------------------------------|

Real Bridge           Demolition....
G|---------------------------------------------------------------------------|
D|---------------------------------------------------------------------------|
A|---------------------------------------------------------------------------|
E|--7775-(x4)----------------------------------------------------------------|

14)- The Static Age

Verse
G|---------------------------------|-----------------------------------------|
D|----------------------------(x2)-|-----------------------------------------|
A|-\2x16-7x8-----2x16-7x8-9x8------|-2x16-7x8-----2x16-7x8-------------------|
E|-----------2x8-------------------|----------2x8----------2x6---------------|

                     slowly release palm mute
G|---------------------------------------------------------------------------|
D|-------------------4444444444444444----------------------------------------|
A|---------------------------------------------------------------------------|
E|-22-0-222222-22-0----------------------------------------------------------|
                     .........

Chorus
G|----------------------------|----------------------------------------------|
D|----------------------------|------------444444----------------------------|
A|-2-2-2222--------------(x3)-|-2-2-2222-------------------------------------|
E|-----------0-00--2-22-------|----------2-----------------------------------|

Verse

Chorus 2
G|----------------------------|----------------------------------------------|
D|----------------------------|----------------------------------------------|
A|-2-2-2222--------------(x3)-|-2x16-----------------------------------------|
E|-----------0-00--2-22-------|----------------------------------------------|


Bridge
G|---------------------------------------------------------------------------|
D|---------------------------------------------------------------------------|
A|-7x16----------7x16\/99999-7-9-10x8----------------------------------------|
E|-------7x16\---------------------------------------------------------------|


Guitar solo
G|---------------------------------|-----------------------------------------|
D|---------------------------------|-----------------------------------------|
A|-3x16-8x8-----7x16-8x8------(x2)-|-----------------------------------------|
E|----------3x8----------3x8-------|-4x8-5x4-6x4-77-88-99-10-10-11\----------|


Verse 3
G|---------------------------------------------------------------------------|
D|--------------------5x8-7x8------------------------------------------------|
A|-5x16----------5x16----------5x16----------5x16----------------------------|
E|------3x8-5x8---------------------3x8-5x8-------3x8-5x6-55-3-555555-3------|

   slowly release palm mute
G|---------------------------------------------------------------------------|
D|-7777777777777777----------------------------------------------------------|
A|---------------------------------------------------------------------------|
E|---------------------------------------------------------------------------|
   ........


Final Chorus
  Play these two sections three times
G|------------------------|--------------------------------------------------|
D|----------555-777--(x3)-|----------77777777--------------------------------|
A|-5-5-5555---------------|-5-5-5555-----------------------------------------|
E|------------------------|--------------------------------------------------|

G|------------------------|---------------------------------------------------|
D|----------555-777-------|---------------------------------------------------|
A|-5-5-5555----------(x3)-|-5x16----------------------------------------------|
E|------------------------|------6x8-8x8-10-----------------------------------|


15)- 21 Guns

Verse Starts on "Does the pain weigh..."
G|----------------------------|----------------------------------------------|
D|----------------------------|----------------------------------------------|
A|-5-5-11~-1/8-8--------(x3)--|----------------------------------------------|
E|---------------88~-8--------|-6~----8--------------------------------------|

Chorus
G|------------------------------------------------|--------------------------|
D|-33--22--00-------------------------------------|--------------------------|
A|-------------33333--11111-------333333333--(x2)-|-1111------3~-------------|
E|--------------------------11111-----------------|------1111----------------|

Verse 2
G|----------------------------|----------------------------------------------|
D|----------------------------|----------------------------------------------|
A|-5-5-11~-1/8-8--------(x3)--|----------------------------------------------|
E|---------------88~-8--------|-6-6-666-8-8-888------------------------------|

G|----------------------------|----------------------------------------------|
D|----------------------------|----------------------------------------------|
A|-5-5-11~-1/8-8--------(x3)--|----------------------------------------------|
E|---------------88~-8--------|-6~----8--------------------------------------|

Chorus
G|------------------------------------------------|--------------------------|
D|-33--22--00-------------------------------------|--------------------------|
A|-------------33333--11111-------333333333--(x2)-|-1111------3x8------------|
E|--------------------------11111-----------------|------1111----------------|

Bridge
G|---------------------------------------------------------------------------|
D|---------------------------------------------------------------------------|
A|-55-11----3333--55-11-----------55-11-----------1x8-3x8--------------------|
E|-------11-------------1111-5555------1111-55555----------------------------|

Guitar solo
G|----------------------------------------------|----------------------------|
D|-3333-2222-0000-------------------------------|----------------------------|
A|----------------3333-1111------33333333--(x2)-|-1111-----------------------|
E|--------------------------1111----------------|------1111-55555555---------|

Chorus
G|------------------------------------------------|--------------------------|
D|-33--22--00-------------------------------------|--------------------------|
A|-------------33333--11111-------333333333--(x4)-|-1111------3x8------------|
E|--------------------------11111-----------------|------1111----------------|


16)- American Eulogy

Part I-Mass Hysteria

Chorus x2
G|---------------------------------------------------------------------------|
D|------66666666-------------------------------------------------------------|
A|-3-44-----------3-44-------------------------------------------------------|
E|---------------------44444444----------------------------------------------|

Verse x2
G|---------------------------------------------------------------------------|
D|--------------------------6-4-444444--------6------------------------------|
A|-4-44444------------4-444-------------4-444--------------------------------|
E|---------4-44-4444----------------------------4-44-4444-2-22222-4-44444----|

Chorus x2

Verse x2

Chorus x2

Interlude
G|---------------------------------------------------------------------------|
D|-----------------------------6--------6------------------------------------|
A|-4~--3~--1~----------6~----------------------------------------------------|
E|-------------4~--2~------3-4------3-4--------------------------------------|

Guitar solo
G|---------------------------------------------------------------------------|
D|---------------------------------------------------------------------------|
A|-------------4----4---------------5----------------------------------------|
E|-2x16-4x8-44---44----2x16-4x8-5x8------------------------------------------|


Part II-Modern World

Chorus x4
G|---------------------------------------------------------------------------|
D|------7777-5555-7777-------------------------------------------------------|
A|-5555----------------------------------------------------------------------|
E|---------------------------------------------------------------------------|

Verse
G|---------------------------------------------------------------------------|
D|---------------------------------------------------------------------------|
A|-55-------55--55-----------55-------55--55--------5------------------------|
E|----55-33--------55-33-55-----55-33--------55-3-5--------------------------|

Chorus x4

Bridge
G|----------------------------------------------------------------------------|
D|----------------------------------------------------------------------------|
A|-2-2-222-------------------555-4--2-2-222-----------------------------------|
E|---------2-22-2222-3-3-333----------------2-22-2222-3-3-333-5-5-5-5-5-5-5-5-|

Guitar solo
G|---------------------------|-----------------------------------------------|
D|------7777-5555-7777-------|------7777-------------------------------------|
A|-5555-----------------(x3)-|-5555----------5-------------------------------|
E|---------------------------|-----------3-5---------------------------------|

Verse 2
G|---------------------------------------------------------------------------|
D|---------------------------------------------------------------------------|
A|-55-------55--55-----------55-------55--55--------5--5---------------------|
E|----55-33--------55-33-55-----55-33--------55-3-5--------------------------|

G|---------------------------------------------------------------------------|
D|---------------------------------------------------------------------------|
A|-5555-----------5555--5555-----------------5555-----------5555--5----------|
E|------5555-3333------------5555-3333-5555-------5555-3333------------------|

Chorus until the song fades out


17)- See The Light

Verse x4
G|---------------------------------------------------------------------------|
D|------666666666666---------------------------------------------------------|
A|-4-------------------------------------------------------------------------|
E|----4----------------------------------------------------------------------|

Chorus
G|---------------------------------------------------------------------------|
D|-----------------6-66-66666------------------------------------------------|
A|-4-4-444-----444------------44-------4-4-444-----444------------44---------|
E|---------222-------------------4-44----------222-----4-44-44444----4-44----|

G|---------------------------------------------------------------------------|
D|-----------------6-66-66666------------------------------------66----66----|
A|-4-4-444-----444------------44-------4-4-444-----444-666666666----66-------|
E|---------222-------------------4-44----------222---------------------------|

Verse x6

Chorus 2
G|---------------------------------------------------------------------------|
D|-----------------6-66-666-6------------------------------------------------|
A|-4-4-444-----444------------44-------4-4-444-----444------------44---------|
E|---------222-------------------4-44----------222-----4-44-44444----4-44----|

G|---------------------------------------------------------------------------|
D|-----------------6-66-66666------------------------------------------------|
A|-4-4-444-----444------------44-------4-4-444-----444-6---------------------|
E|---------222-------------------4-44----------222---------------------------|

Guitar solo
G|-------------------------------------------------666-----------------------|
D|---------------------------------------------444-333-----------------------|
A|-4-4-444-----444------------44-------4-4-444--------------------44---------|
E|---------222-----4-44-44444----4-44------------------4-44-44444----4-44----|

G|-------------------------------------------------666-----------------------|
D|---------------------------------------------444-333-----------66----66----|
A|-4-4-444-----444------------44-------4-4-444---------666666666----66-------|
E|---------222-----4-44-44444----4-44----------------------------------------|

Verse x10

Chorus

Outro
G|----------------------------------------------------------------------------|
D|-----------------------------6666666666666666-------------------------------|
A|-4----------------------4----------------------4----------------------------|
E|---4--4444444444444444----4----------------------4-4444444444444444---------|
comments
print report bad tab
2 comments total.
0 reply
BassFreak98 wrote on January 26 2013, 05:36 pm

Perfect, somewhat simplified, but perfect.

0 reply
SonicRainboooom wrote on May 12 2013, 01:56 am

An hour well spent indeed.

I want to post or [tab]
guest
You may want to rate the tab now too:
select rating
Please do not post tabs as comments. Select "correction" instead!