Oops, an error
Loading. Please wait.

21st Century Breakdown Tab

ver1
ver1

Album

Whole song

More versions @911Tabs.com
191,753 views 139 this week
17 commentsread comments
1 2 3 4 5
excellent!
x 45
Autoscroll
+/-
esc
set tempo
stop
Difficulty
novice
WARNING: You are trying to view
                                    content from Ultimate-Guitar.com
                                    in an unauthorized application,
                                    which is prohibited.

                                    Please use an official Ultimate
                                    Guitar Tabs application for iPhone,
                                    iPad or Android to access legitimate
                                    chords, guitar, bass, and drum tabs
                                    from Ultimate-Guitar.com database.

                                    Type "ultimate guitar tabs" in Apple
                                    App Store's or Android Market's
                                    search to find the application.

                                  21st century breakdown

INTRO (this part is played by a piano)
E|-------4---4--4--6--4--------|
B|-----6---6------------7--6---|
G|---6-------------------------|
D|-----------------------------|
A|-----------------------------|
E|-----------------------------|

If you don't wanna play the piano tab attemp, you can play the chords
that are played in the piano, wich are C# G# F#.
Listen to the song to find how many times you have to play this.


PART 1
Verse:
E|---------------------------|
B|---------------------------|
G|--6-6-6-6------------------|
D|--6-6-6-6--6-6-6--4-4-4----|
A|--4-4-4-4--6-6-6--4-4-4----|
E|-----------4-4-4--2-2-2----|

Repeat that till the "my generation is zero", where you play the Chorus.

E|----------------------------------------------------------------------|
B|----------------------------------------------------------------------|
G|-3-3-3-3-3-3-3---------------3-3-3-3-3-3-3-3-3-3-3--------------------|
D|-3-3-3-3-3-3-3-4-4-4-4-4-4-4-3-3-3-3-3-3-3-3-3-3-3-4-4-4-4-4-4-4-6-6--|
A|-1-1-1-1-1-1-1-4-4-4-4-4-4-4-1-1-1-1-1-1-1-1-1-1-1-4-4-4-4-4-4-4-6-6--|
E|---------------2-2-2-2-2-2-2-----------------------2-2-2-2-2-2-2-4-4--|

My generation is zero           I never made it as a working class hero.

ORDER: Verse x6
       Chorus
       Verse x10
       Chorus
       Verse x4

PART 2
"Intro"
E|------------------|
B|------------------|
G|------------------|
D|--/6~-----6~---6--|
A|--/6~-----6~---6--|
E|--/4~-----4~---4--|


While second guitar plays this (or something like that,
I just play it, I'm not sure how it goes), the first
guitar does "G# C#"

E|-------------------------------------------|
B|----------4--------4--------4--6--4--------|
G|------------------------------------6--5---|  x8 and then
D|-----6--------6---------6------------------|
A|--6----6----6---6-----6---6----------------|
E|-------------------------------------------|

E|--------4-------4-------4--6--4----------|
B|----6-------6-------6------------7--6----|
G|--6---6---6---6---6---6------------------|  X4 and then Billie starts
D|-----------------------------------------|    to sing the "my name is
A|-----------------------------------------|   samuel":
E|-----------------------------------------|

Verse 4
E|------------------------------------------------------------------|
B|------------------------------------------------------------------|
G|-6-6-6-6-6-6-6-6-6-6-----------6---6-6-6-6-6-6-6-6-6-6------------|
D|-6-6-6-6-6-6-6-6-6-6-4----6----6---6-6-6-6-6-6-6-6-6-6--6-6-6-6---|
A|-4-4-4-4-4-4-4-4-4-4-4----6----4---4-4-4-4-4-4-4-4-4-4--6-6-6-4---|
E|---------------------2----4-----------------------------4-4-4-4---|


"Bridge" (don't know how to call this) 4
E|-----------------|
B|-----------------|
G|-6-6-6-6-6-6-----|
D|-6-6-6-6-6-6-6---|
A|-4-4-4-4-4-4-6---|
E|-------------4---|

Order: Verse x4
       "Bridge" x4
       Verse x4

Outro of part 2(?)
E|------------------|
B|------------------|
G|---------6-6-6-6--|
D|-4-4-4-4-6-6-6-6--| x3
A|-4-4-4-4-4-4-4-4--|
E|-2-2-2-2----------|

"well don't cross the line"
E|-----------|
B|-----------|
G|-----6-----|
D|-4-4-6-6---|  x4
A|-4-4-4-6---|
E|-2-2---4---|

PART 3
Solo (attemp of at least)
E|---------------------------------------------------------------|
B|---------------------------------------------------------------|
G|---8b--8--8b--8------------------------------------------------|
D|-----------------11--11---13-10-6---11-8-4--4-6v--4--8v--6/4---|
A|---------------------------------------------------------------|
E|---------------------------------------------------------------|


E|-------------------------------------------------------0----------|
B|-------------------------------------------------------2----------|
G|----6--------5-------3---------------------------------2----------|
D|----6--------5-------3--------6--------------4---------2----------|
A|----4--------3-------1--------6--------------4---------0----------|
E|------------------------------4--------------2---------0----------|
  Oh, dream, american, dream. I can't leave and see from rainstorms


E|---------------------------------------------------------------|
B|---------------------------------------------------------------|
G|------6---------6--------5------3------------------------------|
D|------6---------6--------5------3-------6---------------4------|
A|------4---------4--------3------1-------6---------------4------|
E|----------------------------------------4---------------2------|
  'till dawn. Oh, bleed, america, bleed. Believe what you need


E|-0-------------------------||
B|-2-------------------------||
G|-2-------------------------||
D|-2-------------------------||
A|-0-------------------------||
E|-0-------------------------||
  from heroes and cons.


____________________________________________________
b = Bend this note
v = vibrato
/ = slide to

                                           KNOW YOUR ENEMY

Intro

3 bars of nothing then

e|------------------||
B|------------------||
G|------------------||
D|------------------||
A|----------------x-||
E|-------------14/x-||
   1 + 2 + 3 + 4 +


-----------------------------------------------------------------------|
Intro

e|------------------|------------------|------------------|-----------------|
B|------------------|------------------|------------------|-----------------|
G|-------9-9--------|-------9-9--------|-------9-9--------|-------9-9-------|
D|-9---9-9-9-9-9-X--|-X-9-9-9-9-9-9-7--|-9---9-9-9-9-9-X--|-X-9-9-9-9-9-9-7-|
A|-9---9-7-7-9-9-X--|-X-9-9-7-7-9-9-7--|-9---9-7-7-9-9-X--|-X-9-9-7-7-9-9-7-|
E|-7---7-----7-7-X--|-X-7-7-----7-7-5--|-7---7-----7-7-X--|-X-7-7-----7-7-5-|
   1 + 2 + 3 + 4 +    1 + 2 + 3 + 4 +    1 + 2 + 3 + 4 +    1 + 2 + 3 + 4 +


-----------------------------------------------------------------------|
Chorus - Doubled from bar 4

e|------------------|------------------|------------------|-----------------|
B|------------------|------------------|------------------|-----------------|
G|-------9-9--------|-------9-9--------|-------9-9--------|-----------------|
D|-9---9-9-9-9-9-X--|-X-9-9-9-9-9-9-7--|-9---9-9-9-9-9-0--|-4-4-4-4-4-4-4-4-|
A|-9---9-7-7-9-9-X--|-X-9-9-7-7-9-9-7--|-9---9-7-7-9-9-0--|-4-4-4-4-4-4-4-4-|
E|-7---7-----7-7-X--|-X-7-7-----7-7-5--|-7---7-----7-7-0--|-2-2-2-2-2-2-2-2-|
   1 + 2 + 3 + 4 +    1 + 2 + 3 + 4 +    1 + 2 + 3 + 4 +    1 + 2 + 3 + 4 +

e|------------------|------------------|------------------|-----------------|
B|------------------|------------------|------------------|-----------------|
G|-------9-9--------|-------9-9--------|-------9-9--------|-----------------|
D|-9---9-9-9-9-9-X--|-X-9-9-9-9-9-9-7--|-9---9-9-9-9-9-0--|-4-4-4-4-4-4-4-4-|
A|-9---9-7-7-9-9-X--|-X-9-9-7-7-9-9-7--|-9---9-7-7-9-9-0--|-4-4-4-4-4-4-4-4-|
E|-7---7-----7-7-X--|-X-7-7-----7-7-5--|-7---7-----7-7-0--|-2-2-2-2-2-2-2-2-|
   1 + 2 + 3 + 4 +    1 + 2 + 3 + 4 +    1 + 2 + 3 + 4 +    1 + 2 + 3 + 4 +

e|------------------|------------------|------------------|-----------------|
B|------------------|------------------|------------------|-----------------|
G|-------9-9--------|-------9-9--------|-------9-9--------|-----------------|
D|-9-9-9-9-9-9-9-X--|X9-9-9-9-9-9-9-7--|-9-9-9-9-9-9-9-0--|-4-4-4-4-4-4-4-4-|
A|-9-9-9-7-7-9-9-X--|X9-9-7-7-7-9-9-7--|-9-9-9-7-7-9-9-0--|-4-4-4-4-4-4-4-4-|
E|-7-7-7-----7-7-X--|X7-7-7-----7-7-5--|-7-7-7-----7-7-0--|-2-2-2-2-2-2-2-2-|
   1 + 2 + 3 + 4 +    1 + 2 + 3 + 4 +    1 + 2 + 3 + 4 +    1 + 2 + 3 + 4 +


-----------------------------------------------------------------------|
Verse - Just one guitar - 4 times

e|------------------|------------------|------------------|-----------------|
B|------------------|------------------|------------------|-----------------|
G|-------9-9--------|-------9-9--------|-------9-9--------|-----------------|
D|-9-9-9-9-9-9-9-X--|X9-9-9-9-9-9-9-7--|-9-9-9-9-9-9-9-0--|-4-4-4-4-4-4-4-4-|
A|-9-9-9-7-7-9-9-X--|X9-9-9-7-7-9-9-7--|-9-9-9-7-7-9-9-0--|-4-4-4-4-4-4-4-4-|
E|-7-7-7-----7-7-X--|X7-7-7-----7-7-5--|-7-7-7-----7-7-0--|-2-2-2-2-2-2-2-2-|   1 + 2 + 
+ 4 +    1 + 2 + 3 + 4 +    1 + 2 + 3 + 4 +    1 + 2 + 3 + 4 +

-----------------------------------------------------------------------|
2nd Chorus


e|------------------|------------------|------------------|-----------------|
B|------------------|------------------|------------------|-----------------|
G|-------9-9--------|-------9-9--------|-------9-9--------|-----------------|
D|-9-9-9-9-9-9-9-X--|X9-9-9-9-9-9-9-7--|-9-9-9-9-9-9-9-0--|-4-4-4-4-4-4-4---|
A|-9-9-9-7-7-9-9-X--|X7-9-9-7-7-9-9-7--|-9-9-9-7-7-9-9-0--|-4-4-4-4-4-4-4---|
E|-7-7-7-----7-7-X--|X7-7-7-----7-7-5--|-7-7-7-----7-7-0--|-2-2-2-2-2-2-2---|
   1 + 2 + 3 + 4 +    1 + 2 + 3 + 4 +    1 + 2 + 3 + 4 +    1 + 2 + 3 + 4 +


e|------------------|------------------|------------------|-----------------|
B|------------------|------------------|------------------|-----------------|
G|-------9-9--------|-------9-9--------|-------9-9--------|-----------------|
D|-9-9-9-9-9-9-9-X--|X9-9-9-9-9-9-9-7--|-9-9-9-9-9-9-9-0--|-4-4-4-4-4-4-4-4-|
A|-9-9-9-7-7-9-9-X--|X9-9-9-7-7-9-9-7--|-9-9-9-7-7-9-9-0--|-4-4-4-4-4-4-4-4-|
E|-7-7-7-----7-7-X--|X7-7-7-----7-7-5--|-7-7-7-----7-7-0--|-2-2-2-2-2-2-2-2-|
   1 + 2 + 3 + 4 +    1 + 2 + 3 + 4 +    1 + 2 + 3 + 4 +    1 + 2 + 3 + 4 +

---------------------------------------------------------------------------|
Bridge

Guitar One and Two

e|------------------|------------------|------------------|-----------------|
B|------------------|------------------|------------------|-----------------|
G|-9-9-9-9-9-9-9----|---------------0--|-9-9-9-9-9-9-9----|---------------0-|
D|-9-9-9-9-9-9-9-9--|-9-9-9-9-9-9-9-0--|-9-9-9-9-9-9-9-9--|-9-9-9-9-9-9-9-0-|
A|-7-7-7-7-7-7-7-9--|-9-9-9-9-9-9-9-0--|-7-7-7-7-7-7-7-9--|-9-9-9-9-9-9-9-0-|
E|---------------7--|-7-7-7-7-7-7-7-0--|---------------7--|-7-7-7-7-7-7-7-0-|
   1 + 2 + 3 + 4 +    1 + 2 + 3 + 4 +    1 + 2 + 3 + 4 +    1 + 2 + 3 + 4 +

e|------------------|------------------||
B|------------------|------------------||
G|-9-9-9-9-9-9-9----|---------------0--||
D|-9-9-9-9-9-9-9-9--|-9-9-9-9-9-9-9-0--||
A|-7-7-7-7-7-7-7-9--|-9-9-9-9-9-9-9-0--||
E|---------------7--|-7-7-7-7-7-7-7-0--||
   1 + 2 + 3 + 4 +    1 + 2 + 3 + 4 +

Guitar Two

e|--------------------------------------|
B|------12--------12----------12--------|
G|- 9-9----9-9-8----------11----11------|
D|-------------------9-9-9--9-----9-----| X3
A|--------------------------------------|
E|--------------------------------------|

-----------------------------------------------------------------------|
Interlude

e|------------------|------------------||
B|------------------|------------------||
G|-------4-4--------|-------4-4--------||
D|-4---4-4-4-4-4-X--|-X-4-4-4-4-4-4-0--||
A|-4---4-2-2-4-4-X--|-X-4-4-2-2-4-4-0--||
E|-2---2-----2-2-X--|-X-2-2-----2-2-0--||
   1 + 2 + 3 + 4 +    1 + 2 + 3 + 4 +

-----------------------------------------------------------------------|
Guitar Solo + Interlude

Guitar Two

e|------------------|------------------|------------------|-----------------|
B|------------------|------------------|------------------|-----------------|
G|-------9-9--------|-------9-9--------|-------9-9--------|-----------------|
D|-9---9-9-9-9-9-X--|-X-9-9-9-9-9-9-7--|-9---9-9-9-9-9-0--|-4-4-4-4-4-4-4-4-|
A|-9---9-7-7-9-9-X--|-X-9-9-7-7-9-9-7--|-9---9-7-7-9-9-0--|-4-4-4-4-4-4-4-4-|
E|-7---7-----7-7-X--|-X-7-7-----7-7-5--|-7---7-----7-7-0--|-2-2-2-2-2-2-2-2-|
   1 + 2 + 3 + 4 +    1 + 2 + 3 + 4 +    1 + 2 + 3 + 4 +    1 + 2 + 3 + 4 +

e|------------------|------------------|------------------|-----------------|
B|------------------|------------------|------------------|-----------------|
G|-------9-9--------|-------9-9--------|-------9-9--------|-----------------|
D|-9---9-9-9-9-9-X--|-X-9-9-9-9-9-9-7--|-9---9-9-9-9-9-0--|-4-4-4-4-4-4-4-4-|
A|-9---9-7-7-9-9-X--|-X-9-9-7-7-9-9-7--|-9---9-7-7-9-9-0--|-4-4-4-4-4-4-4-4-|
E|-7---7-----7-7-X--|-X-7-7-----7-7-5--|-7---7-----7-7-0--|-2-2-2-2-2-2-2-2-|
   1 + 2 + 3 + 4 +    1 + 2 + 3 + 4 +    1 + 2 + 3 + 4 +    1 + 2 + 3 + 4 +

e|------------------|------------------|------------------|-----------------|
B|------------------|------------------|------------------|-----------------|
G|-9-9-9-9-9-9-9----|---------------0--|-9-9-9-9-9-9-9----|---------------0-|
D|-9-9-9-9-9-9-9-9--|-9-9-9-9-9-9-9-0--|-9-9-9-9-9-9-9-9--|-9-9-9-9-9-9-9-0-|
A|-7-7-7-7-7-7-7-9--|-9-9-9-9-9-9-9-0--|-7-7-7-7-7-7-7-9--|-9-9-9-9-9-9-9-0-|
E|---------------7--|-7-7-7-7-7-7-7-0--|---------------7--|-7-7-7-7-7-7-7-0-|
   1 + 2 + 3 + 4 +    1 + 2 + 3 + 4 +    1 + 2 + 3 + 4 +    1 + 2 + 3 + 4 +

							Interlude-----|
							Just Guitar Two
e|------------------|------------------||------------------|-----------------|
B|------------------|------------------||------------------|-----------------|
G|-9-9-9-9-9-9-9----|---------------0--||------------------|-----------------|
D|-9-9-9-9-9-9-9-9--|-9-9-9-9-9-9-9-0--||-4---4-4-4-4-4-X--|-X-4-4-4-4-4-4-4-|
A|-7-7-7-7-7-7-7-9--|-9-9-9-9-9-9-9-0--||-4---4-2-2-4-4-X--|-X-4-4-2-2-4-4-2-|
E|---------------7--|-7-7-7-7-7-7-7-0--||-2---2-2-2-2-2-X--|-X-2-2-2-2-2-2-2-|
   1 + 2 + 3 + 4 +    1 + 2 + 3 + 4 +     1 + 2 + 3 + 4 +    1 + 2 + 3 +4

e|------------------|------------------||
B|------------------|------------------||
G|------------------|------------------||
D|-4---4-4-4-4-4-X--|-X-4-4-4-4-4-4-4--||
A|-4---4-2-2-4-4-X--|-X-4-4-2-2-4-4-4--||
E|-2---2-2-2-2-2-X--|-X-2-2-2-2-2-2-2--||
   1 + 2 + 3 + 4 +    1 + 2 + 3 + 4 +

Guitar One


e|-----------------------------------11------------|
B|12-12-12----12-12----------12----12----12--------|
G|---------11-------11-11-11----11----------11~----|
D|-------------------------------------------------|
A|-------------------------------------------------|
E|-------------------------------------------------|

e|--------------------------------------11-----------------------------------|
B|-12-12-12-----12-12----------12----12----12-----14-14-14----14-14----14-14-|
G|----------11--------11-11-11----11----------11~----------11-------11-------|
D|---------------------------------------------------------------------------|
A|---------------------------------------------------------------------------|
E|---------------------------------------------------------------------------|

e|--------------------------------------11----------------------------------|
B|-12-12-12-----12-12----------12----12----12------12-12-12----12-12-12-----|
G|----------11--------11-11-11----11----------11~-----------11----------11--|
D|--------------------------------------------------------------------------|
A|--------------------------------------------------------------------------|
E|--------------------------------------------------------------------------|

e--------------------------------------|
b------12--------12----------12--------|
g--9-9----9-9-8----------11----11------|
d-------------------9-9-9--9-----9-----|
a--------------------------------------|
e--------------------------------------|

E------12--------12----------12--------|
B--9-9----9-9-8----------11----11------|
G-------------------9-9-9--9-----9-----|
D--------------------------------------|
A--------------------------------------|
E--------------------------------------|


E------12--------12----------12-----------|
B--9-9----9-9-8----------11----11----11~~-|
G-------------------9-9-9--9-----9---11~~-|
D-----------------------------------------|
A-----------------------------------------|
E-----------------------------------------|

-----------------------------------------------------------------------|
Verse - 4 times

e|------------------|------------------||
B|------------------|------------------||
G|-------4-4--------|-------4-4--------||
D|-4---4-4-4-4-4-X--|-X-4-4-4-4-4-4-4--||
A|-4---4-2-2-4-4-X--|-X-4-4-2-2-4-4-4--||
E|-2---2-----2-2-X--|-X-2-2-----2-2-2--||
   1 + 2 + 3 + 4 +    1 + 2 + 3 + 4 +

-----------------------------------------------------------------------|
Interlude


e|------------------|------------------|------------------|-----------------|
B|------------------|------------------|------------------|-----------------|
G|-------9-9--------|-------9-9--------|-------9-9--------|-------9-9-------|
D|-9---9-9-9-9-9-X--|-X-9-9-9-9-9-9-7--|-9---9-9-9-9-9-X--|-X-9-9-9-9-9-9-7-|
A|-9---9-7-7-9-9-X--|-X-9-9-7-7-9-9-7--|-9---9-7-7-9-9-X--|-X-9-9-7-7-9-9-7-|
E|-7---7-----7-7-X--|-X-7-7-----7-7-5--|-7---7-----7-7-X--|-X-7-7-----7-7-5-|
   1 + 2 + 3 + 4 +    1 + 2 + 3 + 4 +    1 + 2 + 3 + 4 +    1 + 2 + 3 + 4 +


-----------------------------------------------------------------------|
Chorus - Doubled from bar 4

asdfdsadsdfdsd+

e|------------------|------------------|------------------|------------------||
B|------------------|------------------|------------------|------------------||
G|-------9-9--------|-------9-9--------|-------9-9--------|------------------||
D|-9---9-9-9-9-9-X--|-X-9-9-9-9-9-9-7--|-9---9-9-9-9-9-0--|-4-4-4-4-4-4-4-4--||
A|-9---9-7-7-9-9-X--|-X-9-9-7-7-9-9-7--|-9---9-7-7-9-9-0--|-4-4-4-4-4-4-4-4--||
E|-7---7-----7-7-X--|-X-7-7-----7-7-5--|-7---7-----7-7-0--|-2-2-2-2-2-2-2-2--||
   1 + 2 + 3 + 4 +    1 + 2 + 3 + 4 +    1 + 2 + 3 + 4 +    1 + 2 + 3 + 4 +


-----------------------------------------------------------------------|
Outro

Guitar One and Two

e|------------------|------------------|------------------|------------------||
B|------------------|------------------|------------------|------------------||
G|-------9-9--------|-------9-9--------|-------9-9--------|------------------||
D|-9---9-9-9-9-9-X--|-X-9-9-9-9-9-9-7--|-9---9-9-9-9-9-0--|-4-4-4-4-4-4-4///-||
A|-9---9-7-7-9-9-X--|-X-9-9-7-7-9-9-7--|-9---9-7-7-9-9-0--|-4-4-4-4-4-4-4///-||
E|-7---7-----7-7-X--|-X-7-7-----7-7-5--|-7---7-----7-7-0--|-2-2-2-2-2-2-2///-||
   1 + 2 + 3 + 4 +    1 + 2 + 3 + 4 +    1 + 2 + 3 + 4 +    1 + 2 + 3 + 4 +

e|------------------|------------------|------------------|------------------||
B|------------------|------------------|------------------|------------------||
G|-------9-9--------|-------9-9--------|-------9-9--------|------------------||
D|-9---9-9-9-9-9-X--|-X-9-9-9-9-9-9-7--|-9---9-9-9-9-9-0--|-4-4-4-4-4-4-4-4--||
A|-9---9-7-7-9-9-X--|-X-9-9-7-7-9-9-7--|-9---9-7-7-9-9-0--|-4-4-4-4-4-4-4-4--||
E|-7---7-----7-7-X--|-X-7-7-----7-7-5--|-7---7-----7-7-0--|-2-2-2-2-2-2-2-2--||
   1 + 2 + 3 + 4 +    1 + 2 + 3 + 4 +    1 + 2 + 3 + 4 +    1 + 2 + 3 + 4 +

Guitar Three

e|-7-7-7---7-7------|---7---7-11-7-----|-7-7-7---7-7-7----|-9-9---9-9---9----||
B|-------7-----7-7--|-7---7--------7~~-|-------7-------7--|-----7-----7---7--||
G|------------------|------------------|------------------|------------------||
D|------------------|------------------|------------------|------------------||
A|------------------|------------------|------------------|------------------||
E|------------------|------------------|------------------|------------------||
   1 + 2 + 3 + 4 +    1 + 2 + 3 + 4 +    1 + 2 + 3 + 4 +    1 + 2 + 3 + 4 +

e|-7-7-7---7-7------|---7---7-11-7-----|-7-7-7---7-7-7----|-9-9---9-9---9----||
B|-------7-----7-7--|-7---7--------7~~-|-------7-------7--|-----7-----7---7--||
G|------------------|------------------|------------------|------------------||
D|------------------|------------------|------------------|------------------||
A|------------------|------------------|------------------|------------------||
E|------------------|------------------|------------------|------------------||
   1 + 2 + 3 + 4 +    1 + 2 + 3 + 4 +    1 + 2 + 3 + 4 +    1 + 2 + 3 + 4 +

End on

Guitars One and Two

e|------------------||
B|------------------||
G|------------------||
D|-9----------------||
A|-9----------------||
E|-7----------------||
   1 + 2 + 3 + 4 +

Guitar Three

e|-7----------------||
B|------------------||
G|------------------||
D|------------------||
A|------------------||
E|------------------||
   1 + 2 + 3 + 4 +

                                             iViva L a Gloria!

Capo on 4th fret

Intro:
C - Em - F - C

C          Em
  Hey Gloria
        F                     G         C
Are you standing close to the edge?
               Em              F
Lookout to the setting sun
                  G          C
The brink of your vision
        Em
Eternal youth is
  F                G         C
A landscape of the lie
                 Em               F
The cracks of my skin can prove
                  G          C
As the years will testify
                     Em           F
Say your prayers and light a fire
                       G     C
We're going to start a war
               Em            F
Your slogans a gun for hire
             G               C
It's what we waited for
         Em
Hey Gloria,
        F                G      C
This is why we're on the edge
                 Em
The fight of our lives been drawn to
     F       C
This undying love.


Chorus:  “Gloria…”
|--------------------------------------------------------------------------------|
|--------------------------------------------------------------------------------|
|-9-9-9-9-9—9-9-9----------------------------6-6-6-6-6-6-6-6---------------------|
|-9-9-9-9-9-9-9-9-------6-6-6-6-6-6-6-6------6-6-6-6-6-6-6-6-----7-7-7-7-7-7-7-7-|
|-7-7-7-7-7-7-7-7-------6-6-6-6-6-6-6-6------4-4-4-4-4-4-4-4-----7-7-7-7-7-7-7-7-|
|-----------------------4-4-4-4-4-4-4-4--------------------------5-5-5-5-5-5-5-5-|

----------------------------------------------------------------------------------|
----------------------------------------------------------------------------------|
----------------------------4-4--6-6—6-6------------------------------------------|
7-7-7-7-7-7-7-7-7-7-7--2-2--4-4--6-6-6-6---7-7-7-7-7-7-7-7-7---9-9-9-9-9-9-9-9-9--|
7-7-7-7-7-7-7-7-7-7-7--2-2--2-2--4-4-4-4---7-7-7-7-7-7-7-7-7---9-9-9-9-9-9-9-9-9--|
5-5-5-5-5-5-5-5-5-5-5--0-0-----------------5-5-5-5-5-5-5-5-5---7-7-7-7-7-7-7-7-7--|

(2X)

Verse:
|--------------------------------------------------------|
|--------------------------------------------------------|
|------------------------------6-6-6-6-6-6-6-6-6-6-6-6---|
|--2-2-2-2-2-2---6-6-6-6-6-6---6-6-6-6-6-6-6-6-6-6-6-6---|
|--2-2-2-2-2-2---6-6-6-6-6-6---4-4-4-4-4-4-4-4-4-4-4-4---|
|--0-0-0-0-0-0---4-4-4-4-4-4-----------------------------|

----------------------------------------------------------|
----------------------------------------------------------|
------------------------------4-4-4-4-4-4-4-4-4-4-4-4-----|
------------------------------4-4-4-4-4-4-4-4-4-4-4-4-----|
--7-7-7-7-7-7---2-2-2-2-2-2---2-2-2-2-2-2-2-2-2-2-2-2-----|
--5-5-5-5-5-5---0-0-0-0-0-0-------------------------------|    (2x)


Brigde:
|----------------------------------|
|----------------------------------|
|----------------------------------|
|---7-7-7~~9-9-9-9-9-9-9-9-9-------|
|---7-7-7~~9-9-9-9-9-9-9-9-9-------|
|---5-5-5~~7-7-7-7-7-7-7-7-7-------|


Chorus:   “Gloria…”
|--------------------------------------------------------------------------------|
|--------------------------------------------------------------------------------|
|-9-9-9-9-9—9-9-9----------------------------6-6-6-6-6-6-6-6---------------------|
|-9-9-9-9-9-9-9-9-------6-6-6-6-6-6-6-6------6-6-6-6-6-6-6-6-----7-7-7-7-7-7-7-7-|
|-7-7-7-7-7-7-7-7-------6-6-6-6-6-6-6-6------4-4-4-4-4-4-4-4-----7-7-7-7-7-7-7-7-|
|-----------------------4-4-4-4-4-4-4-4--------------------------5-5-5-5-5-5-5-5-|


----------------------------------------------------------------------------------|
----------------------------------------------------------------------------------|
----------------------------4-4--6-6—6-6------------------------------------------|
7-7-7-7-7-7-7-7-7-7-7--2-2--4-4--6-6-6-6---7-7-7-7-7-7-7-7-7---9-9-9-9-9-9-9-9-9--|
7-7-7-7-7-7-7-7-7-7-7--2-2--2-2--4-4-4-4---7-7-7-7-7-7-7-7-7---9-9-9-9-9-9-9-9-9--|
5-5-5-5-5-5-5-5-5-5-5--0-0-----------------5-5-5-5-5-5-5-5-5---7-7-7-7-7-7-7-7-7--|

(2X)


Outro:
|-------------------------------------------|-------------------|
|-------------------------------------------|-------------------|
|-------------------------------------------|-------------------|
|--7---2---7---2---7---2---9-9-9------------|---14-14-14-14-----|
|--7---2---7---2---7---2---9-9-9------------|---14-14-14-14-----|
|--5---0---5---0---5---0---7-7-7----- (2x)  |---12-12-12-12-----|


                                                  Before the lobotomy

Intro x5
eb|-----------------------------------------0---------------0-----------------|
Bb|---------3---------------3-------------3---3-----------3---3---------------|
Gb|-------0---0-----------0---0---------2-------2-------2-------2-------------|
Db|-----0-------0-------0-------0-----0-----------0---0-----------0-----------|
Ab|---2-----------2---2-----------2-------------------------------------------|
Eb|-3---------------3---------------2---------------2-------------------------|

                                    Last time, just strum this at the end:
eb|---------0---------------0---------------0-----------------------|---------|
Bb|-------3---3-----------3---3-----------1---1---------4-----4-----|--4------|
Gb|-----2-------2-------2-------2-------0-------0---------5-----5---|--5------|
Db|---0-----------0---0-----------0---2-----------2---5-----------5-|--5------|
Ab|---------------------------------3---------------6-------6-------|--6------|
Eb|-1---------------1-----------------------------------------------|---------|

Pre-Verse
eb|---------------------------------------------------------------------------|
Bb|---------------------------------------------------------------------------|
Gb|-7-------------------------------------------------------------------------|
Db|-7-5-7---------------------------------------------------------------------|
Ab|-5-5-7---------------------------------------------------------------------|
Eb|---3-5---------------------------------------------------------------------|

Verse x4
eb|---------------------------------------------------------------------------|
Bb|-77-1010-88-77-------------------------------------------------------------|
Gb|-77--9-9-77-77--7----------7-----------------------------------------------|
Db|----------------7-5-7--5-7-7-----------------------------------------------|
Ab|----------------5-5-7--5-7-5-----------------------------------------------|
Eb|------------------3-5--3-5-------------------------------------------------|

Chorus x8
eb|---------------------------------------------------------------------------|
Bb|---------------------------------------------------------------------------|
Gb|---7-----------------------------------------------------------------------|
Db|-5-7-7---------------------------------------------------------------------|
Ab|-5-5-7---------------------------------------------------------------------|
Eb|-3---5---------------------------------------------------------------------|

Second verse, same as the first, except for the fourth time you play it
you don't play anything during "Whiskey shots and cheap cigarettes"
eb|-xxxxxx--------------------------------------------------------------------|
Bb|-xxxxxx--------------------------------------------------------------------|
Gb|-xxxxxx--7----------7------------------------------------------------------|
Db|-xxxxxx--7-5-7--5-7-7------------------------------------------------------|
Ab|-xxxxxx--5-5-7--5-7-5------------------------------------------------------|
Eb|-xxxxxx----3-5--3-5--------------------------------------------------------|

Chorus same again, but the 8th time you end with
eb|---------------------------------------------------------------------------|
Bb|---------------------------------------------------------------------------|
Gb|---7-----------------------------------------------------------------------|
Db|-5-7-----------------------------------------------------------------------|
Ab|-5-5-77777777777777--------------------------------------------------------|
Eb|-3---55555555555555--------------------------------------------------------|

Bridge
eb|-------------------------|-------------------------------------------------------|
Bb|-------------------------|-------------------------------------------------------|
Gb|-7-7-777-----------------|-5-5-555------------8-8-888-----------7777777777777777-|
Db|-7-7-777-7-77-7777--(x4)-|-5-5-555-5-55-5555--8-8-888-8-88-8888-7777777777777777-|
Ab|-5-5-555-7-77-7777-------|-3-3-333-5-55-5555--6-6-666-8-88-8888-5555555555555555-|
Eb|---------5-55-5555-------|---------3-33-3333----------6-66-6666------------------|

Guitar 1
eb|-------------------------------10\-----------------------------------------|
Bb|------------7h8-10--9h10-13-10---------------------------------------------|
Gb|-7--7h9-11-----------------------------------------------------------------|
Db|---------------------------------------------------------------------------|
Ab|---------------------------------------------------------------------------|
Eb|---------------------------------------------------------------------------|

Guitar 2 slowly release palm mute
eb|---------------------------------------------------------------------------|
Bb|---------------------------------------------------------------------------|
Gb|-7777777777777777----------------------------------------------------------|
Db|-7777777777777777----------------------------------------------------------|
Ab|-5555555555555555----------------------------------------------------------|
Eb|---------------------------------------------------------------------------|
    ........

Outro  There's a second guitar that plays the intro under this

Guitar 1 x3
eb|---------------------------------------------------------------------------|
Bb|---------------------------------------------------------------------------|
Gb|----------------------------------------------------5555555-88888888-------|
Db|-5555555555555555-4444444444444444-3333333333333333-5555555-88888888-------|
Ab|-5555555555555555-5555555555555555-3333333333333333-3333333-66666666-------|
Eb|-3333333333333333-2222222222222222-1111111111111111------------------------|

eb|---------------------------------------------------------------------------|
Bb|---------------------------------------------------------------------------|
Gb|---------------------------------------------------------------------------|
Db|-5555555555555555-4444444444444444-3333333333333333------------------------|
Ab|-5555555555555555-5555555555555555-3333333333333333------------------------|
Eb|-3333333333333333-2222222222222222-1111111111111111------------------------|

End with this at "in the underground"
eb|---------------------------------------------------------------------------|
Bb|-5~----4~------------------------------------------------------------------|
Gb|-5~----5~------------------------------------------------------------------|
Db|-5~----5~------------------------------------------------------------------|
Ab|---------------------------------------------------------------------------|
Eb|---------------------------------------------------------------------------|


| /  slide up
| \  slide down
| h  hammer-on
| p  pull-off
| ~  vibrato
| +  harmonic
| x  Mute note

                                                     Christian's Inferno


e|------------------------------------------------------------------|
 B|-----------------------------------------------------------------|
 G|-----------------------------------------------------------------|
 D|-----------------------------------------------------------------|
 A|--------------10-10-10-10-10-10-10-------------------------------|
 E|7-7-7-7-7-7-7----------------------8-8-8-8-8-8-8-7-7-7-7-7-7-7---|

Pre-Chorus: when the Guitar comes in (...like a flood!!)

 e|-------|
 B|-------|
 G|-------|
 D|---7---| X7
 A|---7---|
 E|---5---|

Chorus: Each Chord played 7 times


 e|--------------------------|
 B|--------------------------|
 G|--7-----------7-----------|
 D|--7-----7-----7-----5-----| Repeat this 4 times
 A|--5-----7-----5-----5-----|
 E|--------5-----------3-----|

Pre-verse: Each chord played 7 times


 e|------------------------|
 B|------------------------|
 G|--------12--------------|
 D|--9-----12-----10----5--| Play this twice
 A|--9-----10-----10----5--|
 E|--7------------8-----7--|


Play the Pre-Chorus and the Chorus,and the Pre-verse

Bridge(During Solo):

before you play this do a slide from the 12th fret on the thick E string


 e|------------------------------------------------------------------|
 B|------------------------------------------------------------------|
 G|-----------------9-9-9-9-9-9-9-----------10-10-10-10--------------|
 D|--9-9-9-9-9-9-9--9-9-9-9-9-9-9-10-10-10--10-10-10-10-9-9-9-9-9-9-9| 4X
 A|--9-9-9-9-9-9-9--7-7-7-7-7-7-7-10-10-10--8--8--8--8--9-9-9-9-9-9-9|
 E|--7-7-7-7-7-7-7----------------8--8--8---------------7-7-7-7-7-7-7|

Play Chorus =)

Outro:

 e|------------------------|
 B|------------------------|
 G|--12-------10-----------|
 D|--12(4X)---10(4x)-------| Play this 4 times
 A|--10-------8------------|
 E|------------------------|

Then:

 e|------------------------|
 B|------------------------|
 G|--12-----10-------------|
 D|--12(2X)-10(2X)---------| Play Twice
 A|--10-----8--------------|
 E|------------------------|

Then End on:


 e|------|
 B|------|
 G|------|
 D|--9---|
 A|--9---| Play once *with delay effect if you will =)*
 E|--7---|

                                                 last night on earth

Intro: A  A5+ A6  A7  D  Dm  A

A        A5+               A6
I text a postcard, sent to you
             A7
Did it go through?
D       Dm              A
Sending all my love to you
A            A5+             A6
You are the moonlight of my life
       A7
Every night
D      Dm              A
Giving all my love to you

D          Dm                A
My beating heart belongs to you
D            Dm                  A
I walked for miles 'til I found you
D           Dm
I'm here to honor you
A    A7/G F#m  F#m/E         D
If I lose everything in the fire
            Dm              A
I'm sending all my love to you


A  A5+ A6  A7  D  Dm  A


A           A5+              A6
With every breath that I am worth
         A7
Here on Earth
D           Dm              A
I'm sending all my love to you
A         A5+              A6
So if you dare to second guess
         A7
You can rest
D            Dm                 A
Assured that all my love's for you

D          Dm               A
My beating heart belongs to you
D            Dm                  A
I walked for miles 'til I found you
D           Dm
I'm here to honor you
A    A7/G F#m  F#m/E         D
If I lose everything in the fire
            Dm              A
I'm sending all my love to you

A  A5+ A6  A7  D  Dm  A

D          Dm               A
My beating heart belongs to you
D            Dm                  A
I walked for miles 'til I found you
D           Dm
I'm here to honor you
A    A7/G F#m  F#m/E         D
If I lose everything in the fire
      Dm              A
Did I ever make it through?


                                           East jesus nowhere

Intro - Gtr. 1
e|---------|-----------|
B|---------|-----------|
G|9-12-9-7-|9-x-xx-xx-x|
D|9-12-9-7-|9-x-xx-xx-x| x3
A|7-10-7-5-|7-x-xx-xx-x|
E|---------|-----------|

e|---------|-----------|
B|---------|-----------|
G|9-12-9-7-|9\---------|
D|9-12-9-7-|9\---------|
A|7-10-7-5-|7\---------|
E|---------|-----------|

Both Guitars now
e|---------|-----------|
B|---------|-----------|
G|9-12-9-7-|9-x-xx-xx-x|
D|9-12-9-7-|9-x-xx-xx-x| x3
A|7-10-7-5-|7-x-xx-xx-x|
E|---------|-----------|

e|---------|-----------|
B|---------|-----------|
G|9-12-9-7-|9\---7-----|
D|9-12-9-7-|9\---7--7--|
A|7-10-7-5-|7\---5--7--|
E|---------|--------5--|

Verse
e|-----------|-----------|
B|-----------|-----------|
G|9-x-xx-xx-x|x-xx-x-7---|
D|9-x-xx-xx-x|x-xx-x-7-7-| x4
A|7-x-xx-xx-x|x-xx-x-5-7-|
E|-----------|---------5-|
Raise your hands now to testify
Your confession will be crucified
You're a sacrificial suicide
Like a dog thats been sodomized

e|---------|-----------|
B|---------|-----------|
G|9-12-9-7-|9-x-xx-xx-x|
D|9-12-9-7-|9-x-xx-xx-x| x3
A|7-10-7-5-|7-x-xx-xx-x|
E|---------|-----------|
 Stand up!   all the white boys
 Stand down! and the black girls
 Stand up!   you're the soldiers

e|---------|-----------|
B|---------|-----------|
G|9-12-9-7-|9\---7-----|
D|9-12-9-7-|9\---7--7--|
A|7-10-7-5-|7\---5--7--|
E|---------|--------5--|
  Stand down! of the new world!

e|--------|--------|
B|--------|--------|
G|--------|----77--|
D|99999999|99997777| x3
A|99999999|99995577|
E|77777777|7777--55|
Put your faith in a miracle
And it's non-demoninational
Join the choir we'll be singing here

e|--------|--------|
B|--------|--------|
G|--------|77777777|
D|99999999|77777777|
A|99999999|55555555|
E|77777777|--------|
In the church of wishful thinking!

Chorus - Both guitars
e|--------|--------|--------|------------|
B|--------|--------|--------|------------|
G|--------|--------|--------|------------|
D|22222222|55555555|77777777|101010109999| x2
A|22222222|55555555|77777777|101010109999|
E|00000000|33333333|55555555|8-8-8-8-7777|
  A fire burns today, of blasphemy and genocide
  The sirens of decay, will infiltrate the faith fanatics

Post chorus
e|---------|-----------|---------|-----------|
B|---------|-----------|---------|-----------|
G|9-12-9-7-|9-x-xx-xx-x|9-12-9-7-|9-x-xx-xx-x|
D|9-12-9-7-|9-x-xx-xx-x|9-12-9-7-|9-x-xx-xx-x|
A|7-10-7-5-|7-x-xx-xx-x|7-10-7-5-|7-x-xx-xx-x|
E|---------|-----------|---------|-----------|
 |
e|---------|-----------|---------|-----------|
B|---------|-----------|---------|-----------|
G|9------13|16------19-|17-----14|13---------|
D|x------x-|x-------x--|x------x-|x----------|
A|7------11|14------17-|15-----12|11---------|
E|---------|-----------|---------|-----------|

e|---------|-----------|---------|-----------|
B|---------|-----------|---------|-----------|
G|9-12-9-7-|9-x-xx-xx-x|9-12-9-7-|9------7---|
D|9-12-9-7-|9-x-xx-xx-x|9-12-9-7-|9------7-7-|
A|7-10-7-5-|7-x-xx-xx-x|7-10-7-5-|7------5-7-|
E|---------|-----------|---------|---------5-|
 |
e|---------|-----------|---------|-----------|
B|---------|-----------|---------|-----------|
G|9------13|16------19-|17-----14|13---------|
D|x------x-|x-------x--|x------x-|x----------|
A|7------11|14------17-|15-----12|11---------|
E|---------|-----------|---------|-----------|


Verse (this part of the song is all on bass but i tabbed it out to guitar just for
who wants to learn it)
e|--------|--------|--------|--------|
B|--------|--------|--------|--------|
G|--------|--------|--------|--------|
D|--------|--------|------00|------00| x2
A|--------|--------|2-2-22--|2-2-22--|
E|0-0-0000|3-3-3333|--------|--------|
  Oh bless me lord for i have sinned
  It's been a lifetime since i last confessed

e|--------|--------|--------|--------|
B|--------|--------|--------|--------|
G|--------|--------|--------|--------|
D|2-2-2222|--------|------00|------00|
A|--------|--------|2-2-22--|2-2-22--|
E|--------|3-3-3333|--------|--------|
  I threw my crutches in the river of the shadow of doubt

e|--------|--------|--------|--------|
B|--------|--------|--------|--------|
G|--------|--------|--------|----7---|
D|--------|--------|------00|----7-7-|
A|--------|--------|2-2-22--|2---5-7-|
E|0-0-0000|3-3-3333|--------|------5-|
  And I'll be dressed up in my sunday best

e|-----------|----------|
B|-----------|----------|
G|-----------|------7---|
D|9-x-xx-xx-x|x-xx-x7-7-| x3
A|9-x-xx-xx-x|x-xx-x5-7-|
E|7-x-xx-xx-x|x-xx-x--5-|
  Say a prayer for the family
  Drop a coin for humanity
  Ain't this uniform so flattering?

e|--------|--------|
B|--------|--------|
G|--------|77777777|
D|99999999|77777777|
A|99999999|55555555|
E|77777777|--------|
  I never asked you a god damned thing!


Chorus - Both guitars
e|--------|--------|--------|------------|
B|--------|--------|--------|------------|
G|--------|--------|--------|------------|
D|22222222|55555555|77777777|101010109999| x2
A|22222222|55555555|77777777|101010109999|
E|00000000|33333333|55555555|8-8-8-8-7777|
  A fire burns today, of blasphemy and genocide
  The sirens of decay, will infiltrate the faith fanatics


Post chorus
e|---------|-----------|---------|-----------|
B|---------|-----------|---------|-----------|
G|9-12-9-7-|9-x-xx-xx-x|9-12-9-7-|9-x-xx-xx-x|
D|9-12-9-7-|9-x-xx-xx-x|9-12-9-7-|9-x-xx-xx-x|
A|7-10-7-5-|7-x-xx-xx-x|7-10-7-5-|7-x-xx-xx-x|
E|---------|-----------|---------|-----------|
 |
e|---------|-----------|---------|-----------|
B|---------|-----------|---------|-----------|
G|9------13|16------19-|17-----14|13---------|
D|x------x-|x-------x--|x------x-|x----------|
A|7------11|14------17-|15-----12|11---------|
E|---------|-----------|---------|-----------|

e|---------|-----------|---------|-----------|
B|---------|-----------|---------|-----------|
G|9-12-9-7-|9-x-xx-xx-x|9-12-9-7-|9----------|
D|9-12-9-7-|9-x-xx-xx-x|9-12-9-7-|9----------|
A|7-10-7-5-|7-x-xx-xx-x|7-10-7-5-|7----------|
E|---------|-----------|---------|-----------|
 |
e|---------|-----------|---------|-----------|
B|---------|-----------|---------|-----------|
G|9------13|16------19-|17-----14|13---------|
D|x------x-|x-------x--|x------x-|x----------|
A|7------11|14------17-|15-----12|11---------|
E|---------|-----------|---------|-----------|


Bridge?
e|--------|--------|
B|--------|--------|
G|77777777|7-------|
D|77777777|7-------|
A|55555555|5-------|
E|--------|--------|
            Don't test me
            Second guess me
            Protest me

e|--------|--------|
B|--------|--------|
G|--9---9-|--9-7---|
D|--9---9-|--9-7-7-|
A|--7---7-|--7-5-7-|
E|--------|------5-|
  You will disappear


e|-----------|----------|
B|-----------|----------|
G|-----------|------7---|
D|9-x-xx-xx-x|x-xx-x7-7-| x3
A|9-x-xx-xx-x|x-xx-x5-7-|
E|7-x-xx-xx-x|x-xx-x--5-|
  I wanna know who's allowed to breed
  All the dogs who never learned to read
  Missionary poloticians

e|--------|--------|
B|--------|--------|
G|--------|77777777|
D|99999999|77777777|
A|99999999|55555555|
E|77777777|--------|
  And the cops of a new religion

Solo:
e|---------------------------------------|
B|5---5--7/8---8---10---10--12/13----12--|
G|--4--------7---7----9-----------12---11|
D|---------------------------------------|
A|---------------------------------------|
E|---------------------------------------|

e|12----12-14-10---10---12----12-14/15----14----12b| Let ring
B|---12----------9----9----12----------15----------|
G|-------------------------------------------------|
D|-------------------------------------------------|
A|-------------------------------------------------|
E|-------------------------------------------------|


while solo fades out guitar 2 plays this
e|---------|-----------|---------|-----------|
B|---------|-----------|---------|-----------|
G|9------13|16------19-|17-----14|13---------|
D|x------x-|x-------x--|x------x-|x----------| x4
A|7------11|14------17-|15-----12|11---------|
E|---------|-----------|---------|-----------|


e|--------|--------|---------|--------|
B|--------|--------|---------|--------|
G|9-------|16------|18-------|21--20--|
D|x-------|x-------|x--------|x---x---| x2
A|7-------|14------|16-------|19--18--|
E|--------|--------|---------|--------|
  A fire burns today, of blasphemy and genocide
  The sirens of decay, will infiltrate the inside

(Leave 2 bars silent and then this:)

e|---------|-----------|---------|-----------|
B|---------|-----------|---------|-----------|
G|9-12-9-7-|9-x-xx-xx-x|9-12-9-7-|9-x-xx-xx-x|
D|9-12-9-7-|9-x-xx-xx-x|9-12-9-7-|9-x-xx-xx-x|
A|7-10-7-5-|7-x-xx-xx-x|7-10-7-5-|7-x-xx-xx-x|
E|---------|-----------|---------|-----------|
 |
e|---------|-----------|---------|-----------|
B|---------|-----------|---------|-----------|
G|9------13|16------19-|17-----14|13---------|
D|x------x-|x-------x--|x------x-|x----------|
A|7------11|14------17-|15-----12|11---------|
E|---------|-----------|---------|-----------|

e|---------|-----------|---------|-----------|
B|---------|-----------|---------|-----------|
G|9-12-9-7-|9-x-xx-xx-x|9-12-9-7-|9------7---|
D|9-12-9-7-|9-x-xx-xx-x|9-12-9-7-|9------7-7-|
A|7-10-7-5-|7-x-xx-xx-x|7-10-7-5-|7------5-7-|
E|---------|-----------|---------|---------5-|
 |
e|---------|-----------|---------|-----------|
B|---------|-----------|---------|-----------|
G|9------13|16------19-|17-----14|13---------|
D|x------x-|x-------x--|x------x-|x----------|
A|7------11|14------17-|15-----12|11---------|
E|---------|-----------|---------|-----------|

e|--------|--------|
B|--------|--------|
G|9-------|9999----|
D|9(DRUMS)|9999----|
A|7-------|7777----|
E|--------|--------|


                                                peacemaker

Chords used

  Bm    F#m  E
e|-2-----2----------|
B|-3-----2----------|
G|-4-----3----------|
D|-4-----4----2-----|
A|-2-----4----2-----|
E|-------2----0-----|


Verse

(Bm)
Well, I've got a fever, a non-believer. I'm in a state of grace
                                         F#m
For I am the Caesar, I'm gonna seize the day

Well, call of the banshee hey hey. Hey hey hey hey hey
                                            Bm
As God as my witness the infidels are gonna pay

Well, call the assassin. The orgasm. A spasm of love and hate
                                               Bm
For what will divide us? The righteous and the meek

Well, call of the wild hey hey. Hey hey hey hey hey
                                    Bm
Death to the girl at the end of the serenade

Chorus

  F#m                            Bm
  Vendetta, sweet vendetta. This Beretta of the night

e|---------------------------------------------------------------------------|
B|---------------------------------------------------------------------------|
G|---------------------------------------------------------------------------|
D|---------------------------------------------------------------------------|
A|------------------------------2~-------5------2~---------------------------|
E|-2~--------------3-2~------2-----------------------------------------------|

  E                 Bm      F#m                         Bm
  This fire and the desire. Shots ringing out on a holy parasite
e|---------------------------------------------------------------------------|
B|---------------------------------------------------------------------------|
G|---------------------------------------------------------------------------|
D|--------------------------------------------0------------------------------|
A|-5-----------------------------------------------0---2~--------------------|
E|---0~------------3-2~-----3-2~----------2----------------------------------|

Verse 2
I am a killjoy from Detroit. I drink from a well of rage
                                    F#m
I feed off the weakness with all my love

Call up the captain hey hey. Hey hey hey hey hey
                                          Bm
Death to the lover that you were dreaming of

This is a stand off, a Molotov cocktail On the house
                                                F#m
You thought I was a write off. You better think again

Call the peacemaker hey hey. Hey hey hey hey hey
                                                  Bm
I'm gonna send you back to the place where it all began


Chorus

  F#m                            Bm
  Vendetta, sweet vendetta. This Beretta of the night

e|---------------------------------------------------------------------------|
B|---------------------------------------------------------------------------|
G|---------------------------------------------------------------------------|
D|---------------------------------------------------------------------------|
A|------------------------------2~-------5------2~---------------------------|
E|-2~--------------3-2~------2-----------------------------------------------|

  E                 Bm      F#m                         Bm
  This fire and the desire. Shots ringing out on a holy parasite
e|---------------------------------------------------------------------------|
B|---------------------------------------------------------------------------|
G|---------------------------------------------------------------------------|
D|--------------------------------------------0------------------------------|
A|-5-----------------------------------------------0---2~--------------------|
E|---0~------------3-2~-----3-2~----------2----------------------------------|

Solo

Guitar 1
e|-------------------------------------------------------------------------------|
B|--------------11-9-11-9-11-9-11----9-11-9-11-9-11-------9-12-11-12-11-12-11----|
G|-4---3---4----------------------11----------------11-11---------------------11-|
D|-------------------------------------------------------------------------------|
A|-------------------------------------------------------------------------------|
E|-------------------------------------------------------------------------------|

Guitar 2        F#m                                         Bm

e|-------------------------------------------------------------------------------|
B|----11-12-11-12-11-12-11-------11-12-11-12-14-15-14-12-11-12-11-12-11-12-11----|
G|-11----------------------11-11----------------------------------------------11-|
D|-------------------------------------------------------------------------------|
A|-------------------------------------------------------------------------------|
E|-------------------------------------------------------------------------------|

                                 E                          Bm

e|---------------------------------------------------------------------------|
B|----9-11-9-11-9-11-9-------12--15-11---------------------------------------|
G|-11------------------11-11-------------------------------------------------|
D|---------------------------------------------------------------------------|
A|---------------------------------------------------------------------------|
E|---------------------------------------------------------------------------|

      F#m                    Bm


Verse 3 A second guitar just strikes the chords throughout the verse

(Bm)
Well now the caretaker's the undertaker. Now I'm gonna go out and get the peacemaker
                               F#m
This is the neo St. Valentines Massacre. Well call up the Gaza hey hey. hey hey hey hey hey
                                    Bm
Death to the ones at the end of the serenade
      F#m                                 Bm
Well, death to the ones at the end of the serenade
      F#m                                 Bm
Well, death to the ones at the end of the serenade
      F#m (stop)                                   Bm        (stop) Bm
Well, death to the ones at the end of the sere-----nade


| /  slide up
| \  slide down
| h  hammer-on
| p  pull-off
| ~  vibrato
| +  harmonic
| x  Mute note


                                           last of the american girls


Starts on "She wears her overcoat"
e|---------------------------------------------------------------------------|
B|---------------------------------------------------------------------------|
G|---------------------------------------------------------------------------|
D|---------------------------------------------------------------------------|
A|-------------------7777777-7-66-77-99--------------------------------------|
E|-7777777777777777----------------------777777777777777--2222222222222222---|

Chorus

Guitar 1
e|---------------------------------------------------------------------------|
B|---------------------------88888888----------------------------------------|
G|-------------------9999999999999999----------------------------------------|
D|-9999999999999999--9999999999999999--99999999--444-------------------------|
A|-9999999999999999--7777777777777777--99999999--444-------------------------|
E|-7777777777777777--------------------77777777--222-------------------------|

Guitar 2
e|---------------------------------------------------------------------------|
B|---------------------------------------------------------------------------|
G|-1616161616161616-1414141414141414-13131313-161616--13-1212121212121212----|
D|--x-x-x-x-x-x-x-x--x-x-x-x-x-x-x-x--x-x-x-x--x-x-x--x--x-x-x-x-x-x-x-x-----|
A|-1414141414141414-1212121212121212-11111111-141414--11-1010101010101010----|
E|---------------------------------------------------------------------------|

e|---------------------------------------------------------------------------|
B|---------------------------------------------------------------------------|
G|-1616161616161616-111111---------------------------------------------------|
D|--x-x-x-x-x-x-x-x-x-x-x----------------------------------------------------|
A|-1414141414141414-9-9-9----------------------------------------------------|
E|---------------------------------------------------------------------------|


Pre-Verse x4

Guitar 1
e|---------------------------------------------------------------------------|
B|---------------------------------------------------------------------------|
G|------9999-----------------------------------------------------------------|
D|-9999-9999-----------------------------------------------------------------|
A|-9999-7777-----------------------------------------------------------------|
E|-7777----------------------------------------------------------------------|

Guitar 2
e|---------------------------------------------------------------------------|
B|----7---9-7----------------------------------------------------------------|
G|-88---8--------------------------------------------------------------------|
D|---------------------------------------------------------------------------|
A|---------------------------------------------------------------------------|
E|---------------------------------------------------------------------------|


Verse 2 x2

Guitar 1
e|-----------------------------------------------------------------------------|
B|-----------------------------------------------------------------------------|
G|-----------------------------------------------------------------------------|
D|-------------------99999999-9-88-99-1111-------------------------------------|
A|-9999999999999999--77777777-7-66-77--9-9--9999999999999999--4444444444444444-|
E|-7777777777777777-------------------------7777777777777777--2222222222222222-|

Guitar 2
e|--22--22--22--22------------------22--22--22--22--66--66--66--66-----------|
B|--44--44--44--44--55--55--55--55--44--44--44--44--77--77--77--77-----------|
G|--44--44--44--44--44--44--44--44--44--44--44--44--66--66--66--66-----------|
D|--44--44--44--44--22--22--22--22--44--44--44--44---------------------------|
A|---------------------------------------------------------------------------|
E|---------------------------------------------------------------------------|


Chorus

Pre-verse x4


Solo x2

Guitar 1
e|-----------------------------------------------------------------------------|
B|-----------------------------------------------------------------------------|
G|----------------------------9-88-99-1111-------------------------------------|
D|-------------------99999999-x-xx-xx--x-x-------------------------------------|
A|-9999999999999999--77777777-7-66-77--9-9--9999999999999999--4444444444444444-|
E|-7777777777777777-------------------------7777777777777777--2222222222222222-|

Guitar 2
e|---------------------------------------------------------------------------|
B|---------4-5-4-------------4-5-4----------9-10-9------------9-10-9---------|
G|-----4---------4-------4---------4-----9---------9------9----------9-------|
D|---4---4-------------4---4-----------9--9-------------9---9----------------|
A|-2-----------------2---------------7----------------7----------------------|
E|---------------------------------------------------------------------------|

e|---------------------------------------------------------------------------|
B|---------4-5-4------------4-5-4--------------------------------------------|
G|-----4---------4------4---------4-----3---b4-3----3---b4-------------------|
D|---4---4------------4---4-----------4---4-------4---4----4-----------------|
A|-2----------------2--------------------------------------------------------|
E|---------------------------------------------------------------------------|


Chorus

Guitar 1
e|---------------------------------------------------------------------------|
B|---------------------------88888888----------------------------------------|
G|-------------------9999999999999999----------------------------------------|
D|-9999999999999999--9999999999999999--9999999999999999--4444444444444444----|
A|-9999999999999999--7777777777777777--9999999999999999--4444444444444444----|
E|-7777777777777777--------------------7777777777777777--2222222222222222----|

e|---------------------------------------------------------------------------|
B|---------------------------88888888----------------------------------------|
G|-------------------9999999999999999----------------------------------------|
D|-9999999999999999--9999999999999999--99999999--444-------------------------|
A|-9999999999999999--7777777777777777--99999999--444-------------------------|
E|-7777777777777777--------------------77777777--222-------------------------|


Guitar 2
e|---------------------------------------------------------------------------|
B|---------------------------------------------------------------------------|
G|-1616161616161616-1414141414141414-13131313-161616--13-1212121212121212----|
D|--x-x-x-x-x-x-x-x--x-x-x-x-x-x-x-x--x-x-x-x--x-x-x--x--x-x-x-x-x-x-x-x-----|
A|-1414141414141414-1212121212121212-11111111-141414--11-1010101010101010----|
E|---------------------------------------------------------------------------|

e|---------------------------------------------------------------------------|
B|---------------------------------------------------------------------------|
G|-1616161616161616-1414141414141414-1111111111111111-1515151515151515-------|
D|--x-x-x-x-x-x-x-x--x-x-x-x-x-x-x-x-x-x-x-x-x-x-x-x--x-x-x-x-x-x-x-x--------|
A|-1414141414141414-1212121212121212-9-9-9-9-9-9-9-9--1313131313131313-------|
E|---------------------------------------------------------------------------|

e|---------------------------------------------------------------------------|
B|---------------------------------------------------------------------------|
G|-1616161616161616-1414141414141414-13131313-161616--13-1212121212121212----|
D|--x-x-x-x-x-x-x-x--x-x-x-x-x-x-x-x--x-x-x-x--x-x-x--x--x-x-x-x-x-x-x-x-----|
A|-1414141414141414-1212121212121212-11111111-141414--11-1010101010101010----|
E|---------------------------------------------------------------------------|

e|---------------------------------------------------------------------------|
B|---------------------------------------------------------------------------|
G|-1616161616161616-111111---------------------------------------------------|
D|--x-x-x-x-x-x-x-x-x-x-x----------------------------------------------------|
A|-1414141414141414-9-9-9----------------------------------------------------|
E|---------------------------------------------------------------------------|

Pre-verse x8

End on B

| /  slide up
| \  slide down
| h  hammer-on
| p  pull-off
| ~  vibrato
| +  harmonic
| x  Mute note

                                              Murder city

I. Intro
e|--14-14--14-14--14--|
B|--------------------| x4
G|--------------------|
D|--------------------|
A|--------------------|
E|--------------------|

II. Chorus x2
e|-------------------------------------------|
B|-------------------------------------------|
G|--4-(x16)-8-(x16)---------13-(x8)-12-(x8)--|
D|--4-------8-------6-(x16)------------------|
A|--2-------6-------6-------11------10-------|
E|------------------4------------------------|

III. Verse x2
e|---------------------------------------------------------------|
B|---------------------------------------------------------------|
G|---------------------------------------------------------------|
D|----------------8-8-8-8-8-8-8-8--------------------------------|
A|--9-9-9-9-9-9-9-6-6-6-6-6-6-6-6-6-6-6-6-6-6-6-6-6-6-6-6-6-6-6--|
E|--7-7-7-7-7-7-7-----------------4-4-4-4-4-4-4-4-4-4-4-4-4-4-4--|
      : : : : : : : : : : : : : :   : : : : : : : : : : : : : :

e|---------------------------------------------------------------|
B|---------------------------------------------------------------|
G|---------------------------------------------------------------|
D|--9-9-9-9-9-9-9-----------------6-6-6-6-6-6-6-6-6-6-6-6-6-6-6--|
A|--7-7-7-7-7-7-7-9-9-9-9-9-9-9-9-4-4-4-4-4-4-4-4-4-4-4-4-4-4-4--|
E|----------------7-7-7-7-7-7-7-7--------------------------------|
      : : : : : : : : : : : : : :   : : : : : : : : : : : : : :

IV. Pre-Chorus
e|--------------|
B|--------------|
G|--9-(x16)-12--|
D|--9-----------|
A|--7-------10--|
E|--------------|

V. Repeat Chorus

VI. Solo x2
e|---------------------------------------------------------------|
B|--6---6---6--6--6--6---6---6--6--6---8---8--8--8--8--8--9-10---|
G|--9b--9b--9b-9b-9b-9b--9b--9b-9b-9b-11b-11b11b11b11b11b12b13b--|
D|---------------------------------------------------------------|
A|---------------------------------------------------------------|
E|---------------------------------------------------------------|

e|------------------------------------------------------------------------|
B|---9---9---9--9--9--9---9---9--9--9--9---9---9--9--9--8---8---8--8--8---|
G|--12b-12b-12b12b12b12b-12b-12b12b12b12b-12b-12b12b12b11b-11b-11b11b11b--|
D|------------------------------------------------------------------------|
A|------------------------------------------------------------------------|
E|------------------------------------------------------------------------|

VII. Repeat Verse

VIII. Repeat Pre-Chorus

IX. Repeat Chorus

X. Out Chorus
Solo Repeat Over Chorus

                                            viva la gloria little girl

VERSE (0:23) (It's piano too but you can try with this on guitar)
e|----------------|
B|----------------|
G|----------------|
D|----------------|
A|----3-1---------|
E|--------4-3-----|

e|----------------------------------------------------|
B|-------9----9----9----9----9----9----9----9---------|
G|-------10---10---10---10---10---10---10---10--------|
D|-------10---10---10---10---10---10---10---10--------|
A|-----8---------8---------8---------8----------------|
E|----------8---------8---------8---------8-----------|

(Little girl, little girl why are you crying?...)
e|---------------------------------------------------------------------------|
B|-----9----9----9----9------------------------------------9----9----9----9--|
G|-----10---10---10---10---6---6---6---6---5---5---5---5---10---10---10---10-|
D|-----10---10---10---10---6---6---6---6---5---5---5---5---10---10---10---10-|
A|---8---------8---------4-------4-------3-------3-------8---------8---------|
E|--------8---------8--------4-------4-------3-------3--------8---------8----|

e|---------------------------------------------------------------------------|
B|-----9----9----9----9------------------------------------9----9----9----9--|
G|-----10---10---10---10---6---6---6---6---5---5---5---5---10---10---10---10-|
D|-----10---10---10---10---6---6---6---6---5---5---5---5---10---10---10---10-|
A|---8---------8---------4-------4-------3-------3-------8---------8---------|
E|--------8---------8--------4-------4-------3-------3--------8---------8----|


CHORUS (0:49) (DISTORTION GUITAR)
e|-----------------------------------------------------------------|
B|----9-9-9-9-9-9-9-9----------------------------33333333----------|
G|----1010101010101010--66666666--5555-----------33333333----------|
D|----1010101010101010--66666666--5555-----------33333333----------|
A|----8-8-8-8-8-8-8-8---44444444--3333--3-1------33333333----------|
E|------------------------------------------4-3--11111111----------|

e|---------------------------------------------------------|
B|----9-9-9-9-9-9-9-9--------------------------------------|
G|----1010101010101010--66666666--5555---------------------|
D|----1010101010101010--66666666--5555---------------------|
A|----8-8-8-8-8-8-8-8---44444444--3333--3-1----------------|
E|------------------------------------------4-3------------|


VERSE 2 (1:10) (DISTORTION GUITAR)
e|----------------------------------------------------|
B|-------9----9----9----9----9----9----9----9---------|
G|-------10---10---10---10---10---10---10---10--------|
D|-------10---10---10---10---10---10---10---10--------|
A|-----8---------8---------8---------8----------------|
E|----------8---------8---------8---------8-----------|

(Little girl, little girl your life is calling...)
e|---------------------------------------------------------------------------|
B|-----9---9-----9----------------------------------------9----9----9----9---|
G|-----10--10----10------6---6---6-6-----5---5---5---5---10---10---10---10---|
D|-----10--10----10------6---6---6-6-----5---5---5---5---10---10---10---10---|
A|-----8---8-----8-------4---4---4-4---3-------3-------8---------8-----------|
E|-----------------------------------------3-------3--------8---------8------|

e|---------------------------------------------------------------------------|
B|-----9----9----9----9------------------------------------9----9----9----9--|
G|-----10---10---10---10---6---6---6---6---5---5---5---5---10---10---10---10-|
D|-----10---10---10---10---6---6---6---6---5---5---5---5---10---10---10---10-|
A|---8---------8---------4-------4-------3-------3-------8---------8---------|
E|--------8---------8--------4-------4-------3-------3--------8---------8----|

e|---------------------------------------------------------------------------|
B|-----9----9----9----9------------------------------------9----9----9----9--|
G|-----10---10---10---10---6---6---6---6---5---5---5---5---10---10---10---10-|
D|-----10---10---10---10---6---6---6---6---5---5---5---5---10---10---10---10-|
A|---8---------8---------4-------4-------3-------3-------8---------8---------|
E|--------8---------8--------4-------4-------3-------3--------8---------8----|

e|---------------------------------------------------------------------------|
B|-----9---9-----9----------------------------------------9----9----9----9---|
G|-----10--10----10------6---6---6-6-----5---5---5---5---10---10---10---10---|
D|-----10--10----10------6---6---6-6-----5---5---5---5---10---10---10---10---|
A|-----8---8-----8-------4---4---4-4---3-------3-------8---------8-----------|
E|-----------------------------------------3-------3--------8---------8------|


CHORUS (1:55)

BRIDGE (2:20)
e|---------------------------------------------------------------------------|
B|---------------------------------------------------------------------------|
G|-----66666---------66666---------66666---------5555555555------------------|
D|-----66666--66666--66666--66666--66666--66666--5555555555------------------|
A|-----44444--66666--44444--66666--44444--66666--3333333333------------------|
E|------------44444---------44444---------44444------------------------------|


SOLO (2:40) GUITAR 1
e|------------------------------------------------------------------|
B|------------------------------------------------------------------|
G|---1010101010101010--88888888--7777--------8888--5555-------------|
D|---1010101010101010--88888888--7777--8888--8888--5555-------------| (X4)
A|---9-9-9-9-9-9-9-9---66666666--5555--8888--6666--3333-------------|
E|-------------------------------------6666-------------------------|


SOLO (2:40) GUITAR 2
e|------------------------------------------------------------------------|
B|------------------------------13----------------------------------------|
G|-----12-13~-12----------12-13----12----------12-13~-12---------------12-|
D|--15------------15~--15-------------15~--15------------15--13-13--10----|(X3)
A|------------------------------------------------------------------------|
E|------------------------------------------------------------------------|

e|-----------------------------------------------------------|
B|------------------------------13---------------------------|
G|-----12-13~-12----------12-13----12----------12-13~-12-----|
D|--15------------15~--15-------------15~--15------------15--|
A|-----------------------------------------------------------|
E|-----------------------------------------------------------|

e|-----------------------------|
B|-----------------------------|
G|--12/17-17--21-21-22~--------|
D|-----------------------------|
A|-----------------------------|
E|-----------------------------|


CHORUS (3:20)

                                  Restless Heart Syndrome


Intro:

  Gm       C         F        Bb
|------------------|-----5------------|
|-----0------------|-3----------------|
|-0--------2---2---|---2---2--0---0---|
|---2---2----2---2-|-0----------0---0-|
|----------0-------|------------------|
|-0----------------|----------3-------|

  Eb       Ab        D
|-----3------------|--------|
|-1------------1---|-4------|
|---0---0--2-------|-4------|
|------------3---3-|-4------|
|-3----------------|-2------|
|----------1-------|--------|

Verse 1:

Gm         Gm/F          Em7b5      Ebmaj7
I’ve got a really bad disease

Gm          Gm/F          Em7b13          Ebmaj7
It's got me begging on my hands and knees

   Gm      Gm/F      Em7b5  Ebmaj7
So take me to       emergency

Gm                Gm/F           Em7b13   Ebmaj7
'Cause something seems to be missing

Gm       Gm/F            Em7b5      Ebmaj7
Somebody take the pain away

Gm               Gm/F         Em7b13       Ebmaj7
  It's like an ulcer bleeding in my brain

   Gm      Gm/F   Em7b5  Ebmaj7
So send me to the pharmacy

Gm         Gm/F         Em7b13      Ebmaj7
  So I can lose my memory

Pre-Chorus:

Cm       Cm/Bb
    I'm elated

Am7b5    Abmaj7
    Medicated

Cm             Cm/Bb           Am7b5  Abmaj7
  Lord knows I tried to find a way

         D7 (or D)
  to run away.

Verse 2:

Gm             Gm/F          Em7b5      Ebmaj7
  I think they found another cure

Gm              Gm/F            Em7b13 Ebmaj7
  For broken hearts and feeling insecure

      Gm    Gm/F        Em7b5  Ebmaj7
You'd be surprised what I endure

Gm                 Gm/F        Em7b13     Ebmaj7
  What makes you feel so self-assured?

Gm           Gm/F            Em7b5  Ebmaj7
   I need to find a place to hide

Gm              Gm/F            Em7b13      Ebmaj7
   You never know what could be waiting outside

    Gm    Gm/F     Em7b5       Ebmaj7
The accidents that you could find

Gm                  Gm/F     Em7b13  Ebmaj7
  It's like some kind of suicide


Pre-Chorus:

Cm         Cm/Bb  Am7b5      Abmaj7
   So what ails you is what impales you

Cm             Cm/Bb          Am7b5 Abmaj7         D7 (or D)
   I feel like I've been crucified      to be satisfied


Chorus:

Gm             Gm/F
  I'm a victim     of my symptom

Em7b5        Cm           F       D
     I am my own worst enemy

Gm               Gm/F
  You're a victim    of your symptom

Em7b5             Cm           F
     You are your own worst enemy

D
Know your enemy


Solo:

Gm   Gm/F   Em7b5   Ebmaj7
Gm   Gm/F   Em7b13  Ebmaj7
Gm   Gm/F   Em7b5   Ebmaj7
Gm   Gm/F   Em7b13  Ebmaj7

Or you can play the “real” solo instead of chords

 played fast (tremolo picking)
|-------------------|-----------------------------|
|-5--8-5-7---8-5----|-8-5-7---8-10---8-7-8---7-3--|
|-------------------|-----------------------------|
|-------------------|-----------------------------|
|-------------------|-----------------------------|
|-------------------|-----------------------------|

(bend gradually while picking fast to hit the right note)
|-------------------|------------------------|
|-5--8-5-7---8-5----|-8-5-7---8-10-11b12-----|
|-------------------|------------------------|
|-------------------|------------------------|
|-------------------|------------------------|
|-------------------|------------------------|


Pre-Chorus:

Gm
    I'm elated

Gm/F
    Medicated

Em7b5        Cm            F     D
     I am my own worst enemy

Gm
    So what ails you

Gm/F
    Is what impales you

Em7b5             Cm            F     D
     You are your own worst enemy

Chorus :

Gm               Gm/F
  You're a victim    of the system

Em7b5             Cm            F     D
     You are your own worst enemy

Gm               Gm/F
  You're a victim    of the system

Em7b5             Cm            F     D
     You are your own worst enemy


Outro:


  Gm
|-----------------|------------------|
|-----------------|------------------|
|---------9-9-9-9-|---------9-9-9-9--|
|---------x-x-x-x-|---------x-x-x-x--|
|-x-x-x-x-7-7-7-7-|-x-x-x-x-7-7-7-7--|
|-0-0-0-0---------|-0-0-0-0----------|


  Eb
|------------------|-------------------|
|------------------|-------------------|
|----------5-5-5-5-|-----5-------5/4---|    (x2)
|-x-x-x-x--x-x-x-x-|-x-x-x---x-x-x-----|
|-3-3-3-3----------|-3-3-3---3-3-3/2---|
|------------------|-------------------|

  Gm
|-----------------|------------------|
|---------8-8-8-8-|---------8-8-8-8--|
|---------9-9-9-9-|---------9-9-9-9--|
|---------x-x-x-x-|---------x-x-x-x--|
|-x-x-x-x-7-7-7-7-|-x-x-x-x-7-7-7-7--|
|-0-0-0-0---------|-0-0-0-0----------|

  Eb
|------------------|-------------------|
|----------5-5-5-5-|-----5-------5/4---|
|----------5-5-5-5-|-----5-------5/4---|    (x2)
|-x-x-x-x—-5-5-5-5-|-x-x-5---x-x-5/4---|
|-3-3-3-3----------|-3-3-----3-3-------|
|------------------|-------------------|

|----------------|-0------|
|----------------|-0------|
|----------------|-0------|
|-2---2---2---2--|-2------|
|-2---2---2---2--|-2------|
|-0---0---0---0--|-0------|

                                                   horseshoes & handgranades

 Intro

Guitar 1
e|---------------------------------|-----------------------------------------|
B|---------------------------------|-----------------------------------------|
G|----7-9-99-----------------------|----7-9-9--------------------------------|
D|-9--7-9-99-0-77-0-4-0-4-0-4-(X3)-|-9--7-9-9-0-77-0-4-----------------------|
A|-9--5-7-77-0-77-0-4-0-4-0-4------|-9--5-7-7-0-77-0-4-----------------------|
E|-7---------0-55-0-2-0-2-0-2------|-7--------0-55-0-2-----------------------|

Then

Guitar 1
e|---------------------------------|-----------------------------------------|
B|---------------------------------|-----------------------------------------|
G|----7-9-99-----------------------|-----------------------------------------|
D|-9--7-9-99-0-77-0-4-0-4-0-4-(X2)-|-----------------------------------------|
A|-9--5-7-77-0-77-0-4-0-4-0-4------|-----------------------------------------|
E|-7---------0-55-0-2-0-2-0-2------|-77777777-55555555-44444444-333333-------|

Guitar 2
e|---------------------------------|-----------------------------------------|
B|---------------------------------|----------------------------888888-------|
G|----7-9-99-----------------------|-44444444-77777777-99999999--------------|
D|-9--7-9-99-0-77-0-4-0-4-0-4-(X2)-|-----------------------------------------|
A|-9--5-7-77-0-77-0-4-0-4-0-4------|-----------------------------------------|
E|-7---------0-55-0-2-0-2-0-2------|-----------------------------------------|


Verse x8
e|---------------------------------------------------------------------------|
B|---------------------------------------------------------------------------|
G|----7-9-99-----------------------------------------------------------------|
D|-9--7-9-99-0-77-0-4-0-4-0-4------------------------------------------------|
A|-9--5-7-77-0-77-0-4-0-4-0-4------------------------------------------------|
E|-7---------0-55-0-2-0-2-0-2------------------------------------------------|


Chorus
e|---------------------------------------------------------------------------|
B|---------------------------------------------------------------------------|
G|-9999999999999-------------------------9999999999999999--------------------|
D|-9999999999999-77-8-9999999999999-8-77-9999999999999999-4444444444444------|
A|-7777777777777-77-8-9999999999999-8-77-7777777777777777-4444444444444------|
E|---------------55-6-7777777777777-6-55------------------2222222222222------|

Verse x8

Chorus


Bridge
e|---------------------------------------------------------------------------|
B|---------------------------------------------------------------------------|
G|---------------------------------------------------------------------------|
D|-999-7----999-7----999-7----999-7------------------------------------------|
A|-999-7----999-7----999-7----999-7------------------------------------------|
E|-777-5----777-5----777-5----777-5------------------------------------------|

Verse X4


Second part of intro

Guitar 1
e|------------------------------------------|-----------------------------------|
B|------------------------------------------|-----------------------------------|
G|-------------------------------------(x2)-|-----------------------------------|
D|------------------------------------------|-----------------------------------|
A|------------------------------------------|-----------------------------------|
E|-77777777-55555555-44444444-33333333------|-77777777-55555555-44444444-15(x8)-|

e|---------------------------------------------------------------------------|
B|---------------------------------------------------------------------------|
G|---------------------------------------------------------------------------|
D|---------------------------------------------------------------------------|
A|---------------------------------------------------------------------------|
E|-77777777-55555555-44444444-33333333-77777777-55555555-44444444-333--------|

Guitar 2
e|------------------------------------------|--------------------------------|
B|----------------------------88888888------|----------------------------888-|
G|-44444444-77777777-99999999----------(x3)-|-44444444-77777777-99999999-----|
D|------------------------------------------|--------------------------------|
A|------------------------------------------|--------------------------------|
E|------------------------------------------|--------------------------------|

Guitar 3 Not sure if this is right
e|------------------------------------------|--------------------------------|
B|----------33333333-55555555-88888888------|----------33333333-55555555-888-|
G|-44444444-22222222-44444444-77777777-(x3)-|-44444444-22222222-44444444-777-|
D|-xxxxxxxx-00000000-22222222-55555555------|-xxxxxxxx-00000000-22222222-555-|
A|-22222222---------------------------------|-22222222-----------------------|
E|------------------------------------------|--------------------------------|


Play the first and second part of the intro. Play the first part twice instead
of three times

Verse x4

Outro
e|---------------------------------------------------------------------------|
B|---------------------------------------------------------------------------|
G|----7-9-------9-0-9-0-------7-9-------9-0-9-0-------7-9-------9-0-9-0------|
D|-9--7-9--7-9--9-0-9-0--7-9--7-9--7-9--9-0-9-0--7-9--7-9--7-9--9-0-9-0------|
A|-9--5-7--7-9--7-0-7-0--7-9--5-7--7-9--7-0-7-0--7-9--5-7--7-9--7-0-7-0------|
E|-7-------5-7-----------5-7-------5-7-----------5-7-------5-7---------------|

e|---------------------------------------------------------------------------|
B|---------------------------------------------------------------------------|
G|------7-9-------9-0-9-0----------------------------------------------------|
D|-7-9--7-9--7-9--9-0-9-0--7-999-7-------------------------------------------|
A|-7-9--5-7--7-9--7-0-7-0--7-999-7-------------------------------------------|
E|-5-7-------5-7-----------5-777-5-------------------------------------------|


| /  slide up
| \  slide down
| h  hammer-on
| p  pull-off
| ~  vibrato
| +  harmonic
| x  Mute note

                                      static age

I. Verse x3
Gtr 1
e|-------------------------------------------------------------------|
B|-------------------------------------------------------------------|
G|--4-4-4-4-4-4-4-4-4-4-4-4-4-4-4-4-4-4-4-4-4-4-4-4-4-4-4-4-4-4-4-4--|
D|-------------------------------------------------------------------|
A|--2-2-2-2-2-2-2-2-2-2-2-2-2-2-2-2-2-2-2-2-2-2-2-2-2-2-2-2-2-2-2-2--|
E|-------------------------------------------------------------------|

e|-------------------------------------------------------------------|
B|-------------------------------------------------------------------|
G|--4-4-4-4-4-4-4-4-4-4-4-4-4-4-4-4-4-4-4-4-4-4-4-4-3-3-3-3-3-3-3-3--|
D|-------------------------------------------------------------------|
A|--2-2-2-2-2-2-2-2-2-2-2-2-2-2-2-2-2-2-2-2-2-2-2-2-1-1-1-1-1-1-1-1--|
E|-------------------------------------------------------------------|

Gtr 2
e|-------------------------------------------------------------------|
B|-------------------------------------------------------------------|
G|--4-4-4-4-4-4-4-4-4-4-4-4-4-4-4-4-9-9-9-9-9-9-9-9-6-6-6-6-6-6-9-9--|
D|-------------------------------------------------------------------|
A|--2-2-2-2-2-2-2-2-2-2-2-2-2-2-2-2-7-7-7-7-7-7-7-7-4-4-4-4-4-4-7-7--|
E|-------------------------------------------------------------------|

e|-------------------------------------------------------------------|
B|-------------------------------------------------------------------|
G|--8-8-8-8-8-8-8-8-8-8-8-8-8-8-8-8-9-9-9-9-9-8-9-91111111111111111--|
D|-------------------------------------------------------------------|
A|--6-6-6-6-6-6-6-6-6-6-6-6-6-6-6-6-7-7-7-7-7-6-7-7-9-9-9-9-9-9-9-9--|
E|-------------------------------------------------------------------|

II. Pre-Chorus
Gtr 1
e|-------------------------------------------------------------------|
B|-------------------------------------------------------------------|
G|-------------------------------------------------------------------|
D|--4-4-3-----------4-4-3-4-4-4-4-4-4-4-4-4-4-4-4-4-4-4-4-4-4-4-4-4--|
A|--4-4-3-----------4-4-3-4-4-4-4-4-4-4-4-4-4-4-4-4-4-4-4-4-4-4-4-4--|
E|--2-2-1-----------2-2-1-2-2-2-2-2-2-2-2-2-2-2-2-2-2-2-2-2-2-2-2-2--|
                            : : : : : : : : : : : : : : : : : : : :
Gtr 2
e|-------------------------------------------------------------------|
B|-------------------------------------------------------------------|
G|-1111111111111111111111111111111111111111111111111111111111111111--|
D|-------------------------------------------------------------------|
A|--9-9-9-9-9-9-9-9-9-9-9-9-9-9-9-9-9-9-9-9-9-9-9-9-9-9-9-9-9-9-9-9--|
E|-------------------------------------------------------------------|

III. Chorus
Gtr 1
e|-----------------------------------|    |-----------------------------------|
B|-----------------------------------| x3 |-----------------------------------|
G|--4-4-4-4-4-4-4-4-4-4-4-4-3-3-3-3--|    |--8-8-8-8-8-8-8-8------------------|
D|-----------------------------------|    |------------------4-4-4-4-4-4-4-4--|
A|--2-2-2-2-2-2-2-2-2-2-2-2-1-1-1-1--|    |--6-6-6-6-6-6-6-6-4-4-4-4-4-4-4-4--|
E|-----------------------------------|    |------------------2-2-2-2-2-2-2-2--|

Gtr 2
e|-----------------------------------|    |-----------------------------------|
B|-----------------------------------| x3 |-----------------------------------|
G|--4-4-4-4-4-4-4-4------------------|    |--4-4-4-4-4-4-4-4------------------|
D|--4-4-4-4-4-4-4-4-2-2-2-2-4-4-4-4--|    |--4-4-4-4-4-4-4-4-4-4-4-4-4-4-4-4--|
A|--2-2-2-2-2-2-2-2-2-2-2-2-4-4-4-4--|    |--2-2-2-2-2-2-2-2-4-4-4-4-4-4-4-4--|
E|------------------0-0-0-0-2-2-2-2--|    |------------------2-2-2-2-2-2-2-2--|

IV. Repeat Verse

V. Repeat Pre-Chorus

VI. Repeat Chorus x2

VII. Bridge
Both Guitars
e|-------------------------------------------------------------------|
B|-------------------------------------------------------------------|
G|--9-9-9-9-9-9-9-9-9-9-9-9-9-9-9-9-4-4-4-4-4-4-4-4-4-4-4-4-4-4-4-4--|
D|-------------------------------------------------------------------|
A|--7-7-7-7-7-7-7-7-7-7-7-7-7-7-7-7-2-2-2-2-2-2-2-2-2-2-2-2-2-2-2-2--|
E|-------------------------------------------------------------------|

e|-------------------------------------------------------------------|
B|-------------------------------------------------------------------|
G|--9-9-9-9-9-9-9-9-9-9-9-9-9-9-9-91111111111-9-11-1212121212121212--|
D|-------------------------------------------------------------------|
A|--7-7-7-7-7-7-7-7-7-7-7-7-7-7-7-7-9-9-9-9-9-7--9-1010101010101010--|
E|-------------------------------------------------------------------|

VIII. Solo / Keychange +1 Step
Gtr 1
e|-------------------------------------------------------------------|
B|-------------------------------------------------------------------| x5
G|--5-5-5-5-5-5-5-5-5-5-5-5-5-5-5-5----------------------------------|
D|--5-5-5-5-5-5-5-5-5-5-5-5-5-5-5-5-3-3-3-3-3-3-3-3-5-5-5-5-5-5-5-5--|
A|--3-3-3-3-3-3-3-3-3-3-3-3-3-3-3-3-3-3-3-3-3-3-3-3-5-5-5-5-5-5-5-5--|
E|----------------------------------1-1-1-1-1-1-1-1-3-3-3-3-3-3-3-3--|

Gtr 2
e|-------------------------------------------------------------------|\-----|
B|--------------------------------------------------------------------------| \
G|--5-5-5-5-5-5-5-5-5-5-5--9--7--5-1010101010101010-7-7-7-7-7-71010---------|  \
D|--------------------------------------------------------------------------|   \
A|--3-3-3-3-3-3-3-3-3-3-3--7--5--3--8-8-8-8-8-8-8-8-5-5-5-5-5-5-8-8---------|    \
E|--------------------------------------------------------------------------|     \
                                                                     |     x2
e|--------------------------------------------------------------------------|     /
B|--------------------------------------------------------------------------|    /
G|--9-9-9-9-9-9-9-9-9-9-9--9--7--5-1010101010-9-10-1212121212121212---------|   /
D|--------------------------------------------------------------------------|  /
A|--7-7-7-7-7-7-7-7-7-7-7--7--5--3--8-8-8-8-8-7--8-1010101010101010---------| /
E|--------------------------------------------------------------------------|

e|-----------------------------------------------------|
B|-----------------------------------------------------|
G|--1313131313131313141414141515151516161717181819/20--|
D|-----------------------------------------------------|
A|--1111111111111111121212121313131314141515161617/18--|
E|-----------------------------------------------------|

IX. Adlib / Keychange +2 Steps
Gtr 1
e|-------------------------------------------------------------------|
B|-------------------------------------------------------------------| x4
G|--7-7-7-7-7-7-7-7-7-7-7-7-7-7-7-7-7-7-7-7-7-7-7-7-------------8-8--|
D|--7-7-7-7-7-7-7-7-7-7-7-7-7-7-7-7-7-7-7-7-7-7-7-7-7-7-7-7-7-7-8-8--|
A|--5-5-5-5-5-5-5-5-5-5-5-5-5-5-5-5-5-5-5-5-5-5-5-5-7-7-7-7-7-7-6-6--|
E|--------------------------------------------------5-5-5-5-5-5------|

Gtr 2
e|-------------------------------------------------------------------|\-----|
B|--------------------------------------------------------------------------| \
G|-111111111111111111111111111111111212121212121212-9-9-9-9-9-91212---------|  \
D|--------------------------------------------------------------------------|   \
A|--9-9-9-9-9-9-9-9-9-9-9-9-9-9-9-91010101010101010-7-7-7-7-7-71010---------|    \
E|--------------------------------------------------------------------------|     \
                                                                     |     x2
e|--------------------------------------------------------------------------|     /
B|--------------------------------------------------------------------------|    /
G|-1111111111111111111111111111111112121212121211121414141414141414---------|   /
D|--------------------------------------------------------------------------|  /
A|--9-9-9-9-9-9-9-9-9-9-9-9-9-9-9-9101010101010-9101212121212121212---------| /
E|--------------------------------------------------------------------------|

X. Pre-Chorus
Gtr 1
e|-------------------------------------------------------------------|
B|-------------------------------------------------------------------|
G|-------------------------------------------------------------------|
D|--7-7-6-----------7-7-6-7-7-7-7-7-7-7-7-7-7-7-7-7-7-7-7-7-7-7-7-7--|
A|--7-7-6-----------7-7-6-7-7-7-7-7-7-7-7-7-7-7-7-7-7-7-7-7-7-7-7-7--|
E|--5-5-4-----------5-5-4-5-5-5-5-5-5-5-5-5-5-5-5-5-5-5-5-5-5-5-5-5--|
                            : : : : : : : : : : : : : : : : : : : :
Gtr 2
e|-------------------------------------------------------------------|
B|-------------------------------------------------------------------|
G|-1414141414141414141414141414141414141414141414141414141414141414--|
D|-------------------------------------------------------------------|
A|-1212121212121212121212121212121212121212121212121212121212121212--|
E|-------------------------------------------------------------------|

XI. Chorus x4
Gtr 1
e|-----------------------------------|    |-----------------------------------|
B|-----------------------------------| x3 |-----------------------------------|
G|--7-7-7-7-7-7-7-7-7-7-7-7-6-6-6-6--|    |-1111111111111111------------------|
D|-----------------------------------|    |------------------7-7-7-7-7-7-7-7--|
A|--5-5-5-5-5-5-5-5-5-5-5-5-4-4-4-4--|    |--9-9-9-9-9-9-9-9-7-7-7-7-7-7-7-7--|
E|-----------------------------------|    |------------------5-5-5-5-5-5-5-5--|

Gtr 2
e|-----------------------------------|    |-----------------------------------|
B|-----------------------------------| x3 |-----------------------------------|
G|--7-7-7-7-7-7-7-7------------------|    |--7-7-7-7-7-7-7-7------------------|
D|--7-7-7-7-7-7-7-7-5-5-5-5-7-7-7-7--|    |--7-7-7-7-7-7-7-7-7-7-7-7-7-7-7-7--|
A|--5-5-5-5-5-5-5-5-5-5-5-5-7-7-7-7--|    |--5-5-5-5-5-5-5-5-7-7-7-7-7-7-7-7--|
E|------------------3-3-3-3-5-5-5-5--|    |------------------5-5-5-5-5-5-5-5--|

XII. outro
Both Guitars
e|------------------------------------|
B|------------------------------------|
G|--3-3-3-3-3-3-3-5-5-5-5-5-5-5-5-7~--|
D|--3-3-3-3-3-3-3-5-5-5-5-5-5-5-5-7~--|
A|--1-1-1-1-1-1-1-3-3-3-3-3-3-3-3-5~--|
E|------------------------------------|


                                               21 GUNS

 INTRO:

e-----1-----------5---------|
B----------3------------5---|
G---------------------------|
D---------------------------|
A---------------------------|
E---------------------------|


VERSE:

Play it with Chords


Dm       A#                F        C
  Do you know what's worth fighting for,
Dm          A#        F     C
  When it's not worth dying for?
Dm        A#        F      C
  Does it take your breath away
         A#                C
And you feel yourself suffocating?

Dm         A#         F        C
  Does the pain weigh out the pride?
Dm        A#          F        C
  And you look for a place to hide?
Dm        A#             F      C
  Did someone break your heart inside?
 A#
You're in ruins

CHORUS:

One, 21 guns
Lay down your arms
Give up the fight
One, 21 guns
Throw up your arms into the sky,
You and I


e-----|----------------------------------------    |       -------------|
B-----|----------------------------------------    |       -------------|
G--5--|----------77--5555--3333------55555555--    |       3333------5--|
D--5--|--33--22--77--5555--3333-3333-55555555-- x2 | then  3333-3333-5--|
A--3--|--33--33--55--3333--1111-3333-33333333--    |       1111-3333-3--|
E-----|--11--00-----------------1111-----------    |       -----1111----|

                                                            (You and I)


VERSE:

Dm          A#     F          C
  When you're at the end of the road
Dm        A#       F             C
  And you lost all sense of control
Dm        A#            F            C
 And your thoughts have taken their toll
         A#                              C
When your mind breaks the spirit of your soul
Dm     A#             F        C
  Your faith walks on broken glass
Dm         A#      F        C
  And the hangover doesn't pass
Dm          A#   F         C
  Nothing's ever built to last
 A#
You're in ruins.


CHORUS:


One, 21 guns
Lay down your arms
Give up the fight
One, 21 guns
Throw up your arms into the sky,
You and I

e-----|----------------------------------------    |       --------------------|
B-----|----------------------------------------    |       --------------------|
G--5--|----------77--5555--3333------55555555--    |       3333------55555555--|
D--5--|--33--22--77--5555--3333-3333-55555555-- x2 | then  3333-3333-55555555--|
A--3--|--33--33--55--3333--1111-3333-33333333--    |       1111-3333-33333333--|
E-----|--11--00-----------------1111-----------    |       -----1111-----------|

BRIDGE:


Did you try to live on your own
When you burned down the house and home?
Did you stand too close to the fire?
Like a liar looking for forgiveness from a stone


e--------------------|----------------------   |------------------------|
B--------------------|----------------------   |------------------------|
G--77--33------5555--|--77--33--------2222--   |--33333333-55555555-----|
D--77--33--33--5555--|--77--33--3333--2222-- x2|--33333333-55555555-----|
A--55--11--33--3333--|--55--11--3311--0000--   |--11111111-33333333-----|
E----------11--------|----------1111--------   |------------------------|


GUITAR SOLO:


e----5----5-----------------------------------------   |--------------------------------|
B--6--6-8---6---6-----6-----3----------5-5-5-5-6-8--   |----3----------5-5-5-5-5-5-5-5--|
G-------------7---7-9---7-3---3-5-3-2---------------   |--3---3-5-3-2-------------------|
D--------------------------------------------------- x2|--------------------------------|
A---------------------------------------------------   |--------------------------------|
E---------------------------------------------------   |--------------------------------|

INTRO:

e-----1-----------5---------|
B----------3------------5---|
G---------------------------| x2
D---------------------------|
A---------------------------|
E---------------------------|

VERSE:

Dm          A#       F           C
  When it's time to live and let die
Dm        A#         F       C
  And you can't get another try
Dm           A#          F        C
  Something inside this heart has died
A#
You're in ruins.

CHORUS:

One, 21 guns
Lay down your arms
Give up the fight
One, 21 guns
Throw up your arms into the sky,
You and I

e----------------------------------------    |
B----------------------------------------    |
G----------77--5555--3333------55555555--    |
D--33--22--77--5555--3333-3333-55555555-- x2 |
A--33--33--55--3333--1111-3333-33333333--    |
E--11--00-----------------1111-----------    |


e----------------------------------------    |       --------------------|
B----------------------------------------    |       --------------------|
G----------77--5555--3333------55555555--    |       3333------5---------|
D--33--22--77--5555--3333-3333-55555555-- x2 | then  3333-3333-5---------|
A--33--33--55--3333--1111-3333-33333333--    |       1111-3333-3---------|
E--11--00-----------------1111-----------    |       -----1111-----------|


                                            American euolgy

 Part 1: Mass Hysteria

Intro/Chorus (X4)
e|---------------------------------------------------------------------------|
B|---------------------------------------------------------------------------|
G|--5-66---------------------------------------------------------------------|
D|--5-66--66666666-----------------------------------------------------------|
A|--3-44--66666666-----------------------------------------------------------|
E|--------44444444-----------------------------------------------------------|

Guitar 2 (X4)
e|-------99------------------------------------------------------------------|
B|---------99----------------------------------------------------------------|
G|---------------------------------------------------------------------------|
D|---------------------------------------------------------------------------|
A|---------------------------------------------------------------------------|
E|---------------------------------------------------------------------------|

Verse (X2)
e|---------------------------------------------------------------------------|
B|---------------------------------------------------------------------------|
G|--666666-----------666666----------666666----------------------------------|
D|--666666--66666666-666666-44444444-666666-6666666-44444444-66666666--------|
A|--444444--66666666-444444-44444444-444444-6666666-44444444-66666666--------|
E|----------44444444--------22222222--------4444444-22222222-44444444--------|

Intro/Chorus
Verse
Intro/Chorus

Interlude
e|---------------------------------------------------------------------------|
B|----------6---------------6---------------2--------------------------------|
G|------6-----6---6-----6-----6---6-----3-----3---3---------5----------------|
D|----6---6-----6-----6---6-----6-----3---3-----3-------6-----6---6----------|
A|--4---------------3---------------1-----------------6---6-----6------------|
E|--------------------------------------------------4------------------------|

e|---------------------------------------------------------------------------|
B|--------------------------6---------------6---------------6----------------|
G|----------3-----------6-----6---6-----6-----6---6-----6-----6---6----------|
D|------4-----4---4---6---6-----6-----6---6-----6-----6---6-----6------------|
A|----4---4-----4-------------------4---------------4------------------------|
E|--2---------------4--------------------------------------------------------|

e|---------------------------------------------------------------------------|
B|--------------------------4~-----------------------------------------------|
G|-6~---5~---3~-------------3~-----------------------------------------------|
D|-6~---6~---3~---6~---4~---1~----5-66----5-66-------------------------------|
A|-4~---3~---1~---6~---4~---------5-66----5-66-------------------------------|
E|----------------4~---2~---------3-44----3-44-------------------------------|

Solo

Guitar 1
e|9~\8~\6~\4~/~8/11~---9~\8~\6~\4~/5~/10\------------------------------------|
B|---------------------------------------------------------------------------|
G|---------------------------------------------------------------------------|
D|---------------------------------------------------------------------------|
A|---------------------------------------------------------------------------|
E|---------------------------------------------------------------------------|

Guitar 2
e|---------------------------------------------------------------------------|
B|---------------------------------------------------------------------------|
G|------------------------------6----6-------------------------------------7-|
D|--444444444444444-66666666-66-6-66-6--444444444444444--66666666-77777777-7-|
A|--444444444444444-66666666-66-4-66-4--4444444444444444-66666666-77777777-5-|
E|--222222222222222-44444444-44---44----2222222222222222-44444444-55555555---|


Part 2-Modern World

Intro
e|----------------------------------------------------------------------------|
B|----------------------------------------------------------------------------|
G|--7-------------7-----------------------------------------------------------|
D|--7-7-5-77-5-7--7-7-5-77-7--------------------------------------------------|
A|--5-7-5-77-5-7--5-7-5-77-7--------------------------------------------------|
E|----5-3-55-3-5----5-3-55-5--------------------------------------------------|


Chorus (X4)
e|---------------------------------------------------------------------------|
B|---------------------------------------------------------------------------|
G|--7777---------------------------------------------------------------------|
D|--7777-7777-5555-7777------------------------------------------------------|
A|--5555-7777-5555-7777------------------------------------------------------|
E|-------5555-3333-5555------------------------------------------------------|


Verse
e|---------------------------------------------------------------------------|
B|---------------------------------------------------------------------------|
G|--77----------77--77--------------77----------77--77----------7------------|
D|--77--77--55--77--77--77--55--77--77--77--55--77--77--77--5-7-7------------|
A|--55--77--55--55--55--77--55--77--55--77--55--55--55--77--5-7-5------------|
E|------55--33----------55--33--55------55--33----------55--3-5--------------|

Chorus (X4)


Bridge
e|---------------------------------------------------------------------------|
B|---------------------------------------------------------------------------|
G|--44444----------------7777-----44444--------------------------------------|
D|--44444-44444444-55555-7777-----44444-44444444-55555--7-7-7-7-7-7-7-7------|
A|--22222-44444444-55555-5555-4~--22222-44444444-55555--7-7-7-7-7-7-7-7------|
E|--------22222222-33333----------------22222222-33333--5-5-5-5-5-5-5-5------|

Solo

Guitar 1
e|---------------------10-------10-12-10--12-12-10-b12-b12-10~---------------|
B|--10~--10-10-8-7~--8----8-7~-----------------------------------------------|
G|---------------------------------------------------------------------------|
D|---------------------------------------------------------------------------|
A|---------------------------------------------------------------------------|
E|---------------------------------------------------------------------------|

Guitar 2 plays this
e|----------------------------|----------------------------------------------|
B|----------------------------|----------------------------------------------|
G|--7777-----------7777-------|--7777----------7-----------------------------|
D|--7777-7777-5555-7777--(X3)-|--7777-7777-5-7-7-----------------------------|
A|--5555-7777-5555-5555-------|--5555-7777-5-7-5-----------------------------|
E|-------5555-3333------------|-------5555-3-5-------------------------------|

Verse. Then this
                             "Cause I don't give a shit about the modern age"
e|-------------------------------------------------------------------------0-|
B|-------------------------------------------------------------------------0-|
G|-----------------------------7-------------------------------------------0-|
D|-----------------------------7-------------------------------------------0-|
A|--5~-------------------------5-------------------------------------------0-|
E|-------------------------------------------------------------------------0-|

Play the chorus until the song fades out

| /  slide up
| \  slide down
| h  hammer-on
| p  pull-off
| ~  vibrato
| +  harmonic
| x  Mute note


                                     see the light

 I. Intro
Gtr 2
e|--2--x--|
B|--3--2--|
G|--2--2--|
D|--0--2--|
A|--0--0--|
E|--x--x--|

II. Verse
Gtr 1
e|----------------------|
B|----------------------| x4
G|--6-------------------|
D|--6--6-6-6-6-6-6-6-6--|
A|--4--6-6-6-6-6-6-6-6--|
E|-----4-4-4-4-4-4-4-4--|

Gtr 2
e|---------------------------------------------------------------------------|
B|---------------------------------------------------------------------------|
G|--6-------------------6--8-8-8-8-8-8-8-8--6-------------------6------------|
D|-----6-6-6-6-6-6-6-6-------------------------6-6-6-6-6-6-6-6----6-6-6-6-\--|
A|--4-------------------4--6-6-6-6-6-6-6-6--4-------------------4---------\--|
E|-----4-4-4-4-4-4-4-4-------------------------4-4-4-4-4-4-4-4----4-4-4-4-\--|

III. Chorus
Gtr 1
e|-----------------------------------------------------|
B|-----------------------------------------------------| x3
G|--6-6-6-6-6-6-11-11-10-10---------------------6------|
D|--6-6-6-6-6-6-11-11-10-10-6-6-6-6-6-6-6-6-6-6-4-6-6--|
A|--4-4-4-4-4-4--9--9--8--8-6-6-6-6-6-6-6-6-6-6-4-6-6--|
E|--------------------------4-4-4-4-4-4-4-4-4-4---4-4--|

e|-----------------------------------------------------|
B|-----------------------------------------------------|
G|--6-6-6-6-6-6-11-11-10-10-8-8-8-8-8-8-8-8-8-8-6-8-8--|
D|--6-6-6-6-6-6-11-11-10-10-8-8-8-8-8-8-8-8-8-8-6-8-8--|
A|--4-4-4-4-4-4--9--9--8--8-6-6-6-6-6-6-6-6-6-6-4-6-6--|
E|-----------------------------------------------------|

Gtr 2
e|----------------------------------------------------------------------------------|
B|--------14-------14--------16-------14-------13-------13----13----13----16----13--| x3
G|--13-13----13-13-----13-13----13-13----13-13----13-13----13----13----13----13-----|
D|----------------------------------------------------------------------------------|
A|----------------------------------------------------------------------------------|
E|----------------------------------------------------------------------------------|

e|----------------------------------------------------------------------------------|
B|--------14-------14--------16-------14-------16-------16----16----16----16----16--|
G|--13-13----13-13-----13-13----13-13----13-13----13-13----13----13----13----13-----|
D|----------------------------------------------------------------------------------|
A|----------------------------------------------------------------------------------|
E|----------------------------------------------------------------------------------|

IV. Verse
Gtr 1
e|----------------------|
B|----------------------| x8
G|--6-------------------|
D|--6--6-6-6-6-6-6-6-6--|
A|--4--6-6-6-6-6-6-6-6--|
E|-----4-4-4-4-4-4-4-4--|

Gtr 2
e|---------------------------------------------------------------------------------|
B|---------------------------------------------------------------------------------|
G|--6-------------------6--8-8-8-8-8-8-8-8--6-------------------6------------------|
D|-----6-6-6-6-6-6-6-6-------------------------6-6-6-6-6-6-6-6----6-6-6-6-6-6-6-6--|
A|--4-------------------4--6-6-6-6-6-6-6-6--4-------------------4------------------|
E|-----4-4-4-4-4-4-4-4-------------------------4-4-4-4-4-4-4-4----4-4-4-4-4-4-4-4--|

e|---------------------------------------------------------------------------|
B|---------------------------------------------------------------------------|
G|--6-------------------6--8-8-8-8-8-8-8-8--6-------------------6------------|
D|-----6-6-6-6-6-6-6-6-------------------------6-6-6-6-6-6-6-6----6-6-6-6-\--|
A|--4-------------------4--6-6-6-6-6-6-6-6--4-------------------4---------\--|
E|-----4-4-4-4-4-4-4-4-------------------------4-4-4-4-4-4-4-4----4-4-4-4-\--|

V. Chorus
Gtr 1
e|-----------------------------------------------------|
B|-----------------------------------------------------| x3
G|--6-6-6-6-6-6-11-11-10-10---------------------6------|
D|--6-6-6-6-6-6-11-11-10-10-6-6-6-6-6-6-6-6-6-6-4-6-6--|
A|--4-4-4-4-4-4--9--9--8--8-6-6-6-6-6-6-6-6-6-6-4-6-6--|
E|--------------------------4-4-4-4-4-4-4-4-4-4---4-4--|

e|------------------------------|
B|------------------------------|
G|--6-6-6-6-6-6-11-11-10-10-8\--|
D|--6-6-6-6-6-6-11-11-10-10-8\--|
A|--4-4-4-4-4-4--9--9--8--8-6\--|
E|------------------------------|

Gtr 2
e|----------------------------------------------------------------------------------|
B|--------14-------14--------16-------14-------13-------13----13----13----16----13--| x3
G|--13-13----13-13-----13-13----13-13----13-13----13-13----13----13----13----13-----|
D|----------------------------------------------------------------------------------|
A|----------------------------------------------------------------------------------|
E|----------------------------------------------------------------------------------|

e|----------------------------------------|
B|--------14-------14--------16-------14--|
G|--13-13----13-13-----13-13----13-13-----|
D|----------------------------------------|
A|----------------------------------------|
E|----------------------------------------|

VI. Solo
Gtr 1 Repeats Chorus

Gtr 2
e|------------------------------------------------------------------12----12--|
B|---------------------------------------13-------13----13----13--------------|
G|--10-8-------8-10-11-11-11-10-10-13-13----13-13----13----13----13----13-----|
D|-------11-11----------------------------------------------------------------|
A|----------------------------------------------------------------------------|
E|----------------------------------------------------------------------------|

e|--13-11-------11-13-14-14-14-13-13-13-11-11-11---11-----11---11---16---11--|
B|--------14-14----------------------------------9----9-9----9----9----9-----|
G|---------------------------------------------------------------------------|
D|---------------------------------------------------------------------------|
A|---------------------------------------------------------------------------|
E|---------------------------------------------------------------------------|

e|------------------------------------------------------------------12----12--|
B|---------------------------------------13-------13----13----13--------------|
G|--10-8-------8-10-11-11-11-10-10-13-13----13-13----13----13----13----13-----|
D|-------11-11----------------------------------------------------------------|
A|----------------------------------------------------------------------------|
E|----------------------------------------------------------------------------|

e|--13-11-------11-13-14-14-14-13-13-13-11-11-11---11-----11---11---11---11--|
B|--------14-14----------------------------------9----9-9----9----9----9-----|
G|---------------------------------------------------------------------------|
D|---------------------------------------------------------------------------|
A|---------------------------------------------------------------------------|
E|---------------------------------------------------------------------------|

VII. Verse
Gtr 1
e|----------------------|
B|----------------------| x10
G|--6-------------------|
D|--6--6-6-6-6-6-6-6-6--|
A|--4--6-6-6-6-6-6-6-6--|
E|-----4-4-4-4-4-4-4-4--|

Gtr 2
e|----11---11-------11-9-8~--------------------------------------------------------------|
B|--9----9----9~--9----------------------------------------------------------------------|
G|---------------------------6-------------------6--8-8-8-8-8-8-8-8--6-------------------|
D|------------------------------6-6-6-6-6-6-6-6-------------------------6-6-6-6-6-6-6-6--|
A|---------------------------4-------------------4--6-6-6-6-6-6-6-6--4-------------------|
E|------------------------------4-4-4-4-4-4-4-4-------------------------4-4-4-4-4-4-4-4--|

e|-----------------------------------------------------------------------------------------------|
B|-----------------------------------------------------------------------------------------------|
G|--6-------------------6-------------------6--8-8-8-8-8-8-8-8--6-------------------6------------|
D|-----6-6-6-6-6-6-6-6-----6-6-6-6-6-6-6-6-------------------------6-6-6-6-6-6-6-6----6-6-6-6-\--|
A|--4-------------------4-------------------4--6-6-6-6-6-6-6-6--4-------------------4---------\--|
E|-----4-4-4-4-4-4-4-4-----4-4-4-4-4-4-4-4-------------------------4-4-4-4-4-4-4-4----4-4-4-4-\--|

VIII. Repeat Chorus

IX. Outro
e|--------|
B|--------| x4
G|--6-----|
D|--6--6--|
A|--4--6--|
E|-----4--|
(Then)
Repeat Intro
comments
print report bad tab
17 comments total. Showing first comments.
+2 reply
Kilimacory wrote on June 17 2009, 10:32 am

just a lyric correction... in 21st century breakdown, bj doesn't say "my name is samuel". He says "my name is no one".

0 reply
kooldude791 wrote on June 17 2009, 12:05 pm

so far it looks good, ive been waiting for this tab

good job

0 reply
yeskia wrote on June 23 2009, 12:08 am

e|------------------------|
B|------------------------|
G|--------12--------------|
D|--9-----12-----10----5--| Play this twice
A|--9-----10-----10----5--|
E|--7------------8-----7--|

From Christian's Inferno: typo on the last chord, should be a B 7-9-9 again.

I want to post or [tab]
guest
You may want to rate the tab now too:
select rating
Please do not post tabs as comments. Select "correction" instead!