Oops, an error
Loading. Please wait.

American Idiot Bass Tab

ver1
ver1

Album

Whole song

More versions @911Tabs.com
82,574 views 166 this week
45 commentsread comments
1 2 3 4 5
accurate
x 58
Autoscroll
+/-
esc
set tempo
stop
Contributor
WARNING: You are trying to view
                                    content from Ultimate-Guitar.com
                                    in an unauthorized application,
                                    which is prohibited.

                                    Please use an official Ultimate
                                    Guitar Tabs application for iPhone,
                                    iPad or Android to access legitimate
                                    chords, guitar, bass, and drum tabs
                                    from Ultimate-Guitar.com database.

                                    Type "ultimate guitar tabs" in Apple
                                    App Store's or Android Market's
                                    search to find the application.
Green Day American Idiot album bass tab
Tabbed by Liam
Email: guitar_rocker_47@hotmail.com
Tuning: all standard (I know people have whatersname in drop d but I cant be bothered to drop
d my guitar so im tabbing a standard tuning version of this OKAY!

|Updated version 1|

This is my first bass update ever, I have made boulevard of broken dreams a lot better than
before, and city of the damned and holiday just basically all of the ones that sucked last
time don't suck this time (hopefully) any complaints, general comments and anything you want
to say leave a comment, all comments will be appreciated to a great extent, also if you prefer
this updated version to the original please rate it. Thanks guys  


1.  American Idiot                          
2.  Jesus Of Suburbia
 I.   Jesus of Suburbia            
 II.  City of the Damned
 III. I Don't Care
 IV.  Dearly Beloved
 V.   Tales of Another Broken Home
3.  Holiday                         
4.  Boulevard Of Broken Dreams                      
5.  Are We the Waiting
6.  St. Jimmy                       
7.  Give Me Novacaine                       
8.  She's A Rebel
9.  Extraordinary Girl                      
10. Letterbomb              
11. Wake Me Up When September Ends                  
12. Homecoming
 I.   The Death of St. Jimmy               
 II.  East 12th Street
 III. Nobody Likes You
 IV.  Rock and Roll Girlfriend
 V.   We're Coming Home Again
13. Whatsername
 


--------------------------------------------------------------------------------------
Green Day American Idiot
--------------------------------------------------------------------------------------
Tuning Standard

Intro
G|---------------------------------0---------|
D|---------------------------------0---------|
A|------------4--4-----------------0---------|
E|---4--4--0--------0--2-2-----4-------------|

Main Riff
G|-----------------------------------|---------------------------------0---------|
D|-----------------------------------|---------------------------------0---------|
A|-----------4--4----------4---------|------------4--4----------4------0---------|
E|--4--4--0--------0--2-2-----4--2---|---4--4--0--------0--2-2-----4-------------|

Verse 

(Pause for lyrics)

G|-0-----------------------------------------------0--------------------------0--|
D|-0---------------------------(pause for lyrics)--0--------------------------0--|
A|-0-------4-4---------4---------------------------0--------4-4---------4-----0--|
E|---4-4-0-----0--2-2-----4--2------------------------4-4-0-----0--2-2-----4-----|

(Pause for lyrics)

G|-0-----------------------------------------------0--------------------------0--|
D|-0---------------------------(pause for lyrics)--0--------------------------0--|
A|-0-------4-4---------4---------------------------0--------4-4---------4-----0--|
E|---4-4-0-----0--2-2-----4--2------------------------4-4-0-----0--2-2-----4-----|

Chorus
G|-----------------------------------------------------------------------------|
D|-----------------------------------------------------------------------------|
A|-4-4-4-4-4-4-4-4-4-4-4-4-4-------------------------------------6-6-6-6-6-6-6-|
E|----------------------------0--4-4-4-4-4-4-4-4-4-4-4-4-4-4-------------------|

G|-----------------------------------------------------------------------------|
D|-----------------------------------------------------------------------------|
A|-6-6-6-6-6-6-6--------------------------------6-6-6-6-6-6-6-6-6-6-6-6-6-6-6--|
E|----------------4-4-4-4-4-4-4-4-4-4-4-4-4------------------------------------|

G|-----------------------------------------------------------------------------|
D|-----------------------------------------------------------------------------|
A|-------------------------------6-6-6-6-6-6-6-6-6-6-6-6-6-6-6-----------------|
E|-4-4-4-4-4-4-4-4-4-4-4-4-4---------------------------------------------------|

Fill 1
G|-0----------|
D|-0----------|
A|-0----------|
E|------------|

Solo (bass plays this when guitar plays the solo)
G|-----------------------------------------------------------------------------|
D|-----------------------------------------------------------------------------|
A|-4-4-4-4-4-4-4-4-4-4-4-4-4-------------------------------------6-6-6-6-6-6-6-|
E|----------------------------0--4-4-4-4-4-4-4-4-4-4-4-4-4-4-------------------|

G|-----------------------------------------------------------------------------|
D|-----------------------------------------------------------------------------|
A|-6-6-6-6-6-6-6--------------------------------6-6-6-6-6-6-6-6-6-6-6-6-6-6-6--|
E|----------------4-4-4-4-4-4-4-4-4-4-4-4-4------------------------------------|

G|-----------------------------------------------------------------------------|
D|-----------------------------------------------------------------------------|
A|-------------------------------6-6-6-6-6-6-6-6-6-6-6-6-6-6-6-----------------|
E|-4-4-4-4-4-4-4-4-4-4-4-4-4---------------------------------------------------|

Interlude  (the bit in the video when Billie imitates shooting a gun I his head)
G|-------------------------------0---|---------------------------------0-------|
D|-------------------------------0---|---------------------------------0-------|
A|-------------------------------0---|---------------------------------0-------|
E|-------------------------------0---|---------------------------------0-------|
 
G|-------------------------------0---|---------------------------------0-------|
D|-------------------------------0---|---------------------------------0-------|
A|-----------------------------------|---------------------------------0-------|
E|-----------------------------------|---------------------------------0-------|

G|-------------------------------0---|-----------------------------------------|
D|-------------------------------0---|-----------------------------------------|
A|-------------------------------0---|-----------------------------------------|
E|-------------------------------0---|------------------------------9\---------|

Outro
G|-----------------------------------|-----------------------------0-----------|
D|-----------------------------------|-----------------------------0-----------|
A|------------4--4----------4--------|------------4--4----------4--0-----------|
E|---4--4--0--------0--2-2-----4--2--|4--4--0--------0--2-2-----4--------------|

G|------------6--6----------6--------|
D|---6--6-----6--6-----4-4--6--6--4--|
A|---6--6-----4--4-----4-4--4--6--4--|  (pause for clean played guitar)
E|---4--4--0--------0--2-2-----4--2--|

G|------6--6-------------------------|
D|---4--6--6--6----------------------|
A|---4--4--4--6----------------------|
E|---2--------4----------------------|


Order

Intro
Main Riff
Verse
Chorus
Fill 1
Main Riff
Verse
Chorus
Fill 1
Main riff x2
Solo 
Interlude
Chorus
Outro

Lyrics

(Verse 1)

(Verse 1)
Don't wanna' be an American idiot
Don't want a nation under the new media 
Hey, can you hear the sound of hysteria?
The subliminal mind-fuck America

(Chorus)
Welcome to a new kind of tension
All across the alien nation
Everything isn't meant to be OK                 
Television dreams of tomorrow
We're not the ones who're meant to follow
For that's enough to argue

(Verse 2)
Well, maybe I'm the faggot, America
I'm not a part of a redneck agenda              
Now everybody do the propaganda
And sing along in the age of paranoia

(Interlude)
Don't wanna' be an American idiot
One nation by the media
Information age of hysteria?
It's calling out to idiot America

(Chorus)
Welcome to a new kind of tension
All across the alien nation
Everything isn't meant to be OK                 
Television dreams of tomorrow
We're not the ones who're meant to follow
Well that's enough to argue

--------------------------------------------------------------------------------------
Green Day Jesus of Suburbia 
--------------------------------------------------------------------------------------
(I have separated each part of this song just like it is on the CD, and I have tabbed
each part of it as separate songs, OKAY!

--------------------------------------------------------------------------------------
I.   Jesus of Suburbia 
--------------------------------------------------------------------------------------

Verse
G|------------------------------------------------------------------------------|
D|------------------------------------------------------------------------------|
A|------------------------------------------------------------------------------|
E|---9--9--9--9--6-6-6-6---2-2-2-2-2-2-2-2-2-2-2-2--4-4-4-4-4-4-4-4-4-4-4-4-----|

G|------------------------------------------------------------------------------|
D|------------------------------------------------------------------------------|
A|------------------------------------------------------------------------------|
E|---9--9--9--9--6-6-6-6---2-2-2-2-2-2-2-2-2-2-2-2--4-4-4-4-4-4-4-4-4-4-4-4-----|

Chorus
G|------------------------|
D|------------------------|
A|------------------------| x3
E|-2-2-2-2-x--4-4-4-4-4-4-|

Post Chorus
G|-----------------------------|
D|-----------------------------| x2
A|-----------------------------|
E|---9--9--4-4--x--2-2-2-2-2-2-|

Outro
G|------------------------------------------------------------------------------|
D|------------------------------------------------------------------------------|
A|------------------------------------------------------------------------------|
E|---9--9--9--9--6-6-6-6---2-2-2-2-2-2-2-2-2-2-2-2--4-4-4-4-4-4-4-4-4-4-4-4-----|

G|------------------------------------------------------------------------------|
D|------------------------------------------------------------------------------|
A|--------------------------1-1-1-----------------------------------------------|
E|--9--9--9--9--1-1-1-1--x---------4-4-4--x--2~~--------------------------------|

Order

Verse
Chorus
Post chorus
Verse
Chorus
Post chorus
Outro

Lyrics

((Verse 1)
I'm the son of rage and love
The Jesus of Suburbia                          
From the Bible of "none of the above"
On a steady diet of 

Soda pop and Ritalin
No one ever died for my sins in hell            
As far as I can tell 
At least the ones I've gotten away with

(Chorus)
And there's nothing wrong with me
This is how I'm supposed to be               
In a land of make believe
That don't believe in me

(Verse 2)
Get my television fix 
Sitting on my crucifix                          
The living room in my private womb
While the moms and brads are away

To fall in love and fall in debt
To alcohol and cigarettes  
And Mary Jane to keep me insane
And doing someone else's cocaine

(Chorus)
And there's nothing wrong with me
This is how I'm supposed to be               
In a land of make believe
That don't believe in me


--------------------------------------------------------------------------------------
II.     City of the damned (1.51)
--------------------------------------------------------------------------------------
Fade out from Jesus of Suburbia 

G|------------------------------------------------------------------------------|
D|------------------------------------------------------------------------------|
A|------------------------------------------------------------------------------|
E|--2--x--4---------------------------------------------------------------------|

Verse                                       Verse fill (flanger effect)  
G|---------------------------------------|  G|-------------------------|
D|---------------------------------------|  D|-------------------------|
A|---------------------------------------|  A|--5~--5-5-4~--4~--4-4-2~-|
E|-1/4--4-4-4-4-4-4-4-4--6-6-6-6-6-6-6-6-|  E|-------------------------|

Chorus
G|--------------------------------------------------------------------------|
D|--------------------------------------------------------------------------|
A|--------------------------------------------------------------------------|
E|-1/4--7-7-7-7-7-7-7-7--5-5-5-5-5-5-5-5--8-8-8-8-8-8-8-8--3-3-3-3-3-3-3-3--|

G|--------------------------------|
D|--------------------------------|
A|--------------------------------|
E|--7-7-7-7--5-5-5-5--3-3-3-3-3-3-|

Outro
G|------------------------------------------------------------------------------|
D|------------------------------------------------------------------------------|
A|------------------------------------------------------------------------------|
E|-3-3-3-3-3-3--3-3-3-3-3-3--3-3-3-3-3-3----------------------------------------|

Order

Intro
Verse
Verse fill
Verse
Chorus x2
Verse
Verse fill
Verse
Chorus x2

Lyrics

(Verse 1)
At the center of the earth
In the parking lot                              
Of the 7-11 were I was taught
The motto was just a lie

It says home is were your heart is
But what a shame                                
Cause everyone's heart doesn't beat the same
We're beating out of time

(Chorus)
City of the dead
At the end of another lost highway
Sign misleading to nowhere                      
City of the damned
Lost children with dirty faces today
No one really seems to care

(Verse 2)
I read the graffiti
In the bathroom stall                           
Like the holy scriptures of a shopping mall
And so it seemed to confess

It didn't say much
But it only confirmed that                     
The center of the earth is the end of the world
And I could really care less 

(Chorus)
City of the dead
At the end of another lost highway
Sign misleading to nowhere                      
City of the damned
Lost children with dirty faces today
No one really seems to care

--------------------------------------------------------------------------------------
III.    I Don't Care (3.41)
--------------------------------------------------------------------------------------

Intro
G|------------------------------------------------------------------------------|
D|------------------------------------------------------------------------------|
A|----------4-4-4-----------4-4-4-----------4-4-4-------------------------------| x2
E|-4-4-4-4---------4-4-4-4---------2-2-2-2---------4-4-4-4--4-4-4-4-------------|

Verse
G|------------------------------------------------------------------------------|
D|------------------------------------------------------------------------------|
A|-4-4-4-4-4-4-4-4--------------------------------------------------------------|
E|------------------5--4--------------------------------------------------------|

Verse part 2
G|-----------------|
D|-----------------|
A|--4-4-4-4-4------|
E|-------------5-4-|

Chorus
G|-------------------------|-------------------------|--------------------------|
D|-------------------------|-------------------------|--------------------------|
A|---------------------4---|---------------------4---|---------------------4----|
E|-2-2-2-2--4-4-4-4-4----4-|-2-2-2-2--4-4-4-4-4----4-|-2-2-2-2--4-4-4-4-4----4--|

G|------------------------------------------------------------------------------|
D|------------------------------------------------------------------------------|
A|------------------------------------------------------------------------------|
E|-2-2-2-2-2-2--4-4-4-4-4-4-----------------------------------------------------|

Outro

G|-----------------------|-----------------------|------------------------------|
D|-----------------------|-----------------------|------------------------------|
A|-------4-4-4-4-4-4-4-4-|-------4-4-4-4-4-4-4-4-|-------4-4-4-4-4-4-4-4--------|
E|-2--4------------------|-2--4------------------|-2--4-------------------------|

G|-----------------------|------------------------------------------------------|
D|-----------------------|------------------------------------------------------|
A|-------4-4-4-4-4-4-4-4-|-4-4-4-4----------------------------------------------|
E|-2--4------------------|---------4--------------------------------------------|

Order

Intro
Verse x4
Verse part 2 x8
Chorus
Outro

Lyrics:

(Intro part 2)      
I don't care if you don't
I don't care if you don't               
I don't care if you don't care

I don't care if you don't
I don't care if you don't               
I don't care if you don't care

I don't care if you don't
I don't care if you don't               
I don't care if you don't care

I don't care if you don't
I don't care if you don't               
I don't care if you don't care
                         
(Verse)
I don't care!                           

(Verse Part 2)
Everyone is so full of shit
Burn and raised by hipocrits
Hearts recycled but never saved
From the cradle to the grave            
We are the kids of war and peace
From Anaheim to the Middle Mast
We are the stories and disciples
Of the Jesus of suburbia

(Chorus)                
Land of make believe
And it don't believe in me              
Land of make believe
And I don't believe

(Outro)
And I don't care!
I don't care!
I don't care!                           
I don't care!
I don't care!


--------------------------------------------------------------------------------------
IV. Dearly Beloved (5.20)
--------------------------------------------------------------------------------------
Fade out from I Don't Care

Intro
G|------------------------------------------------------------------------------|
D|------------------------------------------------------------------------------|
A|----------------------------------3--4----------------------------------------|
E|-4-4-4-4-4-4-4-4-4-4-4-4-4-4-4-4----------------------------------------------|
PM *******************************

Intro part 2
G|------------------|------------------|--------------------|--------------|-------|
D|------------------|------------------|--------------------|--------------|-------|
A|--------------3-4-|--------------3-4-|----------------3-4-|----------3-4-|-------|
E|-4-4-4-4-4-4------|-4-4-4-4-4-4------|-4-4-4-4-4-4-4------|-4-4-4-4------|-4-4-4-|
PM ***********        ***********        *************        *******        *****

Verse
G|----------------|-------------|-------------|-----------------|-----------------|
D|----------------|-------------|-------------|-----------------|-----------------|
A|----------------|-3-3-3-3-3-3-|-4-4-4-4-4-4-|-----------------|-----------------|
E|-4-4-4-4-4-4-4--|-------------|-------------|-4-4-4-4-4-4-4-4-|-6-6-6-6-6-6-6-6-|
PM ***   *   *      *   *   *     *   *****     *   *   *   ***   *   *   *****   

Order

Intro
Intro part 2
Verse x5

Lyrics

(Intro)
Dearly beloved are you listening?
I can't remember a word that you were saying

(Verse)
Are we demented or are we disturbed?
The space that's in between insane and insecure
Oh therapy, can you please fill the void?
Am I retarded or am I just overjoyed
Nobody's perfect and I stand accused?
For lack of a better word, and that's my beat excuse


--------------------------------------------------------------------------------------
V.  Tales of Another Broken Home (6.30)
--------------------------------------------------------------------------------------

Intro/verse
G|-----------------------|
D|-----------------------|
A|---------------------4-|
E|-4--4-4-4-4-4-4-4--2---|

Chorus
G|------------------|
D|------------------|
A|-4-----4-----4----|
E|----4-----4-----4-|

Fill
G|-------------------------|
D|-------------------------|
A|-----------------------4-|
E|-4-4-4-4-4-4-4-4-4--2----|

Solo (bass plays this will guitar plays solo)
G|-------------------------|
D|-------------------------|
A|-----------------------4-| x6
E|-4-4-4-4-4-4-4-4-4--2----|

G|------------------|------------------|------------------|---------------------|
D|------------------|------------------|------------------|---------------------|
A|-4-----4-----4----|-6-----6-----6----|-4-----4-----4----|-6-----6-----6-------| x2
E|----4-----4-----4-|----4-----4-----4-|----4-----4-----4-|----4-----4-----4----|

(Piano bit - no bass) 

Outro
G|-------------------------|    |----------------------------|
D|-------------------------|    |----------------------------|
A|-----------------------4-| x3 |-----------------------4----| x3
E|-4-4-4-4-4-4-4-4-4--2----|    |-4-4-4-4-4-4-4-4-4--2-----4-|

Order

Intro/verse x11
Chorus
Intro/verse x7
Chorus x8
Fill x2
Solo
Piano bit
Outro

Lyrics

(Verse 1)
To live and not to breathe
Is to die in tragedy                   
To run, to run away
To find what you believe

(Chorus)
And I 
Leave behind                            
This hurricane of fucking lies

(Verse 2)
I lost my faith to this
This town that don't exist              
So I run, I run away
The light of masochist

(Chorus)
And I 
Leave behind                            
This hurricane of fucking lies

(Chorus 2)
And I 
Walked this line                        
A million and one fucking times

(Fill)
But not this time

(Piano Bit)
I don't feel any shame
I wont apologize
When there ain't nowhere you can go     
Running away from pain
When you've been victimized
Tales from another broken...

(Outro)
Home!
You're leavin'
You're leavin'                          
You're leavin'
You're leavin HOME!

--------------------------------------------------------------------------------------
Green Day Holiday
--------------------------------------------------------------------------------------

Intro (play this on the 4th repeat of the guitar intro, while they are playing the
last chord)
G|-x-x-x-x--|
D|-x-x-x-x--|
A|-x-x-x-x--|
E|-x-x-x-x--|   

Main Riff
G|---------------------------------|---------------------------------|
D|---------------------------------|---------------------------------|
A|--8--8--8--4-4-4---------6-6-6-6-|--8--8--8--4-4-4---------6-6-6-6-|
E|------------------4-4-4----------|------------------4-4-4----------|

Verse
G|---------------------------------|---------------------------------|
D|---------------------------------|---------------------------------|
A|--8--8--8--4-4-4---------6-6-6-6-|--8--8--8--4-4-4---------3-3-3-3-|
E|------------------4-4-4----------|------------------4-4-4----------|

G|-------------------------------------------------------------------|
D|-------------------------------------------------------------------|
A|--8--8--8--4-4-4---------6-6-6-6--3-3-3-3-3-3-3-3-3----------------|
E|------------------4-4-4--------------------------------------------|

Chorus
G|--------------------------------------------------------------------------------|
D|--------------------------------------------------------------------------------|
A|---------4-4-4-4----------6-6-6-6-6-6-----------4-4-4-4----------3-3-3-3-3-3-3-3|
E|1-1-1-1----------4-4-4-4---------------1-1-1-1----------4-4-4-4-----------------|

Bridge                              ('hey')
G|-------------------|-------------------|-------------------|-------------------|
D|-------------------|-------------------|-------------------|-------------------|
A|----------4--1-6-3-|----------4--1-6-5-|----------4--1-6-3-|----------4--1-6-5-|
E|-1-1--4-4----------|-1-1--4-4----------|-1-1--4-4----------|-1-1--4-4----------|

Solo (play this while guitar plays a note solo)
G|---------|----------|--------|-----------|---------|----------|-----------------|
D|---------|----------|--------|-----------|---------|----------|-----------------|
A|-4-4-4-4-|----------|-3-3-3-3|-8-8-8-8-8-|-4-4-4-4-|----------|-3-3-3-3-3-3-3-3-|
E|---------|-4-4-4-4-4|--------|-----------|---------|-4-4-4-4-4|-----------------|

G|-----------------|-----------------|----------------|
D|-----------------|-----------------|----------------|
A|-3-3-3-3-3-3-3-3-|-3-3-3-3-3-3-3-3-|-3-3-3-3-3-3-3--|
E|-----------------|-----------------|----------------|

Interlude 
G|-------------------|-------------------|
D|-------------------|-------------------|
A|----------4--1-6-3-|----------4--1-6-5-|
E|-1-1--4-4----------|-1-1--4-4----------|

Chorus 2
G|-------------------------------------------------------------------------|
D|-------------------------------------------------------------------------|
A|---------4-4-4-4----------6-6-6-6-6-6-----------4-4-4-4----------3-3-3-3-|
E|1-1-1-1----------4-4-4-4---------------1-1-1-1----------4-4-4-4----------|

G|--------------------------------------------------------------------------------|
D|--------------------------------------------------------------------------------|
A|---------4-4-4-4----------6-6-6-6-6-6-----------4-4-4-4----------3-3-3-3-3-3-3-3|
E|1-1-1-1----------4-4-4-4---------------1-1-1-1----------4-4-4-4-----------------|

G|--------------------------------------------------------------------------------|
D|--------------------------------------------------------------------------------|
A|-3-3-3-3-3-3-3-3--3-3-3-3-3-3-3-3--3-3-3-3-3-3-3-3------------------------------|
E|--------------------------------------------------------------------------------|

End
G|------------------------------------|
D|------------------------------------|
A|--8-8-8--4-4-4--6-----8-------------|
E|-------------------8-----1~~--------|

Order

Intro
Main riff
Verse x2
Chorus
Intro
Verse x2
Chorus
Bridge 
Solo
Interlude x6
Chorus 2
Main riff (one and a half times)
End

(Intro)
Say, Hey

(Verse 1)
Hear the sound of the falling rain
Coming down like an Armageddon flame [Hey!]             
The shame, the ones who died without a name
Here the dogs howling out of key
To a hymn called 'faith and misery' [Hey!]                
And Bleed, the company lost the war today

(Chorus)
I beg to dream and differ from the hollow lies
This is the dawning of the rest of our lives           
On holiday

(Verse 2)
There's a drum pounding out of time
Another protestor has crossed the line [Hey!]           
To find, the money's on the other side
Can I get another Amen?  [Amen!]
There's a flag wrapped around the score of men [Hey!]   
A gag, A plastic bag on a monument

(Chorus)
I beg to dream and differ from the hollow lies
This is the dawning of the rest of our lives         
On holiday

(Bridge)

(Interlude)
The representative from California has the floor:
Zieg Heil! To the president gas Man
Bombs away! (Is your punishment)
Pulverize the Eiffel Towers
Criticize your (government)                               
Bang, Bang! goes the broken glass (man)
Kill all the fags that (don't agree)
Trials by fires, setting fire
It's not a way that's (meant for me)
Just cause... just cause - because we're outlaws yeah!
Backing vocals {hey, hey, hey, hey, hey, hey]

I beg to dream and differ from the hollow lies
This is the dawning of the rest of our lives           
On holiday
I beg to dream and differ from the hollow lies
This is the dawning of the rest of our lives           
This is our lives on holiday


--------------------------------------------------------------------------------------
Green Day Boulevard of Broken Dreams
--------------------------------------------------------------------------------------

Verse  'I walk a lonely road'
G|--------------------------------------|------------------------------------|
D|--------------------------------------|------------------------------------|
A|-------------------5-5-5-5------------|-------------------5-5-5-5----------|
E|-0-0-0-0--3-3-3-3-----------5-5-5-5---|-0-0-0-0--3-3-3-3-----------5-5-5-5-|

G|--------------------------------------|------------------------------------|
D|--------------------------------------|------------------------------------|
A|-------------------5-5-5-5------------|-------------------5-5-5-5----------|
E|-0-0-0-0--3-3-3-3-----------5-5-5-5---|-0-0-0-0--3-3-3-3-----------5-5-5-5-|

G|--------------------------------------|------------------------------------|
D|--------------------------------------|------------------------------------|
A|-------------------5-5-5-5------------|-------------------5-5-5-5----------|
E|-0-0-0-0--3-3-3-3-----------5-5-5-5---|-0-0-0-0--3-3-3-3-----------5-5-5-5-|

'I walk alone I walk alone
I walk alone I walk a-'
e|--------------------------------------|------------------------------------|
B|--------------------------------------|------------------------------------|
G|--------------------------------------|------------------------------------|
D|--------------------------------------|------------------------------------|
A|-------------------5-5-5-5--0-0-0--2-2|------------------------------------|
E|-0-0-0-0--3-3-3-3---------------------|------------------------------------|

Chorus
G|------------------------------------|------------------------------------|
D|------------------------------------|------------------------------------|
A|-4-4-4-4-----------6-6-6-6----------|-4-4-4-4-----------6-6-6-6----------|
E|----------4-4-4-4-----------1-1-1-1-|----------4-4-4-4-----------1-1-1-1-|

G|------------------------------------|------------------------------------|
D|------------------------------------|------------------------------------|
A|-4-4-4-4-----------6-6-6-6----------|-4-4-4-4-------------3-3-3-3---3----|
E|----------4-4-4-4-----------1-1-1-1-|----------4-4-4-4-------------------|

Post Chorus (' aha aha aha')
G|--------------------------------------|------------------------------------|
D|--------------------------------------|------------------------------------|
A|-------------------5-5-5-5------------|-------------------5-5-5-5----------|
E|-0-0-0-0--3-3-3-3-----------5-5-5-5---|-0-0-0-0--3-3-3-3-----------5-5-5-5-|

Fill 1 (' aha aha aha')
G|------------------------------------|--------------------------------------|
D|------------------------------------|--------------------------------------|
A|-------------------5-5-5-5----------|------------------5-5-5-5--0-0-0--2-2-|
E|-0-0-0-0--3-3-3-3-----------5-5-5-5-|0-0-0-0--3-3-3-3----------------------|

Solo  (play this while guitar plays an octave solo)
G|------------------------------------|-----------------------------------------|
D|------------------------------------|-----------------------------------------|
A|-4-4-4-4-----------6-6-6-6----------|---4-4-4-4-------------6-6-6-6-----------|
E|----------4-4-4-4-----------1-1-1-1-|-------------4-4-4-4-------------1-1-1-1-|

G|------------------------------------|------------------------------------|
D|------------------------------------|------------------------------------|
A|-4-4---------------6-6-6-6----------|-4-4---------------3-3-3-3-3-3-3-3--|
E|----------4-4---------------1-1-1-1-|----------4-4-----------------------|

G|------------------------------------|
D|------------------------------------|
A|-3-3-3-3--3#------------------------|
E|------------------------------------|

Pre Outro
Guitar 1
G|------------------------------------|------------------------------------|
D|------------------------------------|------------------------------------|
A|-4-4-4-4-----------6-6-6-6----------|-4-4-4-4-----------6-6-6-6----------|
E|----------4-4-4-4-----------1-1-1-1-|----------4-4-4-4-----------1-1-1-1-|

G|------------------------------------|------------------------------------|
D|------------------------------------|------------------------------------|
A|-4-4-4-4-----------6-6-6-6----------|-4-4-4-4-------------3-3-3-3--------|
E|----------4-4-4-4-----------1-1-1-1-|----------4-4-4-4-------------------|

G|------------------------------------|
D|------------------------------------|
A|-3-3-3-3-3-3-3-3-3-3-3-3------------|
E|------------------------------------|


Outro
Guitar 1 
G|----------------------------------------|----------------------------------------|
D|----------------------------------------|----------------------------------------|
A|-------4-4-4--6-6-6--5-5-5--------------|-------4-4-4--6-6-6--5-5-5--------------|
E|-1-1-1---------------------4-4-4--0-0-0-|-1-1-1---------------------4-4-4--0-0-0-|

G|----------------------------------------|-------------------------------------|
D|----------------------------------------|-------------------------------------|
A|-------4-4-4--6-6-6--5-5-5--------------|-------4-4-4--6-6-6--5-5-5-----------|
E|-1-1-1---------------------4-4-4--0-0-0-|-1-1-1---------------------4-4--0-0--|


Order

Verse
Chorus
Post Chorus
Verse 
Chorus
Fill 1
Solo
Fill l (now with acoustic sound)
Pre Outro
Outro

(Lyrics)

(Verse)
I walk a lonely road
The only one I that have ever known
Don't know were it goes
But its home to me and I walk alone
I walk this empty street
On the boulevard of broken dreams
Where the city sleeps
And I'm the only one and I walk alone
I walk alone I walk alone
I walk alone I walk a

(Chorus)
My shadows... only one that walks beside me
My shallow... hearts' the only thing that's beating
Sometimes I wish someone out there will find me
Till then I'll walk alone

(Verse 2)
I'm walking down the line
That divides me somewhere in my mind
On the border line of the edge
And were I walk alone
Read between the lines 
What's fucked up and every things all right
Check my vital signs to know I'm still alive
And I walk alone
I walk alone I walk alone
I walk alone I walk a-

(Chorus)
My shadows only one that walks beside me
My shallow hearts' the only thing that's beating
Sometimes I wish someone out there will find me
Till then I'll walk alone

(Verse 3)
I walk this empty street
On the boulevard of broken dreams
Where the city sleeps
And I'm the only one and I walk a-

(Chorus)
My shadows only one that walks beside me
My shallow hearts' the only thing that's beating
Sometimes I wish someone out there will find me
Till then I'll walk alone

--------------------------------------------------------------------------------------
Green Day Are we waiting
--------------------------------------------------------------------------------------
entirely played by guitar, but here are the lyrics

Lyrics

(Verse 1)
Starry nights city lights
Coming down over me                             
Skyscrapers and stargazers                      
In my head
Are we we are, Are we we are
The waiting unknown

(Pre-Chorus)
This dirty town was burning down in my dreams   
Lost and found city bound in my dreams

(Chorus)
And screaming
Are we we are, Are we we are the waiting        
And screaming
Are we we are, Are we we are the waiting

(Verse 2)
Forget me nots and second thoughts
Live in isolation
Heads or tails and fairytales                   
In my mind
Are we we are, Are we we are 
The waiting unknown

(Pre-Chorus)
The rage and love, the story of my life         
The Jesus of suburbia is a lie

(End)
And screaming
Are we we are, Are we we are the waiting 
And screaming
Are we we are, Are we we are the waiting
                                                
Are we we are, Are we we are the waiting 
And screaming
Are we we are, Are we we are the waiting

Are we we are, Are we we are the waiting 


--------------------------------------------------------------------------------------
Green Day St. Jimmy
--------------------------------------------------------------------------------------

Riff 
(This is not played separately I just tabbed it separately cos its easier to read this way
G|------------------------------------------------------------------------------|
D|------------------------------------------------------------------------------|
A|-0-0-0-0-0-0-0-0-0-0-0-0-0-0-0-0-0-0------------------------------------------|
E|------------------------------------------------------------------------------|
PM ***********************************

Intro
G|------------------------------------------------------------------------------|
D|------------------------------------------------------------------------------|
A|---(riff)--5----(riff)--5----(riff)--5-----(riff)--5-----(riff)--5-----(riff)-|
E|-5------------5------------5------------5-------------5-------------5---------|

             ('1,2,3,4')
G|------------------------------------------------------------------------------|
D|------------------------------------------------------------------------------|
A|-5---7---5--------------------------------------------------------------------|
E|------------------------------------------------------------------------------|

Verse 
G|------------------------------------|-----------------------------------------|
D|------------------------------------|-----------------------------------------|
A|----------5-5-5-5--7-7-7-7----------|----------5-5-5-5--7-7-7-7---------------|
E|-5-5-5-5--------------------5-5-5-5-|-5-5-5-5--------------------5-5-5-5------|

Chorus
G|------------------------------------------------------------------------------|
D|------------------------------------------------------------------------------|
A|-5-5-5-5-5-5-5-5-------------------5-5-5-5-5-5-5-5-------------------5-xx-5-7-|
E|------------------5-5-5-5-5-5-5-5-------------------5-5-5-5-5-5-5-5-----------|

Bridge
G|------------------------------|  |----------------------------------------|
D|------------------------------|  |----------------------------------------|
A|----5-----5--7-7-7-7-7-7-7-7--|x3|----------7-7-7-7---------------6-6-6-6-| x4
E|-5-----5----------------------|  |-5-5-5-5------------8--8--8--8----------|

G|-------------------------------------|---------------------------------------|
D|----------------------------7-7-7-7--|-7-7-7-7-------------------------------|
A|----------5-5-5-5--7-7-7-7-----------|----------5-5-5-5--7-7-7-7-7-7-7-7-7-7-|
E|-5-5-5-5-----------------------------|---------------------------------------|

(Pause while guitar plays Solo)

Outro
G|-------------------------|  |-------------------|----------------------------|
D|-------------------------|  |-------------------|----------------------------|
A|---------5-5-5-5---------|x4|-------5~--7-7-----|--------5~--7-7-------------|
E|-5-5-5-5---------3-3---5-|  |-5-5~-----------5~-|-5~-5~-----------5~--5-5-5--|

End ('and don't wear it out')
G|--------------------------|
D|--------------------------|
A|--------------------------|
E|--5----5-----5----5-------|

Order

Intro
Verse x3
Chorus
Verse x3
Chorus
Bridge
Solo
Outro
End


Lyrics

(Intro)
(Intro)
St. Jimmy's comin' down across the alleyway
Up on the boulevard like a zip gun on parade
Life on the silhouette                                  
He's insubordinate
Coming at you on account of 1,2
! 1, 2, 3, 4 !

(Verse 1)
My name is Jimmy and you better not wear it out
Suicide commando that your momma talked about        
King of the forty thieves im here to represent
That needle in the vein of the establishment

(Chorus)
I'm the patron saint of the denial              
With an angel face and a taste for suicidal             

(Verse 2)
Cigarettes and ramen and a little bag of dope 
I am the son of a bitch and Edgar Allen Poe             
Raised in the city under a halo of rights               
The product of war and fear that we've been victimized

(Chorus)
I'm the patron saint of the denial
With an angel face and a taste for suicidal             

(Bridge)
You talking to me?
I'll give you something to cry about.                   
ST. JIMMY

(Solo)
My name is St. Jimmy I'm a son of a gun
I am the one that's from the way outside now
A teenage assassin executing some fun
In the cult of the life of crime now

(Outro)
I really hate to say it but I told you so
So shut your mouth before I shoot you down old boy
Welcome to the club and give me some bud
I'm the resident leader at the lost and found	

(End)
It's comedy and tragedy
It's St. Jimmy 
And that's my name.
...And don't wear it out!


--------------------------------------------------------------------------------------
Green Day Give me Novacaine
--------------------------------------------------------------------------------------
Intro played by acoustic guitar

Come in with lyrics
Verse
G|----------------------------------------------------------------------|
D|----------------------------------------------------------------------|
A|-------------------------------------2--2-2--2-2-2-2------------------|
E|-5--5-5--5-5-5-5---2--2-2--2-2-2-2--------------------0--0-0--0-0-0-0-|

Pre Chorus
G|----------------------------------------------------------------------|
D|-----------drain the pressure ----------------------------------------|
A|-5-5-5-5----from the swelling)----------------------------------------|
E|-------------------------------5-5-5-5-5-5-5-5-5-5-5-5-5-5-5-5--------|

G|----------------------------------------------------------------------|
D|-----------(this sensation's -----------------------------------------|
A|-5-5-5-5---- over whelming))------------------------------------------|
E|-------------------------------5-5-5-5-5-5-5-5-5-5-5-5-5-5-5-5--------|

Chorus
G|----------------------------------------------------------------------|
D-----------------------------------------------------------------------|
A|-5-5-5-5-5-5-5-5-5-5-5-5---------------------------2-2-2-2-2-2-2-2-2-2|
E|--------------------------2-2-2-2-2-2-2-2-2-2-2-2---------------------|

G|----------------------------------------------------------------------|
D|----------------------------------------------------------------------|
A|-2-2-/--7-7-7-7-7-7-7-7-7-7-------------------------------------------|
E|----------------------------------------------------------------------|

Pre Solo
G|----------------------------------------------------------------------|
D|----------------------------------------------------------------------|
A|----------------------------------------------------------------------|
E|-x-x-x-x--5-5-5-5-5-5-5-5-5-5-5-5-5-5-5-5-5-5-5-5-5-5-5-5-5-5-5-5-5-5-|

Solo (play this while guitar plays a note solo)
E|------------------------|------------------------|
B|------------------------|------------------------|
G|------------------------|------------------------|
D|-4-4-4-4-4-4-4-4-4-4-4-4|-7-7-7-7-7-7-7-7-7-7-7-7| x3
A|-4-4-4-4-4-4-4-4-4-4-4-4|-7-7-7-7-7-7-7-7-7-7-7-7|
E|-2-2-2-2-2-2-2-2-2-2-2-2|-5-5-5-5-5-5-5-5-5-5-5-5|

E|------------------------|--------------------------------|     
B|------------------------|--------------------------------|    
G|------------------------|--------------------------------|   
D|-4-4-4-4-4-4-4-4-4-4-4-4|-7-7-7-7-7-7-7-7-7-7-7-7-7-7-7-7|
A|-4-4-4-4-4-4-4-4-4-4-4-4|-7-7-7-7-7-7-7-7-7-7-7-7-7-7-7-7|
E|-2-2-2-2-2-2-2-2-2-2-2-2|-5-5-5-5-5-5-5-5-5-5-5-5-5-5-5-5|	

Outro
G|----------------------------------------------------------------------|
D|----------------------------------------------------------------------|
A|-------------------------------------2--2-2--2-2-2-2------------------|
E|-5--5-5--5-5-5-5---2--2-2--2-2-2-2--------------------0--0-0--0-0-0-0-|

Order

Intro
Verse x2
Pre Chorus
Chorus
Verse x3
Pre Chorus
Chorus
Pre Solo
Solo
Pre Chorus
Chorus
Outro

Lyrics

(Verse)
Take away the sensation inside 
Bittersweet migraine in my head 
It's like a throbbing toothache of the mind 
I can't take this feeling anymore 

(Pre Chorus)
Drain the pressure from the swelling, 
The sensation's overwhelming, 

(Chorus)
Give me a kiss goodnight and 
Everything will be all right 
Tell me that I won't feel a thing 
So give me novacaine 

(Verse 2)
Out of body and out of mind 
Kiss the demons out of my dreams 
I get the funny feeling, that's all right 
Jimmy says it's better than air, 
I'll tell you why 

(Pre Chorus)
Drain the pressure from the swelling, 
The sensations overwhelming, 

(Chorus)
Give me a kiss goodnight and 
Everything will be all right, 
Tell me that I won't feel a thing, 
So give me novacaine 

Oh novacaine 

(Pre Chorus)
Drain the pressure from the swelling, 
The sensations overwhelming 

(Chorus)
Give me a kiss goodnight and 
Everything will be all right, 
Tell me, Jimmy, I won't feel a thing, 
So give me novacaine



--------------------------------------------------------------------------------------
Green Day She's a rebel
--------------------------------------------------------------------------------------

Intro
G|---------------------------------------------------------------------------|
D|---------------------------------------------------------------------------|
A|-----------------5-5--3-3-------------------5-5--3-3-----------------------|
E|--3-3--3-3--3-3--------------3-3--3-3--3-3---------------------------------|

Verse
G|-----------------------------------------------|
D|-----------------------------------------------|
A|--------3-3---------3-3---------3-3--5-5--3-3--|
E|-3-x-x-------3-x-x-------3-x-x-----------------|

Chorus
G|---------------------------------------------------------------------------|
D|-------------------------------------------------------------------3-3-3-3-|
A|-7-7-7-7-------------3-3-3-3-------------------7-7-7-7---------------------|
E|----------7-7-7-7-7-----------3-3-3-3-3-3-3-3-----------7-7-7-7-7----------|

G|---------------------------------------------------------------------------|
D|--------------------------5------------------------------------------------|
A|-3-3-3-3-------------3-3----5----------------------------------------------|
E|-----------7-7--5-5--------------------------------------------------------|

Bridge (guitar plays in the foreground but bass plays the chorus one more time)

Outro 
G|---------------------------------------------------------------------------|
D|---------------------------------------------------------------------------|
A|--------3-3---------3-3---------3-3--5-5--3-3------------------------------|
E|-3-x-x-------3-x-x-------3-x-x---------------------------------------------|


Order

Intro
Verse x5
Chorus
Bridge
Chorus
Intro
Outro x4

Lyrics

Lyrics:

(Intro)
She's a rebel
She's a saint                   
She's the salt of the earth
And she's dangerous             
She's a rebel
Vigilante                       
Missing link on the brink       
Of destruction

(Verse 1)
From Chicago 
To Toronto                      
She's the one that they
Call old Whatsername            
She's the symbol
Of resistance                   
And she's holding on my
Heart like a hand grenade

Is she dreaming
What I'm thinking
Is she the mother of all bombs  
Gonna detonate                  
Is she trouble                  
Like I'm trouble
Make it a double                
Twist of fate
Or a melody that

(Chorus)
She sings the revolution
The dawning of our lives
She brings this liberation      
That I just cant define
Well nothing comes to mind

(Bridge)

(Chorus)

(Intro)
(Intro - lyrics verse played)


She's a rebel
She's a rebel                   
She's a rebel           
And she's dangerous            
She's a rebel
She's a rebel                   
She's a rebel
And she's dangerous


--------------------------------------------------------------------------------------
Green Day Extraordinary Girl
--------------------------------------------------------------------------------------

Verse
G|------------------------------------------------------------------------------|
D|-2-2-2-2-2-2--0-0-0-0-0-0--2-2-2-2-2-2--0-0-0-0-0-0--2-2-2-2-2-2--0-0-0-0-0-0-|
A|------------------------------------------------------------------------------|
E|------------------------------------------------------------------------------|

G|---------------------------------------------------------------------------|
D|-2-2-2-2-2-2--0-0-0-0-0-0--2-2-2-2-2-2---------------2-2-2--2-2-2--2-2-2---|
A|---------------------------------------------------------------------------|
E|----------------------------------------3-3-3-3-3-3------------------------|

Verse part 2
G|-------------------------------------------------------------------------------|
D|-2-2-2-2-2-2--0-0-0-0-0-0--2-2-2-2-2-2--0-0-0-0-0-0--2-2-2-2-2-2---------------|
A|-------------------------------------------------------------------------------|
E|------------------------------------------------------------------3-3-3-3-3----|

G|-----------------------------|
D|-----2-2-2-2-2-2-2-2-2-------|
A|-----------------------------|
E|-----------------------------|

Chorus 
G|----------------------------------------------------------------------------|
D|----------------------------------------------------------------------------|
A|------------------------5-5-5--7-7-7---------------------------5-5-5--7-7-7-|
E|-2-2-2-2-x--0-0-0-0-0------------------2-2-2-2-x--0-0-0-0-0-----------------|

G|--------------------------------------|
D|--------------------------------------|
A|-5-5-5-5-5--7-7-7-7-7---5~~~---7#-----|
E|--------------------------------------|

Chorus 2
G|----------------------------------------------------------------------------|
D|----------------------------------------------------------------------------|
A|------------------------5-5-5--7-7-7---------------------------5-5-5--7-7-7-|
E|-2-2-2-2-x--0-0-0-0-0------------------2-2-2-2-x--0-0-0-0-0-----------------|

G|----------------------|----------------------|------------------------------|
D|----------------------|----------------------|------------------------------|
A|-5-5-5-5-5--7-7-7-7-7-|-5-5-5-5-5--7-7-7-7-7-|-5-5-5-5-5--7-7-7-7-7---------|
E|----------------------|----------------------|------------------------------|

Order

Verse
Verse part 2
Chorus
Verse
Verse part 2
Chorus
Verse part 2 x 2
Chorus 2
Verse part 2

Lyrics:

(Verse)
She's an extraordinary girl
In an ordinary world
And she can't seem to get away
He lacks the courage in his mind
Like a child left behind
Like a pet left in the rain

(Chorus)
She's all alone again
Wiping the tears from her eyes
Some days he feels like dying
She gets so sick of crying

(Verse)
She sees the mirror of herself
An image she wants to sell
To anyone willing to buy
He steals the image in her kiss
From her hearts apocalypse
From the one called whatsername

(Chorus)
She's all alone again
Wiping the tears from her eyes
Some days he feels like dying
She gets so sick of crying

(Verse part 2)

 (Chorus 2)
She's all alone again
Wiping the tears from her eyes
Some days he feels like dying
Some days it's not worth trying
Now that they both are finding
She gets so sick of crying

She's an extraordinary girl
An extraordinary girl
An extraordinary girl
An extraordinary girl


--------------------------------------------------------------------------------------
Green Day Letter Bomb
--------------------------------------------------------------------------------------

Intro					        
G|-----------------|-----------------|-----------------|-----------------|
D|-----------------|-----------------|-----------------|-----------------|
A|-7-7-7-7-7-7-7-7-|-7-7-7-7-7-7-7-7-|-7-7-7-7-7-7-7-7-|-7-7-7-7-7-7-7-7-|
E|-----------------|-----------------|-----------------|-----------------|

G|-----------------|-----------------|-----------------|-----------------|
D|-----------------|-----------------|-----------------|-----------------|
A|-7-7-7-7-7-7-7-7-|-7-7-7-7-7-7-7-7-|-6-6-6-6-6-6-6-6-|-6-6-6-6-6-6-6-6-|
E|-----------------|-----------------|-----------------|-----------------|

G|-----------------|-----------------|-----------------|-----------------|
D|-----------------|-----------------|-----------------|-----------------|
A|-7-7-7-7-7-7-7-7-|-7-7-7-7-7-7-7-7-|-7-7-7-7-7-7-7-7-|-7-7-7-7-7-7-7-7-|
E|-----------------|-----------------|-----------------|-----------------|

Intro Part 2
G|-----------------------------------------------------------------------|
D|-----------------------------------------------------------------------|
A|----------------------------------------------4-4-4-4-4-4-4-4-4-4------|
E|-7\-0-0-0-0-0-0-0-0-0-0--4-4-4-4-4-4-4-4-4-4-----------------------5-5-|

G|-----------------------------------------------------------------------| 
D|-----------------------------------------------------------------------|
A|-----------------------------------------------------------------------|
E|-5-5-5-5-5-5-5---------------------------------------------------------|

Verse
G|-----------------------------------------------------------------------|
D|-----------------------------------------------------------------------|
A|-----------------------------------------------------------------------|
E|-0-0-0-0-0-0-0-0-0--5-5-5-5-5-5-5-5--2-2-2-2--5-5-5-5--0-0--0-0--0-0-0-|
PM   ***************

G|-----------------------------------------------------------------------|
D|-----------------------------------------------------------------------|
A|---------------------4-4-4-4-4-----------------------------------------|
E|-0-0-0-0-0--4-4-4-4-------------4-4-4-4-------------5-5-5-5--2-2-2-2---|

G|----------------|
D|----------------|
A|----------5-----|
E|--7--5-5-----7--|

Verse 2
G|-----------------------------------------------------------------------|
D|-----------------------------------------------------------------------|
A|-----------------------------------------------------------------------|
E|-0-0-0-0-0-0-0-0-0--5-5-5-5-5-5-5-5--2-2-2-2--5-5-5-5--0-0--0-0--0-0-0-|
PM   ***************

G|-----------------------------------------------------------------------|
D|-----------------------------------------------------------------------|
A|---------------------4-4-4-4-4-----------4-4-4-4-4---------------------|
E|-0-0-0-0-0--4-4-4-4-------------4-4-4-4-------------5-5-5-5--2-2-2-2---|

G|------------------|------------------|--------------------|
D|------------------|------------------|--------------------|
A|---------5--------|---------5--------|---------5----------|
E|-7--5-5-----7-7-7-|-7--5-5-----7-7-7-|-7--5-5-----7-7-7-7-|
 

Pre chorus 
G|---------------------------|---------------------------|-------------------|
D|-------------------------7-|-------------------------2-|-------------------|
A|-------------------------5-|---------------------------|-2-2-2-2-2-2-2-2-2-|
E|-5-5-5-5-5-5-5-5-5--4-4----|-5-5-5-5-5-5-5-5-5--4-4----|-------------------|
                         
e|--------|---------------------------|---------------|
B|--------|---------------------------|---------------|
G|--------|---------------------------|---------------|
D|------2-|-------------------------2-|---------------|
A|--------|-2-2-2-2-2-2-2-2-2---------|---------------|
E|-5-5----|--------------------5-5----|-2-2-2-2-2-2-2-|

Chorus
G|---------------------------------------|---------------------------------------|
D|---------------------------------------|---------------------------------------|
A|-7-7-7-7-------------------------------|---------------------------------------|
E|----------7-7-7-7--5-5-5-5-5-5-5-5-5-5-|----------7-7-7-7--5-5-5-5-5-5-5-5-5-5-|

G|------------------------------------------------------------------------------|
D|------------------------------------------------------------------------------|
A|--------------------------------7-7-7-7---------------------------------~-----|
E|----------7-7-7-7-7--5-5-5-5\1-----------7-7-7-7-7--5-5-5-5-5-5-5-5-5--2~--5#-|

Bridge
G|-----------------|-----------------|-----------------|-----------------|
D|-----------------|-----------------|-----------------|-----------------|
A|-7-7-7-7-7-7-7-7-|-7-7-7-7-7-7-7-7-|-7-7-7-7-7-7-7-7-|-7-7-7-7-7-7-7-7-|
E|-----------------|-----------------|-----------------|-----------------|

G|-----------------|-----------------|-----------------|-----------------|
D|-----------------|-----------------|-----------------|-----------------|
A|-7-7-7-7-7-7-7-7-|-7-7-7-7-7-7-7-7-|-6-6-6-6-6-6-6-6-|-6-6-6-6-6-6-6-6-|
E|-----------------|-----------------|-----------------|-----------------|

G|-----------------|-----------------|-----------------|-----------------|
D|-----------------|-----------------|-----------------|-----------------|
A|-7-7-7-7-7-7-7-7-|-7-7-7-7-7-7-7-7-|-7-7-7-7-7-7-7-7-|-7-7-7-7-7-7-7-7-|
E|-----------------|-----------------|-----------------|-----------------|


G|------------------------------------------------------------------------------|
D|------------------------------------------------------------------------------|
A|----------------------------------------4-4-4-4-4-4-4-4-4---------------------|
E|-0-0-0-0-0-0-0-0-0--4-4-4-4-4-4-4-4-4----------------------5-5-5-5-5-5-5-5-5--|

G|------------------------------------------------------------------------------|
D|------------------------------------------------------------------------------|
A|------------------------------------------------------------------------------|
E|-0-0-0-0-0-0-0-0-0--4-4-4-4-4-4-4-4-4--12-12-12-12-12--12-12-12-12--12-12-12--|

(You're not the Jesus of Suburbia...)
G|-------------------|-------------------|-------------------|------------------|
D|-------------------|-------------------|-------------------|------------------|
A|-------------------|-------------------|-------------------|------------------|
E|-7-7-x-5-5-5-5-5-5-|-7-7-x-5-5-5-5-5-5-|-7-7-x-4-4-4-4-4-4-|-7-7-x-4-4-4-4-4-4|

Outro
G|------------------------------------------------------------------------------|
D|------------------------------------------------------------------------------|
A|-----------------------------------4-4-4-4-4-4-4-4----------------------------|
E|-0-0-0-0-0-0-0-0--4-4-4-4-4-4-4-4-------------------5-5-x-x-5-5-5-5-5-5-------|

G|------------------------------------------------------------------------------|
D|------------------------------------------------------------------------------|
A|-----------------------------------4-4-4-4-4-4-4-4----------------------------|
E|-0-0-0-0-0-0-0-0--4-4-4-4-4-4-4-4-------------------5-5-x-x-5-5-5-5-5-5-------|

End
e|----------------------------------------------------------------------------------|
B|----------------------------------------------------------------------------------|
G|----------------------------------------------------------------------------------|
D|----------------------------------------------------------------------------------|
A|----------------------------------------------------------------------------------|
E|-0~~----------0-0----------0~~----------0-0----------0~~----------0-0----------0~-|

Lyrics: 

(Intro)
No body likes you
Everyone left you
They're all out without you
Having fun

(Verse)
Where have all the bastards gone?
The underbelly's accidental high
The dummy failed the crash test
Collecting unemployment checks
You're fucking only along for the ride

(Verse 2)
Where have all the riots gone?
Acid City's model gets pulverized
What's in love is now in debt
On your birth certificate
So strike the fucking match to light this fuse

(Pre Chorus)The television's an obstructionist
And you don't even know that you exist.
Standin' still with suit and tie
You better run for your fucking life

(Chorus)
It's not over 'till you're underground
It's not hope before it's too late
This city's burning.  It's not my burden
It's not hope before it's too late

There is nothing left to analyze

(Bridge)
Where will all the martyrs go when the virus cures itself?
And where we will all go when it's too late

(Interlude)
Well don't look back

You're not the Jesus of Suburbia
That St. Jimmy is a figment of
Your father's rage and your mother's love
That's made the idiot America

(Chorus)
It's not over till you're underground
It's not hope before it's too late
This city's burning.  It's not my burden
It's not hope before it's too late

(Outro)
She said I can't take this place
I'm leaving it behind
Well she said I can't take this town 
I'm leaving you tonight

(End)

--------------------------------------------------------------------------------------
Green Day Wake me up when September ends
--------------------------------------------------------------------------------------
I have tabbed this as riff 1, riff 2, and etc. because I cant seem to be able to break
the song up in verse, chorus, bridge, etc.


Basically all guitar until this bit

Riff 5
G|------------------------------|-----------------------------------------------|
D|------------------------------|-----------------------------------------------|
A|-3-3-3-3-3-3-3--3-3-3-3-3-3-3-|-----------------------------------------------|
E|------------------------------|-3-3-3-3-3-3-3-3-3-3--2-2-2-2------------------|

Riff 6
G|--------------------------------------------------------------------------------|
D|--------------------------------------------------------------------------------|
A|----------------2-2-2-2-2-2-2--3-3-3-3-3-3-3-3----------------------------------|
E|-0-0-0-0-0-0-0----------------------------------3-3-3-3--2-2-2-2--0-0-0-0-0-0-0-|

G|------------------------------------------------------------------------------|
D|------------------------------------------------------------------------------|
A|-2-2-2-2-2-2-2--3-3-3-3-3-3-3--5-5-5-5-5-5-5-5--------------------------------|
E|------------------------------------------------------------------------------|

Solo (all played by guitar except this bit)
G|---------------------|------------------|------------------|------------------|
D|---------------------|------------------|------------------|--0-0-0-0---------|
A|---------------------|------------------|------------------|----------4-4-4-4-|
E|---------------------|------------------|------------------|------------------|

G|---------------------|------------------|------------------|------------------|
D|---------------------|------------------|------------------|--0-0-0-0---------|
A|---------------------|------------------|------------------|----------4-4-4-4-|
E|---------------------|------------------|------------------|------------------|


G|-0-0-0-0-0-0-0-0--------------------------------------------------------------|
D|-------------------4-4-4-4-4-4-4-4--------------------------------------------|
A|------------------------------------------------------------------------------|
E|------------------------------------------------------------------------------|

Outro
G|------------------------------------------------------------------------------|
D|------------------------------------------------------------------------------|
A|-3-3-3-3-3-3-3--3-3-3-3-3-3-3-------------------------------------------------|
E|-------------------------------3-3-3-3-3-3-3-3-3-3-3-3-3-3--------------------|

Order

Intro
Riff 1 (played by guitar)
Riff 2 (played by guitar)
Riff 3 (played by guitar)
Riff 1 (played by guitar)
Intro  (played by guitar)
Riff 4 (played by guitar)
Riff 5
Riff 6
Riff 4 (played by guitar)
Solo
Intro  (played by guitar)
Riff 4 x2 (played by guitar)
Outro

Lyrics

(Riff 1)
Summer has come and passed
The innocent can never last             
Wake me up when September ends

(Riff 2)
Like my fathers come to pass
Seven years has gone so fast            
Wake me up when September ends

(Riff 3)
Here comes the rain again
Falling from the stars                  
Drenched in my pain again
Becoming who we are

(Riff 1)
As my memory rests
But never forgets what I lost           
Wake me up when September ends

(Intro)

(Riff 4)
Summer has come and passed
The innocent can never last             
Wake me up when September ends

(Riff 5)
Ring out the bells again
Like we did when spring began           
Wake me up when September ends

(Riff 6)
Here comes the rain again
Falling from the stars                  
Drenched in my pain again
Becoming who we are

(Riff 5)
As my memory rests
But never forgets what I lost           
Wake me up when September ends

(Solo)
(Intro)

(Riff 4)
Summer has come and passed
The innocent can never last             
Wake me up when September ends

(Riff 4)
Like my fathers come to pass
Seven years has gone so fast            
Wake me up when September ends

(Outro)
Wake me up when September Ends
Wake me up when September Ends          
Wake me up when September Ends


--------------------------------------------------------------------------------------
Green Day Homecoming 
--------------------------------------------------------------------------------------
(I have separated each part of this song just like it is on the CD, and I have tabbed
each part of it as separate songs, OKAY!

--------------------------------------------------------------------------------------
I. Death of ST. Jimmy
--------------------------------------------------------------------------------------

Intro
G|--------------------------|
D|--------------------------|
A|--------------5-4---------| x6 then play that below
E|-5-5-0-0-0-0------5-x-x-x-|


G|---------------------------|---------------------|------------------------------|
D|---------------------------|---------------------|------------------------------|
A|-7\2p0---------------------|---------------------|--------------------------5---|
E|-------0-0-0-0-0-0-5-5-5-5-|-0-0-0-0-0-0-5-5-5-5-|-0-0-0-0-0-0-x-x-x-0-0--5---5-|

Verse
G|--------------------------|---------------------------------------------------|
D|--------------------------|---------------------------------------------------|
A|------5---------5--4------|-----------5-5-5-5--------5-4----------------------|
E|-5~~-----0---5--------5-0-|-5~-5-5-5-----------0--5-------5--0-0-0-0-0-0------|

G|-----------------------------------------|
D|-----------------------------------------| just this last bar
A|----------------------5-4----------------|       x4
E|5-5-5-5----------0-5-------5-0-0-0-0-0-0-|

Chorus (im not sure on the strumming pattern here, but you get the idea)
G|----------------------------------|-------------------------------------------|
D|----------------------------------|-------------------------------------------|
A|--------------------------0-0-0-0-|--------------------------0-0-0-0----------|
E|---2-2-2-2--2-2-2-2--0-0----------|---2-2-2-2--2-2-2-2--0-0-------------------|

G|----------------------------------|-------------------------------------------|
D|----------------------------------|-------------------------------------------|
A|--------------------------0-0-0-0-|-5-5-5-5--5-4------------------------------|
E|---2-2-2-2--2-2-2-2--0-0----------|---------------5-0-------------------------|

Order

Intro
Verse
Chorus
Verse
Chorus (but don't play the first bar - the one with the let ring bits on it)

Lyrics

(Intro)
My heart is beating from me
I am standing all alone 
Please call me only 
If you are coming come                          
Waste another year flies by                     
Waste a night or two 
You taught me how to live                       

(Verse 1)
In the streets of shame
Where you've lost your dreams in the rain       
There's no sign of hope
The stems and seeds of the last of the dope
There's a glow of light
The St. Jimmy is the spark in the night         
Bearing gifts and trust
The fixture in the city of lust

(Chorus)
What the hell's your name
Whats your pleasure what is your pain?          
Do you dream to much?
Do you think what you need is a crutch
(Verse 2
In the crowd of pain 
St. Jimmy comes without any shame              
He says "We're fucked up," but we're not the same
And mom and dad are the ones you can blame

(Chorus)
Jimmy died today
He blew out his brains into the bay             
In the state of mind 
It's my own private suicide

--------------------------------------------------------------------------------------
II. East 12th street (2.23)
--------------------------------------------------------------------------------------

Intro
G|------------------------------------------------------------------------------|
D|------------------------------------------------------------------------------|
A|------------------------------------------------------------------------------|
E|-x-x-x-x-x-x-x----------------------------------------------------------------|

Intro (Continued)
G|----------------|---------------|---------------|---------------|-------------|
D|----------------|---------------|---------------|---------------|-------------|
A|-----5----------|----5----------|----5----------|----5----------|-------------| x3
E|--5-----5--3--5-|-5-----5--3--5-|-5-----5--3--5-|-5-----5--3--5-|-x-x-x-x-----|


Verse
G|---------------------------|----------------------|---------------------------|
D|---------------------------|----------------------|---------------------------|
A|-5-5-5-5-----------5-5-5-5-|----------------------|-5-5-5-5-----------5-5-5-5-|
E|----------3-3-3-3----------|-3-3-3-3--5-5-5-5-5-5-|----------3-3-3-3----------|

G|--------------------------|---------------------------|-----------------------|
D|--------------------------|---------------------------|-----------------------|
A|--------------------------|-5-5-5-5-----------5-5-5-5-|-----------------------|
E|-3-3-3-3-3-3-3-3--5-5-5-5-|----------3-3-3-3----------|-3-3-3-3--5-5-5-5-5-5--|

G|---------------------------|--------------------------------------------------|
D|---------------------------|--------------------------------------------------|
A|-5-5-5-5-----------5-5-5-5-|-----------------------5-5-5-5--------------------|
E|----------3-3-3-3----------|-3-3-3-3--5-5-5-5-5-5-----------------------------|

Post verse (This bit swaps between acoustic bass and electric bass)
Acoustic                 | Electric
G|-----------------------|------------------------------------------------------|
D|-0-0-0-0--0--0--0-0--0-|------------------------------------------------------|
A|-----------------------|-5-5-5-5-------------5--------------------------------| x5
E|-----------------------|----------5--3--5-5-----------------------------------|

Chorus
G|----------------------------------|-------------------------------------------|
D|----------------------------------|-------------------------------------------|
A|-3-3-3-3-3-3-3-3------------------|-3-3-3-3-3-3-3-3---------------------------|
E|------------------5-5-5-5-5-5-5-5-|------------------5-5-5-5-5-5-5-5----------|


Outro
G|------------------------------------------------------------------------------|
D|------------------------------------------------------------------------------|
A|-3-3-3-3-----------3-3-3-3-----------3-3-3-3-----------3-3-3-3----------------|
E|----------5-5-5-5-----------5-5-5-5-----------5-5-5-5-----------5-5-5-5-------|

Outro part 2
G|------------------------------------------------------------------------------|
D|------------------------------------------------------------------------------|
A|-5---3------------5-5-5--------5----------------------------------------------|
E|---------3---5-----------3--5-------------------------------------------------|

Order

Intro
Verse
Post Verse
Chorus x2
Outro

Lyrics:

(Intro)
Well nobody cares
Well nobody cares                               
Does anyone care 
If nobody cares?

Well nobody cares
Well nobody cares                               
Does anyone care 
If nobody cares?


(Verse)
Jesus filling out paperwork now
At the facility on East 12th Street
He's not listenin to a word now
He's in his own world and he's daydreaming
He'd rather be doing something else now
Cigarrettes and coffee with the underbelly
His life's on the line with anxiety now
And she had enough and he had plenty 

(Post-Verse)
Somebody get me out of here
Anybody get me out of here                      
Somebody get me out of here
Get me the fuck right out of here


(Chorus)
So far away
I don't want to stay
Get me out of here right now
I just wanna be free
Is there a responsibility
Get me out of here right now

(Outro)
Ahhh ohh                               
Ahhh ohh                                        
Ahhh ohh
Ahhh ohh

(Outro part 2)
This life like dream ain't for me    


--------------------------------------------------------------------------------------
III. Nobody likes you (4.02)
--------------------------------------------------------------------------------------

Verse (the bit where the lyrics come in)
G|------------------------------------------------------------------------------|
D|------------------------------------------------------------------------------|
A|-5-5-5-5-5-5-5-5--------------------------------------------------------------|
E|------------------5-5-5-5-5-5-5-5--3-3-3-3-3-3-3-3--5-5-5-5-5-5-5-5-----------|
PM ******************************************************************

Chorus
G|------------------------------------------------------------------------------|
D|------------------------------------------------------------------------------|
A|------------------------------------------------------------------------------|
E|-3-3-3-3-3-3--5-5-5-5-5-5--3-3-3-3-3-3--5-5-5-5-5-5--3-3-3-3-3-3--5-5-5-5-5-5-|
PM ****************************************************************************

G|------------------------------------------------------------------------------|
D|------------------------------------------------------------------------------|
A|-5-5-5-5-5-5-5-5-5-5-5-5------------------------------------------------------|
E|------------------------------------------------------------------------------|
PM ************************

Order

Verse x4
Chorus
Verse


(Verse 1)
I fell asleep while watching Spike TV
After 10 cups of coffee 
And your still not here
Dreaming of a song
But something went wrong
And you can't tell anyone
'Cause no one's here

(Pre-Chorus)
Left me here alone
And I should've stayed home
After 10 cups of coffee
I'm thinking 
Where'd you go?

(Chorus)
Nobody likes you
Everyone left you  (Where'd you go?) 
They're all out without you
Havin' fun (Where'd you go?)
Everyone left you
Nobody likes you  (Where'd you go?)
They're all out without you
Havin' fun 

Where'd you go, go, go, go?

--------------------------------------------------------------------------------------
IV. Rock and Roll girlfriend (5.23)
--------------------------------------------------------------------------------------
Tre wrote and on the recording played the drums for it and lead guitar, and he sings it.
Im not sure who plays the piano on this track but I think it is the producer of the album

Intro
G|------------------------------------------------------------------------------|
D|------------------------------------------------------------------------------|
A|--5~~---7~~-------------------------------------------------------------------|
E|------------------------------------------------------------------------------|

Verse
G|-------------------------------------------------------------------------------|
D|-------------------------------------------------------------------------------|
A|--------------------------5-5-5-5-5-5-5-5-5-5-5-5-5----------------------------|
E|-5-5-5-5-5-5-5-5-5-5-5-5-----------------------------5-5-5-5-5-5-5-5-5-5-5-5-5-|

G|------------------------------------------------------------------------------|
D|------------------------------------------------------------------------------|
A|-7-7-7-7-7-7-7-7-7-7-7-7------------------------------------------------------|
E|------------------------------------------------------------------------------|

Outro
G|------------------------------------------------------------------------------|
D|------------------------------------------------------------------------------|
A|------------------------------------------------------------------------------|
E|-3--5--3--5----3--5--3--5----3--5--3--5-----3~--5~--3~--5---------------------|

Order

Intro
Verse x3
Outro

Lyrics

(Verse 1)
I got a rock and roll band
I got a rock and roll life              
I got a rock and roll girlfriend
And another ex-wife

I got a rock and roll house
I got a rock and roll car               
I plat the shit out the drums
And I can play the guitar

I got a kid in new york
I got a kid in the bay                  
I haven't drank or smoked nothin'
In over 22 days

(Outro)
So get off my case
Off of my case                          
Off of my case


--------------------------------------------------------------------------------------
V. We're Coming Home Again part 1 (6.06)
--------------------------------------------------------------------------------------
Steve Gray (reizig@gmail.com) split this song into two parts so, I will too

Intro
G|-------------------------------------|----------------------------------------|
D|-------------------------------------|----------------------------------------|
A|-5-5-x-x-x--5-5-x-x-x----------------|-5-5-x-x-x--5-5-x-x-x-------------------|
E|-----------------------7-7-7-7--3--5-|-----------------------7-7-7-7--3--5----|

Verse
G|---------------------------------------------------|---------------------------|
D|---------------------------------------------------|---------------------------|
A|---------------------------------------------------|--------5-5-5-5------------|
E|---8--7-----8--7--3-3-3-3-3-3-3-3--5-5-5-5-5-5-5-5-|--8--7-----------5--3--5---|

Chorus
G|----------------------------------|--------------------------|------------------|
D|----------------------------------|--------------------------|------------------|
A|----------------------------------|--------------------------|--------------7-7-|
E|-3-3-3-3-3-3-3-3--5-5-5-5-5-5-5-5-|-3-3--5-5--10-10--5-5-5-5-|-3-3--5-5-7-7-----|

Outro
G|------------------------------------------------------------------------------|
D|------------------------------------------------------------------------------|
A|-5----------------------------------------------------------------------------|
E|----5-------------------------------------------------------------------------|

Order

Intro x2
Verse
Chorus
Outro

Lyrics:

(Verse 1)
Here they come marching down the street
Like a desperation murmur of a heart beat       
Coming back from the edge of town
Underneath their feet

The time has come and it going nowhere
Nobody ever said that life was fair now         
Go-carts and guns are treasures they will bear
In the summer heat

(Chorus)
The world is spinning
Around and around                               
Out of control again
From the 7-11 to the fear of breaking down

(Outro)
So send my love a letterbomb
And visit me in hell                           
We're the ones going...

--------------------------------------------------------------------------------------
We're Coming Home Again part 2 (7.06)
--------------------------------------------------------------------------------------
D means play 5 on the a string
A means play 5 on the e string
G means play 3 on the e string

Note: Most of the noise in the background is just pick slides.

Riff 1 (Acoustic guitar)                    
e|--22-3-2-0-2---|
B|--33-3-3-3-3---|
G|--22-2-2-2-2---|
D|--00-0-0-0-0---|
A|---------------|
E|---------------|

Riff 2 (Electric guitar):
e|---------------|
B|--77-8-7-5-7---|
G|---------------|
D|---------------|
A|---------------|
E|---------------|

 
Intro: D A


D    (Riff 1)   A
Home........... We're coming home again
D    (Riff 2)   A
Home........... We're coming home again


G
I started fuckin' running
                   D
Just as soon as my feet touched ground
G
We're back in the Barrio
          D
And to you and me, that's Jingletown


D    (Riff 1)   A
Home........... We're coming home again
D               A
Home........... We're coming home again
D               A
Home........... We're coming home again
D               A
Home........... We're coming home again


G|-----------------------------------------|
D|-----------------------------------------|
A|-5--5-5-5-5--5-5-5-5--5-5-5--------------|
E|----------------------------3-3-3-3-3-3--|
   Home....                   We're coming 
   
 
G|-----------------------------------------|   
D|-----------------------------------------|
A|-----------------------------------------|
E|-5--5-5-5-5--5-5-5-5--5-5-5-5-3-3-3-3-3--|
   home....            again



D                  
Nobody likes you

Everyone left you

They're all out with out you

Havin' fun...


--------------------------------------------------------------------------------------
13. Whatsersname
--------------------------------------------------------------------------------------
I have tuned this as standard for all of you out there who cant be bothered to drop D
their bass/guitar like me

Intro/Verse
G|------------------------------------------------------------------------------|
D|------------------------------------------------------------------------------|
A|------------------------------------------------------------------------------|
E|-10-10-10-10-10-10-10-10-10-10-10-10--7-7-7-7-7-7-7-7-7-7-7-7-7-7-7-7---------|
PM ********************************************************************

Chorus
G|-------------------------------------------------------------------------|
D|-------------------------------------------------------------------------| x3 then
A|------------------------------5-5-5-5-5-5-5-5-----------2-2-2-2--0-0-0-0-| play that
E|-3-3-3-3-3-3-3-3-3-3-3-3-3-3-------------------2-2-2-2-------------------| below
PM ***********************************************************************

G|------------------------------------------------------------------------------|
D|------------------------------------------------------------------------------|
A|------------------------------------------------------------------------------|
E|-3-3-3-3-3-3--5-5-5-5-5-5-----------------------------------------------------|
PM ************************

Fill 1 (while guitar plays this bass plays part of the intro/Verse) 
e|---------------------------|--------------------------------------------------|
B|-----------------0---------|-----------------0--------------------------------|
G|--7---9/11---7-------6---7-|--7---9/11---7-------6---7------------------------|
D|---------------------------|--------------------------------------------------|
A|---------------------------|--------------------------------------------------|
E|---------------------------|--------------------------------------------------|

Bridge 
e|--------------------------------------|----------------------------------------|
B|--------------------------------------|----------------------------------------|
G|-----6h8-----7-----6h8-----7------6h8-|--4-4-4-4-4-4-4-4-4-4-------------------|
D|---7-----------7-------------7--------|--4-4-4-4-4-4-4-4-4-4-------------------|
A|-5--------5------5------5------5------|--2-2-2-2-2-2-2-2-2-2-------------------|
E|--------------------------------------|----------------------------------------|

e|--------------------------------------|----------------------------------------|
B|--------------------------------------|----------------------------------------|
G|-----6h8-----7-----6h8-----7------6h8-|--4-4-4-4-4-4-4-4-4-4-------------------|
D|---7-----------7-------------7--------|--4-4-4-4-4-4-4-4-4-4-------------------|
A|-5--------5------5------5------5------|--2-2-2-2-2-2-2-2-2-2-------------------|
E|--------------------------------------|----------------------------------------|

Solo (guitar plays a solo when bass plays this)
G|------------------------------------------------------------------------------|
D|------------------------------------------------------------------------------|
A|----------------------------------------------------2-2-2-2--0-0-0-0----------|
E|-3-3-3-3-3-3-3-3--0-0-0-0-0-0-0-0--2-2-2-2-2-2-2-2----------------------------|

Post Solo
G|------------------------------------------------------------------------------|
D|------------------------------------------------------------------------------|
A|------------------------------------------------------------------------------|
E|-3-3-3-3-3-3-3-3--0-0-0-0-0-0-0-0--5-5-5-5-5-5-5-5--0-0-0-0-0-0-0-0-----------|

Outro
G|----------------------------------|-------------------------------------------|
D|----------------------------------|-------------------------------------------|
A|----------------------------------|-------------------------------------------|
E|-3-3-3-3-3-3-3-3-3-3-3-3--5-5-0-0-|-3-3-3-3-3-3-3-3-3-3-3-3--5-5-0-0----------|

G|----------------------------------|-------------------------------------------|
D|----------------------------------|-------------------------------------------|
A|----------------------------------|-------------------------------------------|
E|-3-3-3-3-3-3-3-3-3-3-3-3--5-5-0-0-|-3-3-3-3--5-5-5-5--------------------------|

Order

Intro/ Verse x4
Chorus
Fill 1
Verse
Chorus
Bridge
Solo 
Post Solo
Solo  (x4)
Outro
Play intro (only half of it)

Lyrics:

Lyrics:

(Intro/Verse)
Thought I ran onto you down on the street               
Then it turned out only to be a dream

(Chorus)
I made a point to burn all of the photographs
She went away and then I took a different path
I remember the face                                     
But I can't recall the name
Now I wonder how whatsername has been

(Verse 2)
Seems that she disappeared with out a trace             
Did she ever marry old what's his face?

(Chorus)
I made a point to burn all of the photographs
She went away and took a different path
I remember the face                                     
But I can't recall the name
Now I wonder how whatsername has been

(Bridge)

(Post Solo)
Remember, whatever
It seems like forever ago                               
Remember, whatever
It seems like forever ago
                                                        
(Solo Rhythm)
The regrets are useless   
In my mind
She's in my head                                        
The regrets are useless
In my mind
She's in my head

Go... go... go...                                       
Go... go... go...               

(Outro)
And in the darkest night
If my memory serves me right                            
I'll never turn back time
Forgetting you, but not the time



There you go again, please leave comments I would really like feedback on this,
and please rate this


Final completion date
30/1/04
45 comments total. Showing first comments. show 1 bad comment
0 reply
just some guy wrote on December 10 2004, 12:00 am

...Mike hits a D chord right at the end of Whatsername...

0 reply
saturns_bassman wrote on January 10 2005, 12:00 am

srry bout that this tab could use some fixing up man

I want to post or [tab]
guest
You may want to rate the tab now too:
select rating
Please do not post tabs as comments. Select "correction" instead!