Oops, an error
Loading. Please wait.

American Idiot Bass Tab

ver2
ver2
More versions @911Tabs.com
27,114 views 60 this week
7 commentsread comments
1 2 3 4 5
accurate
x 14
Autoscroll
+/-
esc
set tempo
stop
Contributor
Hey! There's an official Ultimate Guitar app which is ideal
for learning songs when you're away from computer. Get the app
WARNING: You are trying to view
                                    content from Ultimate-Guitar.com
                                    in an unauthorized application,
                                    which is prohibited.

                                    Please use an official Ultimate
                                    Guitar Tabs application for iPhone,
                                    iPad or Android to access legitimate
                                    chords, guitar, bass, and drum tabs
                                    from Ultimate-Guitar.com database.

                                    Type "ultimate guitar tabs" in Apple
                                    App Store's or Android Market's
                                    search to find the application.
Album: American Idiot
Band: Green Day
Tabber: Kevin Plante (gr33n_dayw49)

This is the Whole Album for American Idiot by Green Day on bass. This tab includes
lyrics for each song and all 5 parts for Jesus of Suburbia and Homecoming. Hope you
enjoy.
*****************************************************************************
Each song is tabbed to the best of my ability. If you have any corrects, either
post them or email me at gr33n_dayw49@hotmail.com.
*****************************************************************************

Versuib 1.1: I had many mistakes to mcorrect, i almost completley changed whatseranme and i
added all of Homecoming (thanx to Liam).

Version 1.0: Original Copy 



Track Listing:
1. American Idiot
2. Jesus Of Suburbia
  I. Jesus Of Suburbia
  II. City Of The Damned
  III. I Don't Care
  IV. Dearly Beloved
  V. Tales Of Another Broken Home
3. Holiday
4. Boulevard Of Broken Dreams
5. Are We The Waiting
6. St. Jimmy
7. Give Me Novacaine
8. She's A Rebel
9. Extraordinary Girl
10. Letterbomb
11. Wake Me Up When September Ends
12. Homecoming                    (All 5 parts are in progress)
  I. The Death Of St. Jimmy
  II. East 12th Street
  III. Nobody Likes You
  IV. Rock and Roll Girlfriend
  V. We're Coming Home Again
13. Whatsername
*****************************************************************************
 Track 1:                 AMERICAN IDIOT
*****************************************************************************
Tuning: EADG
  
  (INTRO) Start after guitar plays riff once!!!
G|--------------------------------------------------------------------------|
D|--------------------------------------------------------------------------|
A|--------4--4-4-----4-----------4--4-4-----4------------4--4-4-----4-------|
E|2-4-4-4--------2-2---4-X--4-4-4--------2-2---4-2--4-4-4--------2-2---4-X--|
  ^play this on last note on guitar riff
  
 (VERSE 1)  
G|-----------------------------------------------|
D|-----------------------------------------------|     X2 
A|-------4--4-4-----4------------4--4-4-----4----|
E|-4-4-4--------2-2---4-2--4-4-4--------2-2---4-X|
  (CHORUS)
G|--------------------------------------------------------------------------|
D|--------------------------------------------------------------------------|
A|-4444444444444444------------------66666666666666666----------------------|
E|------------------4444444444444444-------------------4444444444444444-----|
                                                           
G|-----------------------------------------------------S--------------------|
D|-----------------------------------------------------T--------------------|
A|-4444444444444444------------------6666666666666666--O--------------------|
E|------------------4444444444444444-------------------P--------------------|
  (BRIDGE) 
G|---------------------------------------------------|
D|---------------------------------------------------|
A|-------4--4-4-----4-------------4--4-4------4------|
E|-4-4-4--------2-2---4-2---4-4-4---------2-2---4-X--|
  (VERSE 2)
G|-----------------------------------------------|
D|-----------------------------------------------|     X2 
A|-------4--4-4-----4------------4--4-4-----4----|
E|-4-4-4--------2-2---4-2--4-4-4--------2-2---4-X|

 (CHORUS)
G|--------------------------------------------------------------------------|
D|--------------------------------------------------------------------------|
A|-4444444444444444------------------66666666666666666----------------------|
E|------------------4444444444444444-------------------4444444444444444-----|
                                                           
G|-----------------------------------------------------S--------------------|
D|-----------------------------------------------------T--------------------|
A|-4444444444444444------------------6666666666666666--O--------------------|
E|------------------4444444444444444-------------------P--------------------|

 (BRIDGE) 
G|---------------------------------------------------|
D|---------------------------------------------------|     X2
A|-------4--4-4-----4-------------4--4-4------4------|
E|-4-4-4--------2-2---4-2---4-4-4---------2-2---4-X--|
  (GUITAR SOLO)
G|--------------------------------------------------------------------------|
D|--------------------------------------------------------------------------|
A|-4444444444444444------------------66666666666666666----------------------|
E|------------------4444444444444444-------------------4444444444444444-----|
                                                           
G|-----------------------------------------------------S--------------------|
D|-----------------------------------------------------T--------------------|
A|-4444444444444444------------------6666666666666666--O--------------------|
E|------------------4444444444444444-------------------P--------------------|
  (VERSE 3) NO BASS
G|-R------------------------------------------------------------------------|
D|-E------------------------------------------------------------------------|
A|-S------------------------------------------------------------------------|
E|-T------------------------------------------------------------------------|

(CHORUS)
G|--------------------------------------------------------------------------|
D|--------------------------------------------------------------------------|
A|-4444444444444444------------------66666666666666666----------------------|
E|------------------4444444444444444-------------------4444444444444444-----|
                                                           
G|-----------------------------------------------------S--------------------|
D|-----------------------------------------------------T--------------------|
A|-4444444444444444------------------6666666666666666--O--------------------|
E|------------------4444444444444444-------------------P--------------------|
  (OUTRO)
G|--------------------------------------------------------------------------|
D|--------------------------------------------------------------------------|
A|--------4--4-4-----4-----------4--4-4-----4------------4--4-4-----4-------|
E|2-4-4-4--------2-2---4-2--4-4-4--------2-2---4-X--4-4-4--------2-2---4-X--|

G|-R--------------|
D|-E--------------|
A|-S------444-----|
E|-T---------4----|

Lyrics:

Don't wanna be an American idiot
Don't want a nation under the new mania         (VERSE 1)
Can you hear the sound of hysteria?
The subliminal mind-fuck America

Welcome to a new kind of tension
All across the alien nation
Everything isn't meant to be OK                 (CHORUS)
Television dreams of tomorrow
We're not the ones meant to follow
For that's enough to argue

Well, maybe I'm the faggot, America
I'm not a part of a redneck agenda              (VERSE 2)
Now everybody do the propaganda
And sing along in the age of paranoia

(Chorus)

Don't wanna be an American idiot
One nation controlled by the media              (VERSE 3)
Information age of hysteria
It's going out to idiot America

(CHORUS)


*****************************************************************************
 Track 2:                     JESUS OF SUBURBIA
*****************************************************************************

This song is separated into 5 different parts. I have tabbed each one as and individual song.
*****************************************************************************
I.                            JESUS OF SUBURBIA
*****************************************************************************
 
 (VERSE)    
G|---------------------------------------------------------|
D|---------------------------------------------------------|
A|-4-4-4-4---1-1-1-1---------------------------------------|
E|-----------------------222222222222222--444444444444444--|

 (CHORUS)	
G|--------------|
D|--------------|
A|--------------|
E|-2222--44444--|

  (BRIDGE)    
G|----------------------|
D|----------------------|
A|-4-4------------------|
E|------4-4--2-2222222--|

 (OUTRO)
G|----------------------------------------|
D|----------------------------------------|
A|-4-4-4-4--------------------------------|
E|------------1-1-1-1----6-6-6--4-4-4--2--|
				      
 				
Order:
Verse x2
Chorus
Riff 1
Verse x2
Chorus
Riff 1
Verse (no lyrics)
Outro
  
Lyrics:

I'm the son of rage and love
The Jesus of suburbia				(VERSE 1)
From the Bible of none of the above
On a steady diet of 

Soda pop and Ritalin
No one ever died for my sins in hell		(VERSE 2)
As far as I can tell				
At least the ones I've gotten away with

And there's nothing wrong with me
This is how I'm supposed to be			(CHORUS)
In a land of make believe
That don't believe in me

Get my television fix 
Sitting on my crucifix				(VERSE 3)
The living room in my private womb
While the moms and brads are away

To fall in love and fall in debt
To alcohol and cigarettes 			(VERSE 4)
And Mary Jane to keep me insane
And doing someone else's cocaine 

(Chorus)
*****************************************************************************
II.                        CITY OF A DAMNED
*****************************************************************************

Part 2 of 5 parts...

  (INTRO)            Come in on last note of Jesus Of Suburbia...
G|-----------|
D|-----------|
A|-----------|
E|-2-----4---|

 (VERSE)
G|----------------------------|
D|----------------------------|
A|-4---3----------------------|
E|---------6---4------2---4---|

  (CHORUS)
G|-----------------------------------------|
D|-----------------------------------------|
A|-------------4---------------------------|
E|-6-----4-----------2-----6-----4-----2---|

Order:

Intro
Verse x2
Chorus
Verse x2
Hold final F#5

Lyrics:

At the center of the earth
In the parking lot				(VERSE 1)
Of the 7-11 were I was taught
The motto was just a lie

It says home is were your heart is
But what a shame				(VERSE 2)
Cause everyone's heart doesn't beat the same
We're beating out of time

City of the dead
At the end of another lost highway
Sign misleading to nowhere			(CHORUS)
City of the damned
Lost children with there dirty faces today
No one really seems to care

I read the graffiti
In the bathroom stall				(VERSE 3)
Like the holy scriptures of a shopping mall
And so it seemed to confess

It didn't say much
But it only confirmed that			(VERSE 4)
The center of the earth is the end of the world
And I could really care less 

(CHORUS)
*****************************************************************************
III.                      I DON'T CARE
*****************************************************************************

Part 3 of a 5 part song...
  (INTRO)
G|-----------------------------------------------|
D|-----------------------------------------------|
A|--------4------------4------------4------------|
E|-4------------4------------2--------------4----|

  (RIFF 1)
G|--------|---------------|
D|--------|---------------|
A|--------|--4------------|
E|-2-4----|--------5-4----|

  (VERSE)
G|-------------------------------|
D|-------------------------------|
A|-4-4-4-4-4-4-4-4-4-4-----------|
E|------------------------5-4----|


 (CHORUS)
G|------------------|--------------|
D|----------------- |--------------|
A|---------4--------|--------------|
E|-2----4------4----|----2----4----|

  (RIFF 4)
G|-------------|
D|-------------|
A|--------4----|
E|-2-4---------|

 (OUTRO)
G|-------------|
D|-------------|
A|-4-4-4-44----|
E|----------4--|
	   (Let ring)
	    
Order:

Intro w/Intro lead
Intro x4
Riff 1
Verse
Chorus
Riff 2
Outro
	    
Lyrics:

I don't care if you don't
I don't care if you don't 		(INTRO) x4	
I don't care if you don't care
                         
I don't care!				(RIFF 1)

Everyone is so full of shit
Burn and raised by hipocrits
Hearts recycled but never saved
From the cradle to the grave		(VERSE)	
We are the kids of war and peace
From Anaheim to the Middle Mast
We are the stories and disciples
Of the Jesus of suburbia

Land of make believe
And it don't believe in me		(CHORUS)		
Land of make believe
And I don't believe

And I don't care!
I don't care!
I don't care!				(RIFF 2)
I don't care!
I don't care!
*****************************************************************************
IV.                      DEARLY BELOVED
*****************************************************************************

Part 4 of a 5 part song.....

4.  Dearly Beloved


The first time, a distorted electric guitar strums each
chord once.  After that, an acoustic strums through them
with the electric palm muting.Bass stays the same.   
   
   Each note in rythem with the song
G|-----------------------|
D|-----------------------|
A|------3----4-----------|
E|-4--------------4------|


Lyrics:

Dearly beloved are you listening?
I cant remember a word that you were saying
Are we demented or are we disturbed?
The space that's in between insane and insecure

Oh therapy, can you please fill the void?
Am I retarded or am I just overjoyed
Nobody's perfect and I stand accused
For lack of a better word, and that's my beat excuse
*****************************************************************************
V.                       TALES OF ANOTHER BROKEN HOME
*****************************************************************************

Finally Part 5 of the 5 part song of JESUS OF SUBURBIA.....
(this part was taken off of Version 2 of jesus of suburbia) 
(thank you "unregistered")

Intro: 
   G#5                  F#5 C#5  x4
G|-------------------------------|
D|-------------------------------|
A|--------------------------4----|
E|-4---4-4-4-4-4-4-4----2--------|
 
Main Riff:  
   G#5                  F#5 C#5    
G|-------------------------------| 
D|-------------------------------| 
A|--------------------------4----| 
E|-4-4-4-4-4-4-4-4-4----2--------|

Chorus
   C# G# C# G# C#G#  D# G# D# G# D#G#  x2
G|-------------------------------------|
D|-------------------------------------|
A|-4-----4-----4-----------6-----6-----|
E|----4-----4----4------4-----4----4---|

During solo play chorus riff

Piano Interlude:

C#	     D#
I don't feel any shame
  G#	    C#
I wont apologize
C#		 D#		 G#
When there ain't nowhere you can go

C#	 D#
Running away from pain
      G#	       C#
When you've been victimized
C#	    D#
Tales from another broken...


Order:

Intro
Main Riff x8
Chorus
Main Riff x8
Chorus x2
Main Riff x2
Main Riff x4 w/Solo 1
Chorus w/Solo 2
Piano Interlude
Main Riff x6


Lyrics:

To live and not to breathe
Is to die in tragedy			(Verse 1)
To run, to run away
To find what you believe

And I 
Leave behind				(Chorus)
This hurricane of fucking lies

I lost my faith to this
This town that don't exist		(Verse 2)
So I run, I run awy 
The light of masochist

And I 
Leave behind				(Chorus)
This hurricane of fucking lies

And I 
Walked this line			(Chorus 2)
A million and one fucking times

But not this time

I don't feel any shame
I wont apologize
When there ain't nowhere you can go	(Piano Interlude)
Running away from pain
When you've been victimized
Tales from another broken...

Home!
You're leavin'
You're leavin'				
You're leavin'
You're leavin HOME!
*****************************************************************************
Track 3:                   HOLIDAY
*****************************************************************************

Intro (Guitar)

  RIFF 1
G|------------|
D|------------|
A|88-44--66---|
E|-----44-----|

  RIFF 2
G|--------------------------------|
D|--------------------------------|
A|88-44--33-88-44--66-333333333---|
E|-----44--------44---------------|

  CHORUS
G|-------------------------------------|
D|-------------------------------------|
A|----4444----6666----4444----333333---|
E|1111----4444----1111----4444---------|

  RIFF 3
G|---------------------------------|
D|---------------------------------|
A|---------4-6-----------6-8-------|
E|11-1/4-44-6-8-11-1/4-44-8-10\1---|

 BASS (ON GUITAR SOLO)
G|---------------------------------------------------|
D|---------------------------------------------------|
A|4444----3333-88-66-4444----3333-3333-3/15-15(8x)---|
E|----4444---------------4444------------------------|

  BASS SOLO
G|-----------------------------------|
D|-----------------------------------|
A|---------4-6-------------6-8-------|
E|11-1/4-44-6-8\1-11-1/4-44-8-10\1---|

  BASS SOLO (final)
G|---------------------------------------------------------------|
D|---------------------------------------------------------------|
A|---------4-6-------------6-8-8\3-3333-3333-3333-3/15--15(4x)---|
E|11-1/4-44-6-8\1-11-1/4-44-8------------------------------------|

  FINAL CHORUS
G|-----------------------------------------------------------------------------------------|
D|-----------------------------------------------------------------------------------------|
A|----4444----6666----4444----3333----4444----6666----4444----3333-3333-3333 3/15-15(4x)---|
E|1111----4444----1111----4444----1111----4444----1111----4444-----------------------------|

  FINAL RIFF
G|------------------------------------------|
D|------------------------------------------|
A|88-44--66-88-44--66-88-44--66-88-44-6-8---|
E|-----44--------44--------44----------8----|

Song Order:
Intro Guitar

RIFF 1 3x
RIFF 2 2x
CHORUS 1x
RIFF 1 1x
RIFF 2 1x
RIFF 1 1x
RIFF 2 1x
RIFF 3 2x
BASS (ON GUITAR SOLO)) 1x
BASS SOLO 5x
BASS SOLO (final) 1x
CHORUS 1x
FINAL CHORUS 1x
FINAL RIFF 1x

Lyrics:

Say! Hey!

Hear the sound of the falling rain
Coming down like an Armageddon flame (Hey!)             (Verse 1)
The shame, the ones who die without a name

Hear the dogs howling out of key
To a hymn called "Faith and Misery" (Hey!)                (Verse 2)
And bleed, the company lost the war today

I beg to dream and differ from the hollow lies
This is the dawning of the rest of our lives            (Chorus)
On holiday

There's a drum pounding out of time
Another protestor has crossed the line (Hey!)           (Verse 3)
To find, the money's on the other side

Can I get another Amen?  (Amen!)
There's a flag wrapped around the score of men (Hey!)   (Verse 4)
A gag, A plastic bag on a monument

(Chorus)
(Bridge)

The representative from California has the floor:
"Zieg Heil!" to the president gasman
"Bombs away!" is your punishment
Pulverize the Eiffel Towers
Who criticize your government                               (Interlude)
"Bang Bang!" goes the broken glass man 
Kill all the fags that don't agree
Triumph by fire setting fire
Is not a way that's meant for me 
Just cause... just cause - because we're outlaws yeah!

I beg to dream and differ from the hollow lies
This is the dawning of the rest of our lives            
I beg to dream and differ from the hollow lies
This is the dawning of the rest of our lives
This is our lives on holiday


*****************************************************************************
Track 4:               BOULEVARD OF BROKEN DREAMS
*****************************************************************************
This is going to be the 2nd single off of American Idiot (I'm pretty sure)

  VERSE    (5x)
G|------------------------|
D|------------------------|
A|-----------6-6\1-11-----|
E|1-1/4-44--4-------4\1---|

  PRE-CHORUS
G|----------------------|
D|----------------------|
A|---------66\1-11-13---|
E|11/4-44-4-------------|

 CHORUS
G|-----------------------------------------------------------------|
D|-----------------------------------------------------------------|
A|4444----6666----4444----6666----4444----6666----4444----333333---|
E|----4444----1111----4444----1111----4444----1111----4444---------|

 VERSE (9x)
G|------------------------|
D|------------------------|
A|-----------6-6\1-11-----|
E|1-1/4-44--4-------4\1---|

  PRE-CHORUS
G|----------------------|
D|----------------------|
A|---------66\1-11-13---|
E|11/4-44-4-------------|

  PRE-GUITAR SOLO
G|--------------------------------------------|
D|--------------------------------------------|
A|-----------6-6\1-11------------66\1-11-13---|
E|1-1/4-44--4-------4\1-11/4-44-4-------------|
 
  GUITAR SOLO
G|----------------------------------------------------------------|
D|----------------------------------------------------------------|
A|4444----6666----4444----6666----44--6666----44--3333333333333---|
E|----4444----1111----4444----1111--44----1111--44----------------|

NO BASS

  CHORUS
G|-------------------------------------------------------------------------------|
D|-------------------------------------------------------------------------------|
A|11-34444----6666----4444----6666----4444----6666----4444----3333333333333333---|
E|--------4444----1111----4444----1111----4444----1111----4444-------------------|

 OUTRO
G|------------------------------------------------------------------------------------|
D|------------------------------------------------------------------------------------|
A|1-11-4-44-6-66-5-55---------1-11-4-44-6-66-5-55---------1-11-4-44-6-66-5-55---------|
E|-------------------4-44-0-00-------------------4-44-0-00-------------------4-44-0-00|

G|--------------------------
D|--------------------------
A|1-11-4-44-6-66-5-55-------
E|-------------------4400---

Lyrics:


I walk a lonely road
The only one I that have ever known
Don't know were it goes
But its home to me and I walk alone

I walk this empty street
On the boulevard of broken dreams
Where the city sleeps
And I'm the only one and I walk alone
I walk alone I walk alone
I walk alone I walk a-

My shadows the only one that walks beside me
My shallow heart's the only thing that's beating
Sometimes I wish someone out there will find me
Till then I'll walk alone

I'm walking down the line
That divides me somewhere in my mind
On the border line of the edge
And were I walk alone

Read between the lines of what's
Fucked up and every things all right
Check my vital signs to know I'm still alive
And I walk alone
I walk alone I walk alone
I walk alone I walk a-

My shadows the only one that walks beside me
My shallow hearts the only thing that's beating
Sometimes I wish someone out there will find me
Till then I'll walk alone

I walk this empty street
On the boulevard of broken dreams
Where the city sleeps
And I'm the only one and I walk a-

My shadows the only one that walks beside me
My shallow hearts the only thing that's beating
Sometimes I wish someone out there will find me
Till then I'll walk alone


*****************************************************************************
Track 5:                   ARE WE THE WAITING
*****************************************************************************
There is very little bass in this song. I tabbed what i could.

  This is the main riff that is played the majority of the song.
G|---------------------------------------------------------|
D|---------------------------------------------------------|
A|-----------------------5~~~~~~~~~~~~~~~~~~---------------|
E|--5~~~~~~~~~~~~~~~~~~~-----------------------------------|

  The other riff Mike plays is this.
G|---------------------------------------------------------|
D|---------------------------------------------------------|
A|--------------5~~~~~----3~~~~~~--------------------------|
E|----5~~~~~~------------------------5~~~~~----------------|

That's The Song.

Lyrics:

Starry nights city lights
Coming down over me                             (Verse 1)
Skyscrapers and stargazers                      
In my head
Are we we are, Are we we are
The waiting unknown

This dirty town was burning down in my dreams   (Pre-Chorus)
Lost and found city bound in my dreams

And screaming
Are we we are, Are we we are the waiting        (Chorus)
And screaming
Are we we are, Are we we are the waiting

Forget me nots and second thoughts
Live in isolation
Heads or tails and fairytales                   (Verse 2)
In my mind
Are we we are, Are we we are 
The waiting unknown

The rage and love, the story of my life         (Pre-Chorus)
The Jesus of suburbia is a lie

And screaming
Are we we are, Are we we are the waiting 
And screaming
Are we we are, Are we we are the waiting
                                                (Outro)
Are we we are, Are we we are the waiting 
And screaming
Are we we are, Are we we are the waiting

Are we we are, Are we we are the waiting 
*****************************************************************************
Tack 6:                   ST. JIMMY
*****************************************************************************

Tuning: EADG

  (PRE VERSE) X2
G|----------------------------------------|
D|----------------------------------------|
A|----------55555555-77777777-------------|
E|-55555555-------------------55555555----|
  (VERSE) X4
G|----------------------------------------|
D|----------------------------------------|
A|----------55555555-77777777-------------|
E|-55555555-------------------55555555----|
  (CHORUS)
G|--------------------------------------------------------------------------|
D|--------------------------------------------------------------------------|
A|-5555555555555555------------------5555555555555555-xx7-xx7-xx7-7-7777----|
E|------------------5555555555555555----------------------------------------|

 (PRE VERSE) X2
G|----------------------------------------|
D|----------------------------------------|
A|----------55555555-77777777-------------|
E|-55555555-------------------55555555----|

 (VERSE) X4
G|----------------------------------------|
D|----------------------------------------|
A|----------55555555-77777777-------------|
E|-55555555-------------------55555555----|

 (CHORUS)
G|--------------------------------------------------------------------------|
D|--------------------------------------------------------------------------|
A|-5555555555555555------------------5555555555555555-xx7-xx7-xx7-7-7777----|
E|------------------5555555555555555----------------------------------------|
  (INTERLUDE)  X4
G|--------------------------------------------------------------------------|
D|--------------------------------------------------------------------------|
A|---------5---5-7-7777777777777777-----------------------------------------|
E|-5-55555---5--------------------------------------------------------------|
  (FILL PT.1)  X4
G|--------------------------------------------------------------------------|
D|--------------------------------------------------------------------------|
A|----------77777777-33333333-88888888--------------------------------------|
E|-55555555-----------------------------------------------------------------|
  (FILL PT. 2)
G|--------------------------------------------------------------------------|
D|--------------------------------------------------------------------------|
A|---------5-5-5-5-7-7-7-7-12-12-12-12------12-12-12-12-5-5-5-5-------------|
E|-5-5-5-5------------------------------------------------------------------|

G|--------------------------------------------------------------------------|
D|--------------------------------------------------------------------------|
A|-7-7-7-7-7-7-7-7-7-7-7-7-7--~~~~~~~~~~------------------------------------|
E|--------------------------------------------------------------------------|
  (BRIDGE) X5
G|--------------------------------|
D|--------------------------------|
A|----------5-5-5-5-----5-5-------|
E|-5-5-5-5----------3-3-----5-5---|
  (OUTRO)  
G|-----------------------------------------------------------|
D|-----------------------------------------------------------|
A|-----5~---7-7-----------5~-7-7-7-7-7-7-7-------------------|
E|-5-5----------5~----5-5-------------------5~----5-5-5-5~~~~|

Lyrics:

St. Jimmy's comin' down across the alleyway
Up on the boulevard like a zipgun on parade
Light of a sillohette                                   (Intro)
He's insubordinate
Coming at you on account of One Two
One Two Three Four!

My name is Jimmy and you better not wear it out
Suicide commando that your momma talked about           (Verse 1)
King of the forty theives and I'm here to represent
The needle in the vein of the establishment

I'm the patron saint of the denial              
With an angel face and a taste for suicidal             (Chorus)

Cigarettes and ramen and a little bag of dope 
I am the son of a bitch and Edgar Allen Poe             
Raised in the city under a halo of lights               (Verse 2)
The product of war and fear that we've been victimized

I'm the patron saint of the denial
With an angel face and a taste for suicidal             (Chorus)

You talkin' to me?
I'll give you something to cry about.                   (Interlude)
ST. JIMMY

My name is St. Jimmy I'm a son of a gun
I am the one that's from the way outside now
A teenage assasin executing some fun
In the cult of the life of crime now
                                                        (Bridge)
I'd really hate to say it but I told you so
So shut your mouth before I shoot you down old boy
Welcome to the club and give me some blood
I'm the resident leader at the lost and found

It's comedy and tragedy
It's St. Jimmy                                          (End)
And that's my name
...and don't wear it out!
*****************************************************************************
Track 7:                     GIVE ME NOVACAINE
*****************************************************************************
 Riff 1
G|--------------------------------------------------------------------------|
D|--------------------------------------------------------------------------|
A|--5-5-5-5-5----------------------5-5-5-5-5--------------------------------|
E|---------------5555555555555555------------5555555555555555---------------|
  Riff 2
G|--------------------------------------------------------------------------|
D|--------------------------------------------------------------------------|
A|-5555555555555555----------------------5555555555555555-7777777777777777--|
E|------------------33333333333333333333------------------------------------|
  Riff 3  x3
G|--------------------------------------------------------------------------|
D|--------------------------------------------------------------------------|
A|-5-55-55-55-5--------------5-55-55-55-5--7-77-77-77-7---------------------|
E|--------------3-33-33-33-3------------------------------------------------|
 Riff 1
G|--------------------------------------------------------------------------|
D|--------------------------------------------------------------------------|
A|--5-5-5-5-5----------------------5-5-5-5-5--------------------------------|
E|---------------5555555555555555------------5555555555555555---------------|
 Riff 2
G|--------------------------------------------------------------------------|
D|--------------------------------------------------------------------------|
A|-5555555555555555----------------------5555555555555555-7777777777777777--|
E|------------------33333333333333333333------------------------------------|
  Riff 4
G|-----------------------------------|
D|-----------------------------------|
A|-----------------------------------|
E|-55555555555555555555555555555555--|
  Riff 5 x3
G|------------------------------------|
D|------------------------------------|
A|------------------------------------|
E|-555555555555555-3333333333333333---|
  Riff 6
G|------------------------------------|
D|------------------------------------|
A|-2222222222222222--77777777777777777|
E|------------------------------------|
 Riff 1
G|--------------------------------------------------------------------------|
D|--------------------------------------------------------------------------|
A|--5-5-5-5-5----------------------5-5-5-5-5--------------------------------|
E|---------------5555555555555555------------5555555555555555---------------|
 Riff 2
G|--------------------------------------------------------------------------|
D|--------------------------------------------------------------------------|
A|-5555555555555555----------------------5555555555555555-7777777777777777--|
E|------------------33333333333333333333------------------------------------|

 Riff 3  
G|--------------------------------------------------------------------------|
D|--------------------------------------------------------------------------|
A|-5-55-55-55-5--------------5-55-55-55-5--7-77-77-77-7---------------------|
E|--------------3-33-33-33-3------------------------------------------------|

Lyrics:

Take away the sensation inside
Bitter sweet migraine in my head
Its like a throbbing tooth ache of the mind
I can't take this feeling anymore

Drain the pressure from the swelling,
The sensations overwhelming, 
Give me a kiss goodnight and everything will be alright
Tell me that I won't feel a thing
So give me Novacaine

Out of body and out of mind
Kiss the demons out of my dreams
I get the funny feeling, that's alright
Jimmy says it's better than air,
I'll tell you why

Drain the pressure from the swelling,
The sensations overwhelming, 
Give me a kiss goodnight and everything will be alright, 
Tell me that I won't feel a thing, 
So give me Novacaine

Oh Novacaine

Drain the pressure from the swelling, 
The sensations overwhelming
Give me a kiss goodnight and everything will be alright,
Tell me Jimmy I won't feel a thing, 
So give me Novacaine
*****************************************************************************
Track 8:
*****************************************************************************
 VERSE
G|------------------------------------|
D|------------------------------------|
A|--------------------------5555-3333-|
E|-3-3-----3-3-----3-3----------------|
  VERSE2
G|----------------------------------------|
D|----------------------------------------|
A|------3333------3333------3333-5555-3333|
E|-3333------3333------3333---------------|
  CHORUS
G|--------------------------------------------------------------------------|
D|-------------------------------------------1010---------------------------|
A|-7-7-----------33333333-----------7-7-----------10101010------------------|
E|------77777777----------33333333-------77----------------10101010---------|
 VERSE
G|------------------------------------|
D|------------------------------------|
A|--------------------------5555-3333-|
E|-3-3-----3-3-----3-3----------------|
 
 VERSE2
G|----------------------------------------|
D|----------------------------------------|
A|------3333------3333------3333-5555-3333|
E|-3333------3333------3333---------------|

Lyrics:

She's a rebel
She's a saint                   
She's the salt of the earth
And she's dangerous             (Verse 1)
She's a rebel
Vigilante                       
Missing link on the brink       
Of destruction

From Chicago 
To Toronto                      
She's the one that they
Call old Whatsername            (Verse 2)
She's the symbol
Of resistance                   
And she's holding on my
Heart like a hand grenade

Is she dreaming
What I'm thinking?
Is she the mother of all bombs  
Gonna detonate                  (Verse 3)
Is she trouble                  
Like I'm trouble?
Make it a double                
Twist of fate
Or a melody that

She sings the revolution
The dawning of our lives
She brings this liberation      (Chorus)
That I just cant define
Well nothing comes to mind

(Bridge)
(Chorus)
(Verse 1) x2

She's a rebel
She's a rebel                   
She's a rebel           
And she's dangerous             (Bridge)
She's a rebel
She's a rebel                   
She's a rebel
And she's dangerous
*****************************************************************************
Track 9:                 EXTRAORDINARY GIRL
*****************************************************************************
 VERSE                               Last time
G|----------------------|    G|----------------------|    
D|----------------------|    D|----------------------|
A|-0-000000--5-555555---|    A|-0-000000--0-000000---|
E|----------------------|    E|----------------------|

 CHORUS
G|---------------------------------------------------|
D|---------------------------------------------------|
A|------------5-5-5---7-7---------------5-5-5---7-7--|
E|-2-22--0-0-----------------5-----7-7---------------|

G|----------------------------------|
D|----------------------------------|
A|-5-5-555---7-7-777---5--------8---|
E|----------------------------------|

This is the whole song for bass. Not very much but the whole thing.

Lyrics:

She's an Extraordinary girl
In an ordinary world                    (Verse)
And she cant seem to get away

He lacks the courage in his mind
Like a child left behind                (Verse)
Like a pet left in the rain

She's all alone again
Wiping the tears from her eyes
Some days he feels like dying           (Chorus)
She gets so sick of crying

She sees the mirror of herself
An image she wants to sell              (Verse)
To anyone willing to buy

He steals the image in her kiss
From her heart's apocalypse             (Verse)
From the one called Whatsername 

(Chorus)
(Bridge)

She's all alone again
Wiping the tears from her eyes
Some days he feels like dying           (End Chorus)
Some days it's not worth trying
Now that they both are finding
She gets so sick of crying

She's an extraordinary girl
An extraordinary girl
An extraordinary girl                   (End)
An extraordinary girl
*****************************************************************************
Track 10:                    LETTERBOMB
*****************************************************************************

Intro
G|--------------------------------------------------------------------------|
D|------------------6666666666666666-----------------7777777777777777-------|
A|/7777777777777777------------------7777777777777777-----------------------|
E|--------------------------------------------------------------------------|
  
G|---------------------------------------------------------------------|
D|---------------------------------------------------------------------|
A|-----------------------------------4-4-4-44-44-4444------------------|
E|-0-0-0-00-00-0000-4-4-4-44-44-4444------------------5-5-5-55-55-5555-|
   (where have all the bastards gone?.....)
G|-----------------------------------------------------------------|
D|-----------------------------------------------------------------|
A|-----------------------------------------------------------------|
E|-0-0000000000000000--5-5-5-55-55-5555-2-2-2222-5-55555-000-00-00-|
PM   ............
G|-----------------------------------------------------------------------|
D|-----------------------------------------------------------------------|
A|----------44444444----------44444444-----------------------------------|
E|-44444444----------44444444----------55555555-22222222/7-777-5/6/7-777-|
   (where have all the riots gone...?)
G|-----------------------------------------------------------------|
D|-----------------------------------------------------------------|
A|-----------------------------------------------------------------|
E|-0-0000000000000000--5-5-5-55-55-5555-2-2-2222-5-55555-000-00-00-|
PM   ............
G|-----------------------------------------------------------------------|
D|-----------------------------------------------------------------------|
A|----------44444444----------44444444-----------------------------------|
E|-44444444----------44444444----------55555555-22222222/7-777-5/6/7-777-|

G|----------------------|
D|----------------------|
A|----------------------|
E|-5/6/7-777-5/6/7-777--|
  (The television's an obstructionist...)
G|-----------------------------------------------------|
D|-----------------------------------------------------|
A|-----------------------------------------------------|
E|-5555555-4/5-5555555-4/7-7777777-5/7-7777-5/7-77-5/7-|
  (It's not over until youre underground.....)
G|-----------------------------------------------------------------------|
D|-----------------------------------------------------------------------|
A|-77777777---------------------------77777777---------------------------|
E|----------77777777-5555555555555555----------77777777-5555555555555555-|

G|--------------------------------------------------------------------------|
D|--------------------------------------------------------------------------|
A|-77777777---------------------------77777777------------------------------|
E|----------77777777-5555555555558888----------77777777-5555555555555555-2-5|
   ~Fill~
G|--------------------------------------------------------------------------|
D|------------------6666666666666666-----------------7777777777777777-------|
A|/7777777777777777------------------7777777777777777-----------------------|
E|--------------------------------------------------------------------------|

G|---------------------------------------------------------------------|\
D|---------------------------------------------------------------------| \   
A|-----------------------------------4-4-4-44-44-4444------------------| /x2
E|-0-0-0-00-00-0000-4-4-4-44-44-4444------------------5-5-5-55-55-5555-|/
  (your not the Jesus Of Suburbia)
G|-------------------------------------------------------------|
D|-------------------------------------------------------------|
A|-------------------------------------------------------------|
E|-5/7-77777777-5/7-7777777-4/5-555555555--4/7-7777-5/7-77-5/7-|

  (It's not over until youre underground.....)
G|-----------------------------------------------------------------------|
D|-----------------------------------------------------------------------|
A|-77777777---------------------------77777777---------------------------|
E|----------77777777-5555555555555555----------77777777-5555555555555555-|

G|-----------------------------------------------------------------------|
D|-----------------------------------------------------------------------|
A|-77777777---------------------------77777777---------------------------|
E|----------77777777-5555555555558888----------77777777-5555555555555555-|
  
 (She said I can't take this place, I'm leaving it behind...) x2
G|---------------------------------------------------------------------|
D|---------------------------------------------------------------------|  
A|-----------------------------------4-4-4-44-44-4444------------------|
E|-0-0-0-00-00-0000-4-4-4-44-44-4444------------------5-5-5-55-55-5555-|
  Outro
G|--------------------------------------------------|
D|--------------------------------------------------|
A|--------------------------------------------------|
E|-0~-----00------0~-----00------0~-----00-----0~~~~|

Lyrics: 

No body likes you
Everyone left you
They're all out without you
Having fun

Where have all the bastards gone?
The underbelly stacks up ten high
The dummy failed the crash test
Collecting unemployment checks
Like a flunkie only along for the ride

Where have all the riots gone?
As the city's motto gets pulverized
"What's in love is now in debt"
On your birth certificate
So strike the fucking match to light this fuse

The town bishop is an extortionist
And he don't even know that you exist.
Standin' still when it's do or die
You better run for your fucking life

It's not over 'till you're underground
It's not over before it's too late
This city's burning.  "It's not my burden"
It's not over before it's too late

There is nothing left to analyze

Where will all the martyrs go when the virus cures itself?
And where we will all go when it's too late?

Well don't look back

You're not the Jesus of Suburbia
The St. Jimmy is a figment of
Your father's rage and your mother's love
Made me the idiot America

It's not over 'till you're underground
It's not over before it's too late
This city's burning.  "It's not my burden"
It's not over before it's too late

She said, "I can't take this place
I'm leaving it behind."
Well she said, "I can't take this town 
I'm leaving you tonight."
*****************************************************************************
Track 11:              WAKE ME UP WHEN SEPTEMBER ENDS
*****************************************************************************
This song doesn't have much bass either but it still does.

Riff 1  (1:47)
G|--------------------------------------------------------------------------|
D|--------------------------------------------------------------------------|
A|-3-3-3-3-3-3-3-3-3-3-3-3-3-3-3-3------------------------------------------|
E|---------------------------------3-3-3-3-3-3-3-3-3-3-3-3-3-3-3-3----------|

  Riff 2  (1:56)
G|--------------------------------------------------------------------------|
D|--------------------------------------------------------------------------|
A|-5-5-5-5-5-5--4-4-4-4-4-4-3--3-3-3-3-3--2-2-2-2-2-2-----------------------|
E|--------------------------------------------------------------------------|
  Riff 3  (2:05)
G|--------------------------------------------------------------------------|
D|--------------------------------------------------------------------------|
A|-3-3-3-3-3-3-3-3-3-3-3-3-3-3-3-3------------------------------------------|
E|---------------------------------3-3-3-3-3-3-3-3-3-3-3-3-2-2-2-2----------|
  Riff 4  (2:14)
G|--------------------------------------------------------------------------|
D|--------------------------------------------------------------------------|
A|-----------------2-2-2-2-2-2-2-2-3-3-3-3-3-3-3-3--------------------------|
E|-0-0-0-0-0-0-0-0---------------------------------3-3-3-3-2-2-2-2----------|

G|--------------------------------------------------------------------------|
D|--------------------------------------------------------------------------|
A|-----------------2-2-2-2-2-2-2-2-3-3-3-3-3-3-3-3-5-5-5-5-5-5-5-5----------|
E|-0-0-0-0-0-0-0-0----------------------------------------------------------|

  Riff 2  (2:33)
G|--------------------------------------------------------------------------|
D|--------------------------------------------------------------------------|
A|-5-5-5-5-5-5--4-4-4-4-4-4--3-3-3-3-3-3--2-2-2-2-2-2----------------------|
E|--------------------------------------------------------------------------|

  Riff 3  (2:41)
G|--------------------------------------------------------------------------|
D|--------------------------------------------------------------------------|
A|-3-3-3-3-3-3-3-3-3-3-3-3-3-3-3-3------------------------------------------|
E|---------------------------------3-3-3-3-3-3-3-3-3-3-3-3-2-2-2-2----------|
  
Riff 4  (2:14)
G|--------------------------------------------------------------------------|
D|--------------------------------------------------------------------------|
A|-----------------2-2-2-2-2-2-2-2-3-3-3-3-3-3-3-3--------------------------|
E|-0-0-0-0-0-0-0-0---------------------------------3-3-3-3-2-2-2-2----------|

G|--------------------------------------------------------------------------|
D|--------------------------------------------------------------------------|
A|-----------------2-2-2-2-2-2-2-2-3-3-3-3-3-3-3-3-5-5-5-5-5-5-5-5----------|
E|-0-0-0-0-0-0-0-0----------------------------------------------------------|
  Riff 5  (3:08)
G|--------------------------------------------------------------------------|
D|--------------------------------------------------------------------------|
A|-5-5-5-5-5-5-5-5-5-5-5-5-5-5-5-5-5~---------------------------------------|
E|--------------------------------------------------------------------------|

  Riff 1  (3:34)
G|--------------------------------------------------------------------------|
D|--------------------------------------------------------------------------|
A|-3-3-3-3-3-3-3-3-3-3-3-3-3-3-3-3------------------------------------------|
E|---------------------------------3-3-3-3-3-3-3-3-3-3-3-3-3-3-3-3----------|

  Riff 2  (3:43)
G|--------------------------------------------------------------------------|
D|--------------------------------------------------------------------------|
A|-5-5-5-5-5-5--4-4-4-4-4-4--3-3-3-3-3-3--2-2-2-2-2-2-----------------------|
E|--------------------------------------------------------------------------|

  Riff 1  (3:53)  X3
G|--------------------------------------------------------------------------|
D|--------------------------------------------------------------------------|
A|-3-3-3-3-3-3-3-3-3-3-3-3-3-3-3-3------------------------------------------|
E|---------------------------------3-3-3-3-3-3-3-3-3-3-3-3-3-3-3-3----------|

 End On E|-3~--|

Lyrics:

Summer has come and passed
The innocent can never last             (Riff 1 w/Ending 1)
Wake me up when September ends

Like my father's come to pass
Seven years has gone so fast            (Riff 1 w/Ending 2)
Wake me up when September ends

Here comes the rain again
Falling from the stars                  (Riff 2)
Drenched in my pain again
Becoming who we are

As my memory rests
But never forgets what I lost           (Riff 1 w/Ending 1)
Wake me up when September ends

(Intro)
(Ending 1)

Summer has come and passed
The innocent can never last             (verse)
Wake me up when September ends

Ring out the bells again
Like we did when spring began           (chorus)
Wake me up when September ends

Here comes the rain again
Falling from the stars                  (verse)
Drenched in my pain again
Becoming who we are

As my memory rests
But never forgets what I lost           (chorus)
Wake me up when September ends

(Bridge)
(Intro)

Summer has come and passed
The innocent can never last             (chorus)
Wake me up when September ends

Like my fathers come to pass
Twenty years has gone so fast           (chorus)
Wake me up when September ends

Wake me up when September Ends
Wake me up when September Ends          (Outro)
Wake me up when September Ends
*****************************************************************************
Track 12:                    HOMECOMING
*****************************************************************************
NOTR: THANK YOU TO "LIAM" FOR THESE 5 PARTS
=============================================================================
This song is broken up into 5 parts (just like Jesus Of Suburbia)

--------------------------------------------------------------------------------------
I. Death of ST. Jimmy
--------------------------------------------------------------------------------------

Intro
G|--------------------------|--------------------------|--------------------------|
D|--------------------------|--------------------------|--------------------------|
A|--------------5-4---------|--------------5-4---------|--------------5-4---------|
E|-5-5-0-0-0-0------5-x-x-x-|-5-5-0-0-0-0------5-x-x-x-|-5-5-0-0-0-0------5-x-x-x-|

G|--------------------------|--------------------------|--------------------------|
D|--------------------------|--------------------------|--------------------------|
A|--------------5-4---------|--------------5-4---------|--------------5-4---------|
E|-5-5-0-0-0-0------5-x-x-x-|-5-5-0-0-0-0------5-x-x-x-|-5-5-0-0-0-0------5-x-x-x-|

G|---------------------------|---------------------|------------------------------|
D|---------------------------|---------------------|------------------------------|
A|-7\2p0---------------------|---------------------|--------------------------5---|
E|-------0-0-0-0-0-0-5-5-5-5-|-0-0-0-0-0-0-5-5-5-5-|-0-0-0-0-0-0-x-x-x-0-0--5---5-|

Verse
G|--------------------------|---------------------------------------------------|
D|--------------------------|---------------------------------------------------|
A|------5---------5--4------|-----------5-5-5-5--------5-4----------------------|
E|-5~~-----0---5--------5-0-|-5~-5-5-5-----------0--5-------5--0-0-0-0-0-0------|

G|-----------------------------------------|-----------------------------------------|
D|-----------------------------------------|-----------------------------------------|
A|----------------------5-4----------------|-----------------------5-4---------------|
E|5-5-5-5----------0-5-------5-0-0-0-0-0-0-|-5-5-5-5----------0-5-------5-0-0-0-0-0-0|

G|-----------------------------------------|-----------------------------------------|
D|-----------------------------------------|-----------------------------------------|
A|----------------------5-4----------------|-----------------------5-4---------------|
E|5-5-5-5----------0-5-------5-0-0-0-0-0-0-|-5-5-5-5----------0-5-------5-0-0-0-0-0-0|

Chorus (im not sure on the strumming pattern here, but you get the idea)
G|----------------------------------|-------------------------------------------|
D|----------------------------------|-------------------------------------------|
A|--------------------------0-0-0-0-|--------------------------0-0-0-0----------|
E|---2-2-2-2--2-2-2-2--0-0----------|---2-2-2-2--2-2-2-2--0-0-------------------|

G|----------------------------------|-------------------------------------------|
D|----------------------------------|-------------------------------------------|
A|--------------------------0-0-0-0-|-5-5-5-5--5-4------------------------------|
E|---2-2-2-2--2-2-2-2--0-0----------|---------------5-0-------------------------|

Order

Intro
Verse
Chorus
Verse
Chorus (but don't play the first bar - the one with the let ring bits on it)

Lyrics

(Intro)
My heart is beating from me
I am standing all alone 
Please call me only 
If you are coming come                          
Waste another year flies by                     
Waste a night or two 
You taught me how to live                       

(Verse 1)
In the streets of shame
Where you've lost your dreams in the rain       
There's no sign of hope
The stems and seeds of the last of the dope
There's a glow of light
The St. Jimmy is the spark in the night         
Bearing gifts and trust
The fixture in the city of lust

(Chorus)
What the hell's your name
Whats your pleasure what is your pain?          
Do you dream to much?
Do you think what you need is a crutch
(Verse 2
In the crowd of pain 
St. Jimmy comes without any shame              
He says "We're fucked up," but we're not the same
And mom and dad are the ones you can blame

(Chorus)
Jimmy died today
He blew out his brains into the bay             
In the state of mind 
It's my own private suicide

*****************************************************************************
II. East 12th street (2.23)
*****************************************************************************

Intro
G|------------------------------------------------------------------------------|
D|------------------------------------------------------------------------------|
A|------------------------------------------------------------------------------|
E|-x-x-x-x-x-x-x----------------------------------------------------------------|

Intro (Continued)
G|----------------|---------------|---------------|---------------|-------------|
D|----------------|---------------|---------------|---------------|-------------|
A|-----5----------|----5----------|----5----------|----5----------|-------------|
E|--5-----5--3--5-|-5-----5--3--5-|-5-----5--3--5-|-5-----5--3--5-|-x-x-x-x-----|

G|----------------|---------------|---------------|---------------|-------------|
D|----------------|---------------|---------------|---------------|-------------|
A|-----5----------|----5----------|----5----------|----5----------|-------------|
E|--5-----5--3--5-|-5-----5--3--5-|-5-----5--3--5-|-5-----5--3--5-|-x-x-x-x-----|

G|----------------|---------------|---------------|---------------|-------------|
D|----------------|---------------|---------------|---------------|-------------|
A|-----5----------|----5----------|----5----------|----5----------|-------------|
E|--5-----5--3--5-|-5-----5--3--5-|-5-----5--3--5-|-5-----5--3--5-|-x-x-x-x-----|

Verse
G|---------------------------|----------------------|---------------------------|
D|---------------------------|----------------------|---------------------------|
A|-5-5-5-5-----------5-5-5-5-|----------------------|-5-5-5-5-----------5-5-5-5-|
E|----------3-3-3-3----------|-3-3-3-3--5-5-5-5-5-5-|----------3-3-3-3----------|

G|--------------------------|---------------------------|-----------------------|
D|--------------------------|---------------------------|-----------------------|
A|--------------------------|-5-5-5-5-----------5-5-5-5-|-----------------------|
E|-3-3-3-3-3-3-3-3--5-5-5-5-|----------3-3-3-3----------|-3-3-3-3--5-5-5-5-5-5--|

G|---------------------------|--------------------------------------------------|
D|---------------------------|--------------------------------------------------|
A|-5-5-5-5-----------5-5-5-5-|-----------------------5-5-5-5--------------------|
E|----------3-3-3-3----------|-3-3-3-3--5-5-5-5-5-5-----------------------------|

Post verse (This bit swaps between acoustic bass and electric bass)
Acoustic                 | Electric
G|-----------------------|------------------------------------------------------|
D|-0-0-0-0--0--0--0-0--0-|------------------------------------------------------|
A|-----------------------|-5-5-5-5-------------5--------------------------------|
E|-----------------------|----------5--3--5-5-----------------------------------|

Acoustic                 | Electric
G|-----------------------|------------------------------------------------------|
D|-0-0-0-0--0--0--0-0--0-|------------------------------------------------------|
A|-----------------------|-5-5-5-5-------------5--------------------------------|
E|-----------------------|----------5--3--5-5-----------------------------------|

Acoustic                 | Electric
G|-----------------------|------------------------------------------------------|
D|-0-0-0-0--0--0--0-0--0-|------------------------------------------------------|
A|-----------------------|-5-5-5-5-------------5--------------------------------|
E|-----------------------|----------5--3--5-5-----------------------------------|

Acoustic                 | Electric
G|-----------------------|------------------------------------------------------|
D|-0-0-0-0--0--0--0-0--0-|------------------------------------------------------|
A|-----------------------|-5-5-5-5-------------5--------------------------------|
E|-----------------------|----------5--3--5-5-----------------------------------|

Chorus
G|----------------------------------|-------------------------------------------|
D|----------------------------------|-------------------------------------------|
A|-3-3-3-3-3-3-3-3------------------|-3-3-3-3-3-3-3-3---------------------------|
E|------------------5-5-5-5-5-5-5-5-|------------------5-5-5-5-5-5-5-5----------|

G|----------------------------------|-------------------------------------------|
D|----------------------------------|-------------------------------------------|
A|-3-3-3-3-3-3-3-3------------------|-3-3-3-3-3-3-3-3---------------------------|
E|------------------5-5-5-5-5-5-5-5-|------------------5-5-5-5-5-5-5-5----------|
Outro
G|------------------------------------------------------------------------------|
D|------------------------------------------------------------------------------|
A|-3-3-3-3-----------3-3-3-3-----------3-3-3-3-----------3-3-3-3----------------|
E|----------5-5-5-5-----------5-5-5-5-----------5-5-5-5-----------5-5-5-5-------|

Outro part 2
G|------------------------------------------------------------------------------|
D|------------------------------------------------------------------------------|
A|-5---3------------5-5-5--------5----------------------------------------------|
E|---------3---5-----------3--5-------------------------------------------------|

Order

Intro
Verse
Post Verse
Chorus
Outro

Lyrics:

(Intro)
Well nobody cares
Well nobody cares                               
Does anyone care 
If nobody cares?

Well nobody cares
Well nobody cares                               
Does anyone care 
If nobody cares?


(Verse)
Jesus filling out paperwork now
At the facility on East 12th Street
He's not listenin to a word now
He's in his own world and he's daydreaming
He'd rather be doing something else now
Cigarrettes and coffee with the underbelly
His life's on the line with anxiety now
And she had enough and he had plenty 

(Post-Verse)
Somebody get me out of here
Anybody get me out of here                      
Somebody get me out of here
Get me the fuck right out of here


(Chorus)
So far away
I don't want to stay
Get me out of here right now
I just wanna be free
Is there a responsibility
Get me out of here right now

(Outro)
Ahhh ohh                               
Ahhh ohh                                        
Ahhh ohh
Ahhh ohh

(Outro part 2)
This life like dream ain't for me    


*****************************************************************************
III. Nobody likes you (4.02)
*****************************************************************************

Mike wrote this song, and on the recording of the song mike played all the
instruments needed for the song. But didn't sing it, like some other guy says
I mean what is he deaf, do you know what Billie Joe sounds Like? 

Verse (the bit where the lyrics come in)
G|------------------------------------------------------------------------------|
D|------------------------------------------------------------------------------|
A|-5-5-5-5-5-5-5-5--------------------------------------------------------------|
E|------------------5-5-5-5-5-5-5-5--3-3-3-3-3-3-3-3--5-5-5-5-5-5-5-5-----------|
PM ******************************************************************

G|------------------------------------------------------------------------------|
D|------------------------------------------------------------------------------|
A|-5-5-5-5-5-5-5-5--------------------------------------------------------------|
E|------------------5-5-5-5-5-5-5-5--3-3-3-3-3-3-3-3--5-5-5-5-5-5-5-5-----------|
PM ******************************************************************

e|------------------------------------------------------------------------------|
G|------------------------------------------------------------------------------|
D|------------------------------------------------------------------------------|
A|-5-5-5-5-5-5-5-5--------------------------------------------------------------|
E|------------------5-5-5-5-5-5-5-5--3-3-3-3-3-3-3-3--5-5-5-5-5-5-5-5-----------|
PM ******************************************************************

G|------------------------------------------------------------------------------|
D|------------------------------------------------------------------------------|
A|-5-5-5-5-5-5-5-5--------------------------------------------------------------|
E|------------------5-5-5-5-5-5-5-5--3-3-3-3-3-3-3-3--5-5-5-5-5-5-5-5-----------|
PM ******************************************************************

Chorus
G|------------------------------------------------------------------------------|
D|------------------------------------------------------------------------------|
A|------------------------------------------------------------------------------|
E|-3-3-3-3-3-3--5-5-5-5-5-5--3-3-3-3-3-3--5-5-5-5-5-5--3-3-3-3-3-3--5-5-5-5-5-5-|
PM ****************************************************************************

G|------------------------------------------------------------------------------|
D|------------------------------------------------------------------------------|
A|-5-5-5-5-5-5-5-5-5-5-5-5------------------------------------------------------|
E|------------------------------------------------------------------------------|
PM ************************

Order

Verse
Chorus
Verse


(Verse 1)
I fell asleep while watching Spike TV
After 10 cups of coffee 
And your still not here
Dreaming of a song
But something went wrong
And you can't tell anyone
'Cause no one's here

(Pre-Chorus)
Left me here alone
And I should've stayed home
After 10 cups of coffee
I'm thinking 
Where'd you go?

(Chorus)
Nobody likes you
Everyone left you  (Where'd you go?) 
They're all out without you
Havin' fun (Where'd you go?)
Everyone left you
Nobody likes you  (Where'd you go?)
They're all out without you
Havin' fun 

Where'd you go, go, go, go?

*****************************************************************************
IV. Rock and Roll girlfriend (5.23)
*****************************************************************************
Tre wrote and on the recording played the drums for it and lead guitar, and he
sings it. Im not sure who plays the piano on this track but I think it is the
producer of the album

Intro
G|------------------------------------------------------------------------------|
D|------------------------------------------------------------------------------|
A|--5~~---7~~-------------------------------------------------------------------|
E|------------------------------------------------------------------------------|

Verse
G|-------------------------------------------------------------------------------|
D|-------------------------------------------------------------------------------|
A|--------------------------5-5-5-5-5-5-5-5-5-5-5-5-5----------------------------|
E|-5-5-5-5-5-5-5-5-5-5-5-5-----------------------------5-5-5-5-5-5-5-5-5-5-5-5-5-|

G|------------------------------------------------------------------------------|
D|------------------------------------------------------------------------------|
A|-7-7-7-7-7-7-7-7-7-7-7-7------------------------------------------------------|
E|------------------------------------------------------------------------------|

Outro
G|------------------------------------------------------------------------------|
D|------------------------------------------------------------------------------|
A|------------------------------------------------------------------------------|
E|-3--5--3--5----3--5--3--5----3--5--3--5-----3~--5~--3~--5---------------------|

Order

Intro
Verse x3
Outro

Lyrics

(Verse 1)
I got a rock and roll band
I got a rock and roll life              
I got a rock and roll girlfriend
And another ex-wife

I got a rock and roll house
I got a rock and roll car               
I plat the shit out the drums
And I can play the guitar

I got a kid in new york
I got a kid in the bay                  
I haven't drank or smoked nothin'
In over 22 days

(Outro)
So get off my case
Off of my case                          
Off of my case


*****************************************************************************
V. We're Coming Home Again part 1 (6.06)
*****************************************************************************
Steve Gray (reizig@gmail.com) split this song into two parts so, I will too

Intro
G|-------------------------------------|----------------------------------------|
D|-------------------------------------|----------------------------------------|
A|-5-5-x-x-x--5-5-x-x-x----------------|-5-5-x-x-x--5-5-x-x-x-------------------|
E|-----------------------7-7-7-7--3--5-|-----------------------7-7-7-7--3--5----|

G|-------------------------------------|----------------------------------------|
D|-------------------------------------|----------------------------------------|
A|-5-5-x-x-x--5-5-x-x-x----------------|-5-5-x-x-x--5-5-x-x-x-------------------|
E|-----------------------7-7-7-7--3--5-|-----------------------7-7-7-7--3--5----|

Verse
G|---------------------------------------------------|---------------------------|
D|---------------------------------------------------|---------------------------|
A|---------------------------------------------------|--------5-5-5-5------------|
E|---8--7-----8--7--3-3-3-3-3-3-3-3--5-5-5-5-5-5-5-5-|--8--7-----------5--3--5---|

Chorus
G|----------------------------------|--------------------------|------------------|
D|----------------------------------|--------------------------|------------------|
A|----------------------------------|--------------------------|--------------7-7-|
E|-3-3-3-3-3-3-3-3--5-5-5-5-5-5-5-5-|-3-3--5-5--10-10--5-5-5-5-|-3-3--5-5-7-7-----|

Outro
G|------------------------------------------------------------------------------|
D|------------------------------------------------------------------------------|
A|-5----------------------------------------------------------------------------|
E|----5-------------------------------------------------------------------------|

Order

Intro
Verse
Chorus
Outro

Lyrics:

(Verse 1)
Here they come marching down the street
Like a desperation murmur of a heart beat       
Coming back from the edge of town
Underneath their feet

The time has come and it going nowhere
Nobody ever said that life was fair now         
Go-carts and guns are treasures they will bear
In the summer heat

(Chorus)
The world is spinning
Around and around                               
Out of control again
From the 7-11 to the fear of breaking down

(Outro)
So send my love a letterbomb
And visit me in hell                           
We're the ones going...




*****************************************************************************
Track 13:                    WHATSERNAME
*****************************************************************************
Come in on second verse.
 INTRO X2
G|--------------------------------------------------------|
D|--------------------------------------------------------|
A|--5555555555555555-2222222222222222---------------------|
E|--------------------------------------------------------|

 VERSE X2
G|--------------------------------------------------------|
D|--------------------------------------------------------|
A|--555555555555555-22222222222222222---------------------|
E|--------------------------------------------------------|

 CHORUS X3(I made a point to...)	       (4th time)
G|-------------------------------------|------------------|
D|-------------------------------------|------------------|
A|----------555555-------222222-000000-|---------55555555-|
E|---333333--------222222--------------|-33333333---------|

 INTERLUDE X1
G|--------------------------------------------------------|
D|--------------------------------------------------------|
A|--555555555555555-22222222222222222---------------------|
E|--------------------------------------------------------|

 DURING GUITAR SOLO X2
G|-------------------------------------|
D|-------------------------------------|
A|----------555555-------222222-000000-|
E|---333333--------222222--------------|

 BRIDGE X4 (remember, whatever...)
G|-------------------------------------|----------------------------|
D|-------------------------------------|----------------------------|
A|----------555555-------222222-000000-|------5555----222222-000000-|
E|---333333--------222222--------------|--3333----2222--------------|

 BRIDGE X2 (and in the...)
G|-------------------------------------|
D|-------------------------------------|
A|----------555555-------222222-000000-|
E|---333333--------222222--------------|

 OUTRO
G|--------------------------------------------------------|
D|--------------------------------------------------------|
A|--555555555555555-22222222222222222---------------------|
E|--------------------------------------------------------|

Lyrics:

Thought I ran onto you down on the street               (VERSE 1)
Then it turned out only to be a dream

I made a point to burn all of the photographs
She went away and then I took a different path
I remember the face                                     (CHORUS)
But I cant recall the name
Now I wonder how Whatsername has been

Seems that she disappeared with out a trace             (VERSE 2)
Did she ever marry old what's his face

I made a point to burn all of the photographs
She went away and then I took a different path
I remember the face                                     (CHORUS)
But I cant recall the name
Now I wonder how Whatsername has been

(Bridge)

Remember, whatever
It seems like forever ago                               (BRIDGE)
Remember, whatever
It seems like forever ago
                                                        (INTERLUDE)
The regrets are useless   
In my mind
She's in my head                                        
The regrets are useless
In my mind
She's in my head

Go... go... go...                                       
Go... go... go...               

And in the darkest night
If my memory serves me right                            (END)
I'll never turn back time



That's the whole cd! Hope you enjoy it...
comments
print report bad tab
7 comments total. Showing first comments.
0 reply
TheMushroomClub wrote on January 10 2005, 12:00 am

Oh s.hit!! u stole my tab and u couldnt even get a good rating! HAHAHA!! YOU SUCK!!

-1 reply
sweet.dreams wrote on January 10 2005, 12:00 am

some1 explain 2 me y this is so bad! it looks fine 2 me.

+1 reply
mrpenguin93 wrote on July 8 2005, 12:00 am

the 1st five songs are fine but then it goes all downhill from there

I want to post or [tab]
guest
You may want to rate the tab now too:
select rating
Please do not post tabs as comments. Select "correction" instead!