Oops, an error
Loading. Please wait.

American Idiot Tab

ver2
ver2
More versions @911Tabs.com
67,910 views 54 this week
37 commentsread comments
1 2 3 4 5
accurate
x 54
Autoscroll
+/-
esc
set tempo
stop
Contributor
WARNING: You are trying to view
                                    content from Ultimate-Guitar.com
                                    in an unauthorized application,
                                    which is prohibited.

                                    Please use an official Ultimate
                                    Guitar Tabs application for iPhone,
                                    iPad or Android to access legitimate
                                    chords, guitar, bass, and drum tabs
                                    from Ultimate-Guitar.com database.

                                    Type "ultimate guitar tabs" in Apple
                                    App Store's or Android Market's
                                    search to find the application.
Green Day American Idiot album tab
Tabbed by Liam
Email: guitar_rocker_47@hotmail.com
Tuning: all standard (although whatsersname is drop D)

|Updated version 2|

Second and last update! I think this is 100% perfect sound -if im wrong please correct
me? I hate tabs that don’t have timing and number of repetition on chords –thats why
mine has these, and I believe the best American Idiot album tab on the net. If im being
big headed and if you disagree, Please leave a comment. Here we go –Love you guys!

Note: if you insert this tab into Microsoft word it looks weird where the tab overlaps
it’s self, to fix this just go on file, page set-up then click on the margins tab and
adjust to this: top = 0.32cm, bottom = 0.51cm,Left and right = 3cm. The tab should now
look in proportion, if it doesn’t or you don’t understand leave a comment. also change
the font to ‘Courier new’ and size ‘8’


1.  American Idiot
2.  Jesus Of Suburbia 
 I.   Jesus of Suburbia 
 II.  City of the Damned
 III. I Don't Care
 IV.  Dearly Beloved
 V.   Tales of another Broken Home
3.  Holiday
4.  Boulevard Of Broken Dreams 
5.  Are We the Waiting?
6.  St. Jimmy 
7.  Give Me Novacaine 
8.  She's A Rebel
9.  Extraordinary Girl
10. Letterbomb 
11. Wake Me Up When September Ends 
12. Homecoming
 I.   The Death of St. Jimmy 
 II.  East 12th Street
 III. Nobody Likes You
 IV.  Rock and Roll Girlfriend
 V.   We're Coming Home Again
13. Whatsername
 
--------------------------------------------------------------------------------------
Green Day American Idiot
--------------------------------------------------------------------------------------

Intro
Guitar 1 (clean)             |Distortion)
e|---------------------------|-------------------------------4--|
B|---------------------------|-------------------------------4--|
G|---------6-6----------6----|-----------6-6----------6------4--|
D|--6-6----6-6-----4-4--6--6-|-4--6-6----6-6-----4-4--6--6---4--|
A|--6-6----4-4-----4-4--4--6-|-4--6-6----4-4-----4-4--4--6------|
E|--4-4--0------0--2-2-----4-|-2--4-4--0------0--2-2-----4------|

Guitar 2 (distortion)
e|-----------------------------------------------------------4--|
B|-----------------------------------------------------------4--|
G|---------------------------------------6-6----------6------4--|
D|-----------------------------4--6-6----6-6-----4-4--6--6---4--|
A|-----------------------------4--6-6----4-4-----4-4--4--6------|
E|-----------------------------2--4-4--0------0--2-2-----4------|

Main Riff
Guitar 1 and 2
e|-----------------------------------|---------------------------------4--------|
B|-----------------------------------|---------------------------------4--------|
G|-----------6--6----------6---------|------------6--6----------6------4--------|
D|--6--6-----6--6-----4-4--6--6--4---|---6--6-----6--6-----4-4--6--6---4--------|
A|--6--6-----4--4-----4-4--4--6--4---|---6--6-----4--4-----4-4--4--6------------|
E|--4--4--0--------0--2-2-----4--2---|---4--4--0--------0--2-2-----4------------|


Verse  
Guitars 1 and 2
(Pause for lyrics)
e|-4-----------------------------------------------4--------------------------4--|
B|-4-----------------------------------------------4--------------------------4--|
G|-4-------6-6---------6---------------------------4--------6-6---------6-----4--|
D|-4-6-6---6-6----4-4--6--6--4-(pause for lyrics)--4--6-6---6-6----4-4--6--6--4--|
A|---6-6---4-4----4-4--4--6--4------------------------6-6---4-4----4-4--4--6-----|
E|---4-4-0-----0--2-2-----4--2------------------------4-4-0-----0--2-2-----4-----|

(Pause for lyrics)

e|-4-----------------------------------------------4--------------------------4--|
B|-4-----------------------------------------------4--------------------------4--|
G|-4-------6-6---------6---------------------------4--------6-6---------6-----4--|
D|-4-6-6---6-6----4-4--6--6--4-(pause for lyrics)--4--6-6---6-6----4-4--6--6--4--|
A|---6-6---4-4----4-4--4--6--4------------------------6-6---4-4----4-4--4--6-----|
E|---4-4-0-----0--2-2-----4--2------------------------4-4-0-----0--2-2-----4-----|

Chorus
Guitar 1 and 2
e|-----------------------------------------------------------------------------|
B|-----------------------------------------------------------------------------|
G|-6-6-6-6-6-6-6-6-6-6-6-6-6-------------------------------------8-8-8-8-8-8-8-|
D|-6-6-6-6-6-6-6-6-6-6-6-6-6-----6-6-6-6-6-6-6-6-6-6-6-6-6-6-----8-8-8-8-8-8-8-|
A|-4-4-4-4-4-4-4-4-4-4-4-4-4-----6-6-6-6-6-6-6-6-6-6-6-6-6-6-----6-6-6-6-6-6-6-|
E|-------------------------------4-4-4-4-4-4-4-4-4-4-4-4-4-4-------------------|

e|-----------------------------------------------------------------------------|
B|-----------------------------------------------------------------------------|
G|-8-8-8-8-8-8-8--------------------------------6-6-6-6-6-6-6-6-6-6-6-6-6-6-6--|
D|-8-8-8-8-8-8-8--6-6-6-6-6-6-6-6-6-6-6-6-6-----6-6-6-6-6-6-6-6-6-6-6-6-6-6-6--|
A|-6-6-6-6-6-6-6--6-6-6-6-6-6-6-6-6-6-6-6-6-----4-4-4-4-4-4-4-4-4-4-4-4-4-4-4--|
E|----------------4-4-4-4-4-4-4-4-4-4-4-4-4------------------------------------|

e|--------------------------------------------------------------------------4--|
B|--------------------------------------------------------------------------4--|
G|-------------------------------8-8-8-8-8-8-8-8-8-8-8-8-8-8-8--(Drum-------4--|
D|-6-6-6-6-6-6-6-6-6-6-6-6-6-----8-8-8-8-8-8-8-8-8-8-8-8-8-8-8---Fill)------4--|
A|-6-6-6-6-6-6-6-6-6-6-6-6-6-----6-6-6-6-6-6-6-6-6-6-6-6-6-6-6-----------------|
E|-4-4-4-4-4-4-4-4-4-4-4-4-4---------------------------------------------------|

Solo
Guitar 1
e|-----------------------------------------------------------------------------|
B|-----------------------------------------------------------------------------|
G|-10-10-10-10-10-10-10-10-10-10--8--6--6/8--8--8--8--8--8--8/10---8---6---5---|
D|--x--x--x--x--x--x--x--x--x--x--x--x--x-x--x--x--x--x--x--x--x---x---x---x---|
A|--8--8--8--8--8--8--8--8--8--8--6--4--4/6--6--6--6--6--6--6/-8---6---4---3---|
E|-----------------------------------------------------------------------------|

Guitar 2
e|-----------------------------------------------------------------------------|
B|-----------------------------------------------------------------------------|
G|-----6-6-6-6-6--6-6-6-6-6-6-6-6----------------------------------------------|
D|-----6-6-6-6-6--6-6-6-6-6-6-6-6---------6-6-6-6-6-6--6-6-6-6-6-6-6-6---------|
A|-----4-4-4-4-4--4-4-4-4-4-4-4-4---------6-6-6-6-6-6--6-6-6-6-6-6-6-6---------|
E|-----------------------------------0----4-4-4-4-4-4--4-4-4-4-4-4-4-4---------|

Guitar 1
e|-----------------------------------------------------------8------------------|
B|-------------------------------------------9------11-------------------9---11-|
G|-3---3-3-3-3--5--6--5--3-3-3-3-/8----8-8------8--8---8--8-----8-8-8-8----8----|
D|------------------------------------------------------------------------------|
A|------------------------------------------------------------------------------|
E|------------------------------------------------------------------------------|

Guitar 2
e|-----------------------------------------------------------------------------|
B|-----------------------------------------------------------------------------|
G|---8-8-8-8-8-8-8-8-8-8-8-8-8-8-----------------------------------------------|
D|---8-8-8-8-8-8-8-8-8-8-8-8-8-8----6-6-6-6-6-6-6-6-6-6-6-6-6------------------|
A|---6-6-6-6-6-6-6-6-6-6-6-6-6-6----6-6-6-6-6-6-6-6-6-6-6-6-6------------------|
E|----------------------------------4-4-4-4-4-4-4-4-4-4-4-4-4------------------|

Guitar 1
e|-----------------------------------------------------------------------------|
B|-----------------------------------------------------------------------------|
G|-10-10-10-10-10-10-10-10-10-10--8--6--6/8--8--8--8--8--8--8/10---8---6---5---|
D|--x--x--x--x--x--x--x--x--x--x--x--x--x-x--x--x--x--x--x--x--x---x---x---x---|
A|--8--8--8--8--8--8--8--8--8--8--6--4--4/6--6--6--6--6--6--6/-8---6---4---3---|
E|-----------------------------------------------------------------------------|

Guitar 2
e|-------------------------------------------------------------|
B|-------------------------------------------------------------|
G|-------6-6-6-6-6-6-6-6-6-6-6-6-6-----------------------------|
D|-------6-6-6-6-6-6-6-6-6-6-6-6-6---6-6-6-6-6-6-6-6-6-6-6-6-6-|
A|-------4-4-4-4-4-4-4-4-4-4-4-4-4---6-6-6-6-6-6-6-6-6-6-6-6-6-|
E|-----------------------------------4-4-4-4-4-4-4-4-4-4-4-4-4-|

Guitar 1
e|------------------------------------|
B|--------------------------------9b--|
G|--3---3-3-3-3--5--6--5--3---5/8-----|
D|------------------------------------|
A|------------------------------------|
E|------------------------------------|

Guitar 2
e|------------------------------------|
B|------------------------------------|
G|-8-8-8-8-8-8-8-8-8-8-8-8-8-8-8------|
D|-8-8-8-8-8-8-8-8-8-8-8-8-8-8-8------|
A|-6-6-6-6-6-6-6-6-6-6-6-6-6-6-6------|
E|------------------------------------|

Interlude
Guitar 1 (with radio effect)
e|---------------------------|--------------------------|--------------------------|
B|---------------------------|--------------------------|--------------------------|
G|--------6-6----------6-----|--------6-6----------6----|--------6-6----------6----|
D|-6-6----6-6-----4-4--6--6--|-6-6----6-6-----4-4--6--6-|-6-6----6-6-----4-4--6--6-|
A|-6-6----4-4-----4-4--4--6--|-6-6----4-4-----4-4--4--6-|-6-6----4-4-----4-4--4--6-|
E|-4-4--0------0--2-2-----4--|-4-4--0------0--2-2-----4-|-4-4--0------0--2-2-----4-|

Guitar 2
e|---------------------------|--------------------------|--------------------------|
B|------------------------4--|------------------------4-|------------------------4-|
G|------------------------4--|------------------------4-|------------------------4-|
D|------------------------4--|------------------------4-|------------------------4-|
A|------------------------4--|------------------------4-|------------------------4-|
E|---------------------------|--------------------------|--------------------------|

Guitar 1 (with radio effect)
e|---------------------------|--------------------------|--------------------------|
B|---------------------------|--------------------------|--------------------------|
G|--------6-6----------6-----|--------6-6----------6----|--------------------------|
D|-6-6----6-6-----4-4--6--6--|-6-6----6-6-----4-4--6--6-|--------------------------|
A|-6-6----4-4-----4-4--4--6--|-6-6----4-4-----4-4--4--6-|--------------------------|
E|-4-4--0------0--2-2-----4--|-4-4--0------0--2-2-----4-|--------------------------|

Guitar 2
e|---------------------------|--------------------------|--------------------------|
B|------------------------4--|------------------------4-|--------------------------|
G|------------------------4--|------------------------4-|-“Its calling out to------|
D|------------------------4--|------------------------4-|-----idiot America”-------|
A|------------------------4--|------------------------4-|--------------------------|
E|---------------------------|--------------------------|---------------------9\---|

Outro 
Guitar 1 (clean)                (Distortion)
e|-----------------------------|-----------------------------|
B|-----------------------------|-----------------------------|
G|---------6-6----------6------|--------6-6----------6-------|
D|--6-6----6-6-----4-4--6--6---|-6-6----6-6-----4-4--6--6--4-|
A|--6-6----4-4-----4-4--4--6---|-6-6----4-4-----4-4--4--6--4-|
E|--4-4--0------0--2-2-----4---|-4-4--0------0--2-2-----4--2-|

Guitar 2 (distortion)
e|---------------------------4-|-----------------------------|
B|---------------------------4-|-----------------------------|
G|---------------------------4-|--------6-6----------6-------|
D|---------------------------4-|-6-6----6-6-----4-4--6--6--4-|
A|-----------------------------|-6-6----4-4-----4-4--4--6--4-|
E|-----------------------------|-4-4--0------0--2-2-----4--2-|

Guitar 1
e|-----------------------------------|----------------------------------|
B|-----------------------------------|----------------------------------|
G|-----------6--6----------6---------|------------6--6----------6-------|
D|--6--6-----6--6-----4-4--6--6--4---|---6--6-----6--6-----4-4--6--6--4-|
A|--6--6-----4--4-----4-4--4--6--4---|---6--6-----4--4-----4-4--4--6--4-|
E|--4--4--0--------0--2-2-----4--2---|---4--4--0--------0--2-2-----4--2-|

Guitar 2
e|-----------------------------------|----------------------------------|
B|-----------------------------------|----------------------------------|
G|-----------6--6----------6---------|------------6--6----------6-------|
D|--6--6-----6--6-----4-4--6--6--4---|---6--6-----6--6-----4-4--6--6--4-|
A|--6--6-----4--4-----4-4--4--6--4---|---6--6-----4--4-----4-4--4--6--4-|
E|--4--4--0--------0--2-2-----4--2---|---4--4--0--------0--2-2-----4--2-|

Guitar 1 (clean)
e|----------------------------------|
B|----------------------------------|
G|-----------6--6-------------------|
D|--6--6-----6--6-----4-4-----------|
A|--6--6-----4--4-----4-4-----------|
E|--4--4--0--------0--2-2-----------|

Guitar 2 (distortion)
e|----------------------------------|
B|----------------------------------|
G|-------------------------6--6-----|
D|----------------------4--6--6--6--|
A|----------------------4--4--4--6--|
E|----------------------2--------4--|


Order

Intro
Main Riff
Verse
Chorus
Main Riff
Verse
Chorus
Main riff x2
Solo
Interlude
Chorus
Outro

Lyrics

(Verse 1)
Don't wanna’ be an American idiot
Don't want a nation under the new media 
Hey, can you hear the sound of hysteria?
The subliminal mind-fuck America

(Chorus)
Welcome to a new kind of tension
All across the alien nation
Everything isn't meant to be OK                 
Television dreams of tomorrow
We're not the ones who're meant to follow
For that's enough to argue

(Verse 2)
Well, maybe I'm the faggot, America
I'm not a part of a redneck agenda              
Now everybody do the propaganda
And sing along in the age of paranoia

(Interlude)
Don't wanna’ be an American idiot
One nation controlled by the media
Information - age of hysteria?
It’s calling out to idiot America

(Chorus)
Welcome to a new kind of tension
All across the alien nation
Everything isn't meant to be OK                 
Television dreams of tomorrow
We're not the ones who're meant to follow
Well that's enough to argue

--------------------------------------------------------------------------------------
Green Day Jesus of Suburbia 
--------------------------------------------------------------------------------------

--------------------------------------------------------------------------------------
I.   Jesus of Suburbia 
--------------------------------------------------------------------------------------

Verse
e|-----------------------------------------------------------------------------|
B|-----------------------------------------------------------------------------|
G|-6-6-6-6---------------------------------------------------------------------|
D|-6-6-6-6--8-8-8-8--8\-4-4-4-4-4-4-4-4-4-4-4-4-4-4-6-6-6-6-6-6-6-6-6-6-6-6-6-6|
A|-4-4-4-4--8-8-8-8--8\-4-4-4-4-4-4-4-4-4-4-4-4-4-4-6-6-6-6-6-6-6-6-6-6-6-6-6-6|
E|----------6-6-6-6--6\-2-2-2-2-2-2-2-2-2-2-2-2-2-2-4-4-4-4-4-4-4-4-4-4-4-4-4-4|

Chorus
e|------------------------|
B|------------------------|
G|------------------------|
D|-4-4-4-4-x--6-6-6-6-6-6-|
A|-4-4-4-4-x--6-6-6-6-6-6-|
E|-2-2-2-2-x--4-4-4-4-4-4-|

Post Chorus
e|--------------------------|
B|--------------------------|
G|-6-6----------------------|
D|-6-6--6-6--x--4-4-4-4-4-4-|
A|-4-4--6-6--x--4-4-4-4-4-4-|
E|------4-4--x--2-2-2-2-2-2-|

Outro
e|-----------------------------------------------|
B|-----------------------------------------------|
G|-6-6-6-6--------------3-3-3--------------------|
D|-6-6-6-6--3-3-3-3--x--3-3-3--6-6-6--x--4~~-/6~~|
A|-4-4-4-4--3-3-3-3--x--1-1-1--6-6-6--x--4~~-/6~~|
E|----------1-1-1-1--x---------4-4-4--x--2~~-/4~~|

Order

Verse x2
Chorus x3
Post chorus x2
Verse x2
Chorus x3
Post chorus x2
Verse
Outro

Lyrics

(Verse 1)
I'm the son of rage and love
The Jesus of Suburbia                          
From the Bible of "none of the above"
On a steady diet of 

Soda pop and Ritalin
No one ever died for my sins in hell            
As far as I can tell 
At least the ones I've gotten away with

(Chorus)
And there's nothing wrong with me
This is how I'm supposed to be               
In a land of make believe
That don't believe in me

(Verse 2)
Get my television fix 
Sitting on my crucifix                          
The living room in my private womb
While the moms and brads are away

To fall in love and fall in debt
To alcohol and cigarettes  
And Mary Jane to keep me insane
And doing someone else's cocaine

(Chorus)
And there's nothing wrong with me
This is how I'm supposed to be               
In a land of make believe
That don't believe in me


--------------------------------------------------------------------------------------
II.     City of the damned (1.51)
--------------------------------------------------------------------------------------

Verse,					       Verse fill (flanger effect)   
e|---------------------------------------| e|------------------------------| 
B|---------------------------------------| B|------------------------------|
G|---------------------------------------| G|------------------------------|
D|---------------------------------------| D|------------------------------|
A|------4-4-4-4-4-4-4-4--6-6-6-6-6-6-6-6-| A|-4~~--4h6-4-3--1~~--1h3-1---x-|
E|-9\---2-2-2-2-2-2-2-2--4-4-4-4-4-4-4-4-| E|--------------------------4-x-|

Chorus 
e|-----------------------------------------------------------------|
B|--------------------------------6-6-6-6-6------------------------|
G|--------------------------------6-6-6-6-6------------------------|
D|--------------------------------6-6-6-6-6------------------------|
A|-8-8-8-8-8-------6-6-6-6-6------4-4-4-4-4---4/---4-4-4-4-4-------|
E|-6-6-6-6-6--6/---4-4-4-4-4--4/-------------------2-2-2-2-2--2/---|

e|-----------------------------------------|
B|-----------------------------------------|
G|-----------------------------------------|
D|-----------------------------------------|
A|-8-8-8-8-x--6-6-6-6-x--4-4-4-4-4-4-4-----|
E|-6-6-6-6-x--4-4-4-4-x--2-2-2-2-2-2-2--2/-|

Outro
e|----------------------------------|----------------------------------|
B|----------------------------------|----------------------------------|
G|-3-3-3-3-3-3-3-3--3-3-3-3-3-3-3-x-|-3-3-3-3-3-3-3-3--3-3-3-3-3-3-3-3-|
D|-4-4-4-4-4-4-4-4--4-4-4-4-4-4-4-x-|-4-4-4-4-4-4-4-4--4-4-4-4-4-4-4-4-|
A|-4-4-4-4-4-4-4-4--4-4-4-4-4-4-4-x-|-4-4-4-4-4-4-4-4--4-4-4-4-4-4-4-4-|
E|-2-2-2-2-2-2-2-2--2-2-2-2-2-2-2-x-|-2-2-2-2-2-2-2-2--2-2-2-2-2-2-2-2-|

Order

Intro
Verse
Verse fill
Verse
Chorus x2 (don’t play the last slide on 2nd repeat)
Verse
Verse fill
Verse
Chorus x2 (don’t play the last slide on 2nd repeat)
Outro


Lyrics

(Verse 1)
At the center of the earth
In the parking lot                              
Of the 7-11 were I was taught
The motto was just a lie

It says home is were your heart is
But what a shame                                
Cause everyone's heart doesn't beat the same
We're beating out of time

(Chorus)
City of the dead
At the end of another lost highway
Sign misleading to nowhere                      
City of the damned
Lost children with dirty faces today
No one really seems to care

(Verse 2)
I read the graffiti
In the bathroom stall                           
Like the holy scriptures of a shopping mall
And so it seemed to confess

It didn't say much
But it only confirmed that                     
The center of the earth is the end of the world
And I could really care less 

(Chorus)
City of the dead
At the end of another lost highway
Sign misleading to nowhere                      
City of the damned
Lost children with dirty faces today
No one really seems to care


--------------------------------------------------------------------------------------
III.    I Don't Care (3.41)
--------------------------------------------------------------------------------------

Intro
Guitar 1
e|------------------------------------------------------------------------------|
B|-----------------------------------6-4~--2--\7-7~~-7-7-7--6~-4-2--4-4-4-4—9~--|
G|--------------6-6~-6----------------------------------------------------------|
D|-6-6~~--6-6-6---------6-6~~-6-6-6---------------------------------------------|
A|------------------------------------------------------------------------------|
E|------------------------------------------------------------------------------|

Guitar 2
e|------------------------------------------------------------------|
B|------------------------------------------------------------------|
G|----------6-6-6-----------6-6-6-----------6-6-6-------------------|
D|-6-6-6-6--6-6-6--6-6-6-6--6-6-6--4-4-4-4--6-6-6--6-6-6-6--6-6-6-6-|
A|-6-6-6-6--4-4-4--6-6-6-6--4-4-4--4-4-4-4--4-4-4--6-6-6-6--6-6-6-6-|
E|-4-4-4-4---------4-4-4-4---------2-2-2-2---------4-4-4-4--4-4-4-4-|

Verse
e|------------------------------------------------------------------|
B|------------------------------------------------------------------|
G|----------6-6-6-----------6-6-6-----------6-6-6-------------------|
D|-6-6-6-6--6-6-6--6-6-6-6--6-6-6--4-4-4-4--6-6-6--6-6-6-6--6-6-6-6-|
A|-6-6-6-6--4-4-4--6-6-6-6--4-4-4--4-4-4-4--4-4-4--6-6-6-6--6-6-6-6-|
E|-4-4-4-4---------4-4-4-4---------2-2-2-2---------4-4-4-4--4-4-4-4-|

Chorus
e|-----------------------------|-----------------------|-----------------------|
B|-----------------------------|-----------------------|-----------------------|
G|-------6-6-6-6-6-6-6-6-------|-6-6-6-6-6-6-6-6-------|-6-6-6-6-6-6-6-6-------|
D|-4--6--6-6-6-6-6-6-6-6--7--6-|-6-6-6-6-6-6-6-6--7--6-|-6-6-6-6-6-6-6-6--7--6-|
A|-4--6--4-4-4-4-4-4-4-4--7--6-|-4-4-4-4-4-4-4-4--7--6-|-4-4-4-4-4-4-4-4--7--6-|
E|-2--4-------------------5--4-|------------------5--4-|------------------5--4-|

e|-----------------------|
B|-----------------------|
G|-6-6-6-6-6-6-6-6-------|
D|-6-6-6-6-6-6-6-6--7--6-|
A|-4-4-4-4-4-4-4-4--7--6-|
E|------------------5--4-|

Post chorus         
e|-----------------|
B|-----------------|
G|-----------------|
D|-------------7-6-|
A|-(bass riff)-7-6-|
E|-------------5-4-| 

Pre Outro
e|-----------------------|-----------------------|-----------------------|
B|-----------------------|-----------------------|-----------------------|
G|-6-6-6-6-6-6-6-6-------|-6-6-6-6-6-6-6-6-------|-6-6-6-6-6-6-6-6-------|
D|-6-6-6-6-6-6-6-6--7--6-|-6-6-6-6-6-6-6-6--7--6-|-6-6-6-6-6-6-6-6--7--6-|
A|-4-4-4-4-4-4-4-4--7--6-|-4-4-4-4-4-4-4-4--7--6-|-4-4-4-4-4-4-4-4--7--6-|
E|------------------5--4-|------------------5--4-|------------------5--4-|

e|-----------------|
B|-----------------|
G|-6-6-6-6-6-6-6-6-|
D|-6-6-6-6-6-6-6-6-|
A|-4-4-4-4-4-4-4-4-|
E|-----------------|

Outro
e|-----------------------|-----------------------|-----------------------|
B|-----------------------|-----------------------|-----------------------|
G|-------6-6-6-6-6-6-6-6-|-------6-6-6-6-6-6-6-6-|-------6-6-6-6-6-6-6-6-|
D|-4--6--6-6-6-6-6-6-6-6-|-4--6--6-6-6-6-6-6-6-6-|-4--6--6-6-6-6-6-6-6-6-|
A|-4--6--4-4-4-4-4-4-4-4-|-4--6--4-4-4-4-4-4-4-4-|-4--6--4-4-4-4-4-4-4-4-|
E|-2--4------------------|-2--4------------------|-2--4------------------|

e|-----------------------|-------------------------|
B|-----------------------|-------------------------|
G|-------6-6-6-6-6-6-6-6-|------6--6--6------------|
D|-4--6--6-6-6-6-6-6-6-6-|-4-6--6--6--6---7-6---6~-|
A|-4--6--4-4-4-4-4-4-4-4-|-4-6--4--4--4---7-6---6~-|
E|-2--4------------------|-2-4------------5-4---4~-|

Order

Intro
Verse x4
Chorus
Post chorus x8
Chorus x2
Outro

Lyrics:

(Intro part 2)      
I don't care if you don't
I don't care if you don't               
I don't care if you don't care

I don't care if you don't
I don't care if you don't               
I don't care if you don't care

I don't care if you don't
I don't care if you don't               
I don't care if you don't care

I don't care if you don't
I don't care if you don't               
I don't care if you don't care
                         
(Verse)
I don't care!

(Verse Part 2)
Everyone so full of shit
Born and raised by hypocrites
Hearts recycled but never saved
From the cradle to the grave            
We are the kids of war and peace
From Anaheim to the Middle East
We are the stories and disciples
Of the Jesus of suburbia

(Chorus)                
Land of make believe
And it don't believe in me              
Land of make believe
And I don't believe

(Outro)
And I don't care!
I don't care!
I don't care!                           
I don't care!
I don't care!


--------------------------------------------------------------------------------------
IV. Dearly Beloved (5.25)
--------------------------------------------------------------------------------------
(A minor still ringing)

Intro 
e|------------------|---------------|-----------|
B|------------------|---------------|-----------|
G|------------------|---------------|-----------|
D|-------------4/5--|--5/6----------|--7/8------|
A|-5/6---------2/3--|--3/4----5/6---|--5/6------|
E|-3/4--------------|---------3/4---|-----------|

Verse (acoustic) 
e|--------------|----------------|-----------|---------------|
B|--------------|----------------|-----------|---------------|
G|--------------|----------------|----5----5-|----5----5-5-x-|
D|-----6------6-|-----6----6-6-x-|----5----5-|----5----5-5-x-|
A|-----6------6-|-----6----6-6-x-|--3----3---|--3----3-------|
E|--4------4----|--4-----4-------|-----------|---------------|
PM  *      *       *     *          *    *      *    *

e|--------------|----------------|-----------|---------------|
B|--------------|----------------|-----------|---------------|
G|-----6------6-|-----6----6-6-x-|-----------|---8-----8-8-x-|
D|-----6------6-|-----6----6-6-x-|---6-----6-|---8-----8-8-x-|
A|--4------4----|--4-----4-------|---6-----6-|-6-----6-------|
E|--------------|----------------|-4----4----|---------------|
PM  *      *       *     *         *    *      *    *

Electric over dub (starts on the third repeat of the acoustic verse)
e|-------------------------------|---------------------------|
B|-------------------------------|---------------------------|
G|-------------------------------|-5--5--5--5--5--5--5--5--5-|
D|--6--6--6--6---6--6--6---6--6--|-5--5--5--5--5--5--5--5--5-|
A|--6--6--6--6---6--6--6---6--6--|-3--3--3--3--3--3--3--3--3-|
E|--4--4--4--4---4--4--4---4--4--|---------------------------|
PM  *********************************************************

e|-------------------------------|-----------|---------------|
B|-------------------------------|-----------|---------------|
G|--6--6--6--6---6--6--6---6--6--|-----------|--8-8--8--8-8--|
D|--6--6--6--6---6--6--6---6--6--|-6-6--6-6--|--8-8--8--8-8--|
A|--4--4--4--4---4--4--4---4--4--|-6-6--6-6--|--6-6--6--6-6--|
E|-------------------------------|-4-4--4-4--|---------------|
PM  *********************************************************

Order

Intro
Verse x5

Lyrics

(Intro)
Dearly beloved are you listening?
I can’t remember a word that you were saying

(Verse)
Are we demented or are we disturbed?
The space that's in between insane and insecure
Oh therapy, can you please fill the void?
Am I retarded or am I just overjoyed
Nobody's perfect and I stand accused?
For lack of a better word, and that's my best excuse


--------------------------------------------------------------------------------------
V.  Tales of Another Broken Home (6.30)
--------------------------------------------------------------------------------------

Intro
e|-------------------|
B|-------------------|
G|-----------------6-|
D|-6-------------4-6-|
A|-6-------------4-4-|
E|-4-(bassriff)--2---|

Verse
e|-------------------------|
B|-------------------------|
G|-----------------------6-|
D|-6-6-6-6-6-6-6-6-6--4--6-|
A|-6-6-6-6-6-6-6-6-6--4--4-|
E|-4-4-4-4-4-4-4-4-4--2----|

Chorus
e|------------------|------------------|------------------|------------------|
B|------------------|-8--9--8--9--8--9-|------------------|-8--9--8--9--8--9-|
G|-6-----6-----6----|-8--8--8--8--8--8-|-6-----6-----6----|-8--8--8--8--8--8-|
D|-6--6--6--6--6--6-|-8--8--8--8--8--8-|-6--6--6--6--6--6-|-8--8--8--8--8--8-|
A|-4--6--4--6--4--6-|------------------|-4--6--4--6--4--6-|------------------|
E|----4-----4-----4-|------------------|----4-----4-----4-|------------------|

Pre solo
e|-------------------------|-------------------------|------|
B|-------------------------|-------------------------|------|
G|---6---------------------|---6---------------------|----6-|
D|-4-6--6-6--6-6--6-6--6-6-|-4-6--6-6--6-6--6-6--6-6-|-4--6-|
A|-4-4--6-6--6-6--6-6--6-6-|-4-4--6-6--6-6--6-6--6-6-|-4--4-|
E|-2----4-4--4-4--4-4--4-4-|-2----4-4--4-4--4-4--4-4-|-2----|

Solo
Guitar 1
e|------------------------------------------------------------------------------|
B|--------------6---------------------------------------------------------------|
G|-5--8b-----6--------6---------8b--8-------5b---3--------6---3-----5b------5---|
D|------------------------------------------------------------------------------|
A|------------------------------------------------------------------------------|
E|------------------------------------------------------------------------------|

Guitar 2
e|-------------------------|-------------------------|--------------------------|
B|-------------------------|-------------------------|--------------------------|
G|-----------------------6-|-----------------------6-|-----------------------6--|
D|-6-6-6-6-6-6-6-6-6--4--6-|-6-6-6-6-6-6-6-6-6--4--6-|-6-6-6-6-6-6-6-6-6--4--6--|
A|-6-6-6-6-6-6-6-6-6--4--4-|-6-6-6-6-6-6-6-6-6--4--4-|-6-6-6-6-6-6-6-6-6--4--4--|
E|-4-4-4-4-4-4-4-4-4--2----|-4-4-4-4-4-4-4-4-4--2----|-4-4-4-4-4-4-4-4-4--2-----|

Guitar 1
e|------------------------------------------------------------------------------|
B|--------------6---------------------------------------------------------------|
G|----8b-----6--------6---------8b--8-------5b---3--------6---3-----5b------5---|
D|------------------------------------------------------------------------------|
A|------------------------------------------------------------------------------|
E|------------------------------------------------------------------------------|

Guitar 2
e|-------------------------|-------------------------|--------------------------|
B|-------------------------|-------------------------|--------------------------|
G|-----------------------6-|-----------------------6-|-----------------------6--|
D|-6-6-6-6-6-6-6-6-6--4--6-|-6-6-6-6-6-6-6-6-6--4--6-|-6-6-6-6-6-6-6-6-6--4--6--|
A|-6-6-6-6-6-6-6-6-6--4--4-|-6-6-6-6-6-6-6-6-6--4--4-|-6-6-6-6-6-6-6-6-6--4--4--|
E|-4-4-4-4-4-4-4-4-4--2----|-4-4-4-4-4-4-4-4-4--2----|-4-4-4-4-4-4-4-4-4--2-----|

Solo
Guitar 1
e|-------------------------------------|----------------------------------------|
B|-7p6----9p6----7p6----9p6----7p6-----|-9p8---11p8---9p8---11p8---9p8----------|
G|-----6------6------6------6------6/8-|-----8------8-----8------8------8\6-----|
D|-------------------------------------|----------------------------------------|
A|-------------------------------------|----------------------------------------|
E|-------------------------------------|----------------------------------------|

Guitar 2
e|------------------|------------------|------------------|---------------------|
B|------------------|------------------|------------------|---------------------|
G|-6-----6-----6----|-8-----8-----8----|-6-----6-----6----|-8-----8-----8-------|
D|-6--6--6--6--6--6-|-8--6--8--6--8--6-|-6--6--6--6--6--6-|-8--6--8--6--8--6----|
A|-4--6--4--6--4--6-|-6--6--6--6--6--6-|-4--6--4--6--4--6-|-6--6--6--6--6--6----|
E|----4-----4-----4-|----4-----4-----4-|----4-----4-----4-|----4-----4-----4----|

Guitar 1
e|-------------------------------------|----------------------------------------|
B|-7p6----9p6----7p6----9p6----7p6-----|-9p8---11p8---9p8---11p8---9p8----------|
G|-----6------6------6------6------6/8-|-----8------8-----8------8------8\6-----|
D|-------------------------------------|----------------------------------------|
A|-------------------------------------|----------------------------------------|
E|-------------------------------------|----------------------------------------|

Guitar 2
e|------------------|------------------|------------------|---------------------|
B|------------------|------------------|------------------|---------------------|
G|-6-----6-----6----|-8-----8-----8----|-6-----6-----6----|-8-----8-----8-------|
D|-6--6--6--6--6--6-|-8--6--8--6--8--6-|-6--6--6--6--6--6-|-8--6--8--6--8--6----|
A|-4--6--4--6--4--6-|-6--6--6--6--6--6-|-4--6--4--6--4--6-|-6--6--6--6--6--6----|
E|----4-----4-----4-|----4-----4-----4-|----4-----4-----4-|----4-----4-----4----|

Piano Break
Piano transcribed for guitar
Fm: x355xx
Eb: x688xx
Ab: 466xxx
Db: x466xx


Fm               Eb            Ab         Db   
   I don't feel any shame -I wont apologize

Db                   Eb              Ab      (play a harmonic on fret 13
    When there ain't nowhere you can go       on the b string)

Db             Eb                  Ab               Db
   Running away from pain -When you've been victimized


Db               Eb
    Tales from another broken...

Outro
e|--------------------|-------------------------|---------|
B|--------------------|-------------------------|---------|
G|--------------------|---6---------------------|----6----|
D|-6-6--6-6--6-6--6-6-|-4-6--6-6--6-6--6-6--6-6-|-4--6-6--|
A|-6-6--6-6--6-6--6-6-|-4-4--6-6--6-6--6-6--6-6-|-4--4-6--|
E|-4-4--4-4--4-4--4-4-|-2----4-4--4-4--4-4--4-4-|-2----4--|

Order

Intro x4
Verse x8
Chorus
Verse x8
Chorus x2
Fill
Solos
Piano break
Verse x4
Outro

Lyrics

(Verse 1)
To live and not to breathe
Is to die in tragedy                   
To run, to run away
To find what you believe

(Chorus)
And I 
Leave behind                            
This hurricane of fucking lies

(Verse 2)
I lost my faith to this
This town that don't exist              
So I run, I run awy 
The light of masochist

(Chorus)
And I 
Leave behind                            
This hurricane of fucking lies

(Chorus 2)
And I 
Walked this line                        
A million and one fucking times

(Fill)
But not this time

(Piano Break)
I don't feel any shame
I wont apologize
When there ain't nowhere you can go     
Running away from pain
When you've been victimized
Tales from another broken...

(Outro)
Home!
You're leavin'
You're leavin'                          
You're leavin'
You're leavin HOME!

--------------------------------------------------------------------------------------
Green Day Holiday
--------------------------------------------------------------------------------------

Intro
Guitar 1
E|--------------------------------------|---------------------------------|
B|--9--9--9--6-6-6--13--13--13--8-8-8-8-|--9--9--9--6-6-6--13--13--13--8--| 
G|--x--x--x--x-x-x---x---x---x--x-x-x-x-|--x--x--x--x-x-x---x---x---x--x--|
D|--x--x--x--x-x-x---x---x---x--x-x-x-x-|--x--x--x--x-x-x---x---x---x--x--| 
A|--8--8--8--4-4-4--11--11--11--6-6-6-6-|--8--8--8--4-4-4--11--11--11--6--|
E|--------------------------------------|---------------------------------|

Intro guitar 2 (play this when guitar 1 is just finishing there intro)
E|----------| 
B|----------|
G|-x-x-x-x--|
D|-x-x-x-x--|
A|-x-x-x-x--|
E|-x-x-x-x--|

Main Riff
Guitar 1 and 2
E|---------------------------------|---------------------------------|
B|---------------------------------|---------------------------------|
G|-10-10-10--6-6-6---------8-8-8-8-|-10-10-10--6-6-6---------8-8-8-8-|
D|-10-10-10--6-6-6--6-6-6--8-8-8-8-|-10-10-10--6-6-6--6-6-6--8-8-8-8-|
A|--8--8--8--4-4-4--6-6-6--6-6-6-6-|--8--8--8--4-4-4--6-6-6--6-6-6-6-|
E|------------------4-4-4----------|------------------4-4-4----------|

Verse
Guitar 1 and 2
E|---------------------------------|---------------------------------|
B|---------------------------------|---------------------------------|
G|-10-10-10--6-6-6---------8-8-8-8-|-10-10-10--6-6-6---------5-5-5-5-|
D|-10-10-10--6-6-6--6-6-6--8-8-8-8-|-10-10-10--6-6-6--6-6-6--5-5-5-5-|
A|--8--8--8--4-4-4--6-6-6--6-6-6-6-|--8--8--8--4-4-4--6-6-6--3-3-3-3-|
E|------------------4-4-4----------|------------------4-4-4----------|

E|----------------------------------------------------|
B|----------------------------------------------------|
G|-10-10-10--6-6-6---------8-8-8-8--5-5-5-5-5-5-5-5-5-|
D|-10-10-10--6-6-6--6-6-6--8-8-8-8--5-5-5-5-5-5-5-5-5-|
A|--8--8--8--4-4-4--6-6-6--6-6-6-6--3-3-3-3-3-3-3-3-3-|
E|------------------4-4-4-----------------------------|

Chorus
Guitar 1 and 2
E|--------------------------------------------------------------------------------|
B|--------------------------------------------------------------------------------|
G|---------6-6-6-6----------8-8-8-8-8-8-----------6-6-6-6----------5-5-5-5-5-5-5-5|
D|3-3-3-3--6-6-6-6-6-6-6-6--8-8-8-8-8-8--3-3-3-3--6-6-6-6-6-6-6-6--5-5-5-5-5-5-5-5|
A|3-3-3-3--4-4-4-4-6-6-6-6--6-6-6-6-6-6--3-3-3-3--4-4-4-4-6-6-6-6--3-3-3-3-3-3-3-3|
E|1-1-1-1----------4-4-4-4---------------1-1-1-1----------4-4-4-4-----------------|

Bridge  
Guitar 1 and 2                       ‘hey’
E|-------------------|------------------|-------------------|--------------------|
B|-------------------|------------------|-------------------|--------------------|
G|----------6---8----|----------8----10-|----------6---8----|----------8----10---|
D|3-3---6-6-6-8-8-10-|3-3---6-6-8-10-10-|3-3---6-6-6-8-8-10-|3-3---6-6-8-10-10-10|
A|3-3---6-6-4-8-6-10-|3-3---6-6-6-10--8-|3-3---6-6-4-8-6-10-|3-3---6-6-6-10--8-10|
E|1-1-3-4-4---6----8-|1-1-3-4-4---8-----|1-1-3-4-4---6----8-|1-1-3-4-4---8------8|

Solo 
Guitar 1
E|-----------|------------------|-------8------8-|---------------------|
B|-6-6-6--8-9|----------8-------|----6-----6-----|-6-6-6--8-9----------|
G|-----------|--8-6-5--5---9-5--|-5--------------|------------8-6-5-5/-|
D|-----------|------------------|----------------|---------------------|
A|-----------|------------------|----------------|---------------------|
E|-----------|------------------|----------------|---------------------|

Guitar 2
e|-----------|------------------|----------------|---------------------|
B|-----------|------------------|----------------|---------------------|
G|--6-6-6-6--|-----------5-5-5-5|-10-10-10-10-10-|--6-6-6-6------------|
D|--6-6-6-6--|-6-6-6-6-6-5-5-5-5|-10-10-10-10-10-|--6-6-6-6--6--6-6-6-6|
A|--4-4-4-4--|-6-6-6-6-6-3-3-3-3|--8--8--8--8--8-|--4-4-4-4--6--6-6-6-6|
E|-----------|-4-4-4-4-4--------|----------------|-----------4--4-4-4-4|

Guitar 1
E|------------------------|-------------------------|------------------------|
B|------------------------|-13-13-13-13-13-13-13-13-|-17-17-17-17-17-17-17-17|
G|-12-12-12-12-12-12-12-12|-------------------------|------------------------|
D|------------------------|-------------------------|------------------------|
A|------------------------|-------------------------|------------------------|
E|------------------------|-------------------------|------------------------|

Guitar 2
E|------------------------|-------------------------|------------------------|
B|------------------------|-------------------------|------------------------|
G|-5--5--5--5--5--5--5--5-|-5--5--5--5--5--5--5--5--|-5--5--5--5--5--5--5--5-|
D|-5--5--5--5--5--5--5--5-|-5--5--5--5--5--5--5--5--|-5--5--5--5--5--5--5--5-|
A|-3--3--3--3--3--3--3--3-|-3--3--3--3--3--3--3--3--|-3--3--3--3--3--3--3--3-|
E|------------------------|-------------------------|------------------------|

Guitar 1
E|---------------------|--------------|
B|-17-17-17-17-17-17-17|—18~~~~~~~~~--|
G|---------------------|--------------|
D|---------------------|--------------|
A|---------------------|--------------|
E|---------------------|--------------|

Guitar 2
E|---------------------|--------------|
B|---------------------|--------------|
G|-5--5--5--5--5--5--5-|--------------|
D|-5--5--5--5--5--5--5-|--------------|
A|-3--3--3--3--3--3--3-|--------------|
E|---------------------|--------------|

(Bass Interlude)
G|-------------------|----------------------|
D|-------------------|----------------------|
A|----------4---6----|----------6-----8-----| x6
E|1-1-3-4-4---6----8-|1-1-3-4-4----8-----8\-|

Play this at the end of the 2nd repeat of the bass bit
E|-------------------|----------------------|
B|-------------------|----------------------|
G|-------------------|----------------------|
D|-------------------|----------------------|
A|-------------------|----------------------|
E|-------------------|------------------16\-|

Play this at the end of the 6th repeat of the bass bit
E|-------------------|----------------------|
B|-------------------|----------------------|
G|-------------------|----------8----10-----|
D|-------------------|----------8-10-10-10\-|
A|-------------------|----------6-10--8-10\-|
E|-------------------|-------------8-----8\-|

Post interlude
E|-------------------|
B|-------------------|
G|-3/5~~----3/5~~----|
D|-3/5~~----3/5~~----|
A|-1/3~~----1/3~~----|
E|-------------------| 


Chorus 2
Guitar 1 and 2
E|-------------------------------------------------------------------------|
B|-------------------------------------------------------------------------|
G|---------6-6-6-6----------8-8-8-8-8-8-----------6-6-6-6----------5-5-5-5-|
D|3-3-3-3--6-6-6-6-6-6-6-6--8-8-8-8-8-8--3-3-3-3--6-6-6-6-6-6-6-6--5-5-5-5-|
A|3-3-3-3--4-4-4-4-6-6-6-6--6-6-6-6-6-6--3-3-3-3--4-4-4-4-6-6-6-6--3-3-3-3-|
E|1-1-1-1----------4-4-4-4---------------1-1-1-1----------4-4-4-4----------|

E|--------------------------------------------------------------------------------|
B|--------------------------------------------------------------------------------|
G|---------6-6-6-6----------8-8-8-8-8-8-----------6-6-6-6----------5-5-5-5-5-5-5-5|
D|3-3-3-3--6-6-6-6-6-6-6-6--8-8-8-8-8-8--3-3-3-3--6-6-6-6-6-6-6-6--5-5-5-5-5-5-5-5|
A|3-3-3-3--4-4-4-4-6-6-6-6--6-6-6-6-6-6--3-3-3-3--4-4-4-4-6-6-6-6--3-3-3-3-3-3-3-3|
E|1-1-1-1----------4-4-4-4---------------1-1-1-1----------4-4-4-4-----------------|

E|---------------------------------------------------|
B|---------------------------------------------------|
G|-5-5-5-5-5-5-5-5--5-5-5-5-5-5-5-5--5-5-5-5-5-5-5-5-|
D|-5-5-5-5-5-5-5-5--5-5-5-5-5-5-5-5--5-5-5-5-5-5-5-5-|
A|-3-3-3-3-3-3-3-3--3-3-3-3-3-3-3-3--3-3-3-3-3-3-3-3-|
E|---------------------------------------------------|

Outro
Guitar 1 and 2
E|----------------------------------|
B|----------------------------------|
G|-10-10-10--6-6-6--8------10-------|
D|-10-10-10--6-6-6--8--10--10--3~~--|
A|--8--8--8--4-4-4--6--10---8--3~~--|
E|---------------------8-------1~~--|

Order

Intro x2
Main riff
Verse x2
Chorus
Intro
Verse x2
Chorus
Bridge 
Solo
Interlude
Post interlude
Chorus 2
Main riff (1 and a half times)
Outro

(Intro)
Say, Hey

(Verse 1)
Hear the sound of the falling rain
Coming down like an Armageddon flame [Hey!]             
The shame, the ones who died without a name
Here the dogs howling out of key
To a hymn called ‘faith and misery’ [Hey!]                
And Bleed, the company lost the war today

(Chorus)
I beg to dream and differ from the hollow lies
This is the dawning of the rest of our lives           
On holiday

(Verse 2)
There's a drum pounding out of time
Another protestor has crossed the line [Hey!]           
To find, the money's on the other side
Can I get another Amen?  [Amen!]
There's a flag wrapped around the score of men [Hey!]   
A gag, A plastic bag on a monument

(Chorus)
I beg to dream and differ from the hollow lies
This is the dawning of the rest of our lives         
On holiday

(Bridge)

(Interlude)
The representative from California has the floor:
Zieg Heil! To the president gas Man
Bombs away! (Is your punishment)
Pulverize the Eiffel Towers
Criticize your (government)                               
Bang, Bang! goes the broken glass (man)
Kill all the fags that (don't agree)
Trials by fires, setting fire
It's not a way that's (meant for me)
Just cause... just cause - because we're outlaws yeah!
Backing vocals {hey, hey, hey, hey, hey, hey]

I beg to dream and differ from the hollow lies
This is the dawning of the rest of our lives           
On holiday
I beg to dream and differ from the hollow lies
This is the dawning of the rest of our lives           
This is our lives on holiday



--------------------------------------------------------------------------------------
Green Day Boulevard of Broken Dreams
--------------------------------------------------------------------------------------

Instead of having an order at the end this is tabbed how you play this so if you play verse
then chorus then verse, I will tab out verse, chorus, verse if you get confused leave a comment.


Billie Joe is Guitar 1 (E-A-D-G-B-e)
Jason White is Guitar 2 (E-A-D-G-B-e) (capo at fret 1)


Backing Track (capo at fret 1) (this is played throughout most of the song in the background,
use your whammy bar to bend each chord if you don’t have a whammy bar use some tremolo effects.
If you don’t have tremolo effects than God bless you. If you want to play this song live -
pre-record this and play over the top of it with your two guitarists or if you have 3 guitarists
then you’re in luck.

e|---------------------------|
B|---------------------------|
G|-9--9---12--12--7-7--------|
D|-9--9---12--12--7-7--7-7-7-|
A|-7--7---10--10--5-5--7-7-7-|
E|---------------------5-5-5-|
(With tremolo effect)



Verse
Guitar 2   ‘I walk a lonely road’
e|-0--0-0-0--3--3-3-3--2--2-2-2--0---0--|-0--0-0-0--3--3-3-3--2--2-2-2--0---0--|
B|-0--0-0-0--3--3-3-3--3--3-3-3--2---2--|-0--0-0-0--3--3-3-3--3--3-3-3--2---2--|
G|-0--0-0-0--0--0-0-0--2--2-2-2--2---2--|-0--0-0-0--0--0-0-0--2--2-2-2--2---2--|
D|-2--2-2-2--0--0------0--0------2-2-2-2|-2--2-2-2--0--0------0--0------2-2-2-2|
A|-2--2------2--2----------------0-0-0-0|-2--2------2--2----------------0-0-0-0|
E|-0--0------3--3-----------------------|-0--0------3--3-----------------------|

Guitar 1 (nothing)

Guitar 2
e|-0--0-0-0--3--3-3-3--2--2-2-2--0---0--|-0--0-0-0--3--3-3-3--2--2-2-2--0---0--|
B|-0--0-0-0--3--3-3-3--3--3-3-3--2---2--|-0--0-0-0--3--3-3-3--3--3-3-3--2---2--|
G|-0--0-0-0--0--0-0-0--2--2-2-2--2---2--|-0--0-0-0--0--0-0-0--2--2-2-2--2---2--|
D|-2--2-2-2--0--0------0--0------2-2-2-2|-2--2-2-2--0--0------0--0------2-2-2-2|
A|-2--2------2--2----------------0-0-0-0|-2--2------2--2----------------0-0-0-0|
E|-0--0------3--3-----------------------|-0--0------3--3-----------------------|

Guitar 1
e|-----2--3-----/7--5------2h3----------|------------------------------------|
B|--------------------------------------|------------------------------------|
G|--------------------------------------|------------------------------------|
D|--------------------------------------|------------------------------------|
A|--------------------------------------|------------------------------------|
E|--------------------------------------|------------------------------------|

Guitar 2   ‘Where the city sleeps’
e|-0--0-0-0--3--3-3-3--2--2-2-2--0---0--|-0--0-0-0--3--3-3-3--2--2-2-2--0---0--|
B|-0--0-0-0--3--3-3-3--3--3-3-3--2---2--|-0--0-0-0--3--3-3-3--3--3-3-3--2---2--|
G|-0--0-0-0--0--0-0-0--2--2-2-2--2---2--|-0--0-0-0--0--0-0-0--2--2-2-2--2---2--|
D|-2--2-2-2--0--0------0--0------2-2-2-2|-2--2-2-2--0--0------0--0------2-2-2-2|
A|-2--2------2--2----------------0-0-0-0|-2--2------2--2----------------0-0-0-0|
E|-0--0------3--3-----------------------|-0--0------3--3-----------------------|

Guitar 1   
e|--------------------------------------|-----2--3-----/7--5------2h3--------|
B|--------------------------------------|------------------------------------|
G|--------------------------------------|------------------------------------|
D|--------------------------------------|------------------------------------|
A|--------------------------------------|------------------------------------|
E|--------------------------------------|------------------------------------|

Guitar 2  ‘I walk alone I walk alone
                          I walk alone I walk a-‘
e|-0--0-0-0--3--3-3-3--2--2-2-2----------|
B|-0--0-0-0--3--3-3-3--3--3-3-3----------|
G|-0--0-0-0--0--0-0-0--2--2-2-2--2-2-2---|
D|-2--2-2-2--0--0------0--0------2-2-2---|
A|-2--2------2--2----------------0-0-0-2-|
E|-0--0------3--3------------------------|

Guitar 1
e|----2--3-----/7--5-----2h3-------------|
B|---------------------------------------|
G|------------------------------2-2-2----|
D|------------------------------2-2-2----|
A|------------------------------0-0-0--2-|
E|---------------------------------------|

Chorus
Guitar 1
e|------------------------------------|------------------------------------|
B|------------------------------------|------------------------------------|
G|-6-6-6-6-----------8-8-8-8----------|-6-6-6-6-----------8-8-8-8----------|
D|-6-6-6-6--6-6-6-6--8-8-8-8--3-3-3-3-|-6-6-6-6--6-6-6-6--8-8-8-8--3-3-3-3-|
A|-4-4-4-4--6-6-6-6--6-6-6-6--3-3-3-3-|-4-4-4-4--6-6-6-6--6-6-6-6--3-3-3-3-|
E|----------4-4-4-4-----------1-1-1-1-|----------4-4-4-4-----------1-1-1-1-|

Guitar 2
e|------------------------------------|------------------------------------|
B|------------------------------------|------------------------------------|
G|-5-5-5-5-----------7-7-7-7----------|-5-5-5-5-----------7-7-7-7----------|
D|-5-5-5-5--5-5-5-5--7-7-7-7--2-2-2-2-|-5-5-5-5--5-5-5-5--7-7-7-7--2-2-2-2-|
A|-3-3-3-3--5-5-5-5--5-5-5-5--2-2-2-2-|-3-3-3-3--5-5-5-5--5-5-5-5--2-2-2-2-|
E|----------3-3-3-3-----------0-0-0-0-|----------3-3-3-3-----------0-0-0-0-|

Guitar 1
e|------------------------------------|------------------------------------|
B|------------------------------------|------------------------------------|
G|-6-6-6-6-----------8-8-8-8----------|-6-6-6-6-------------5-5-5-5---5----|
D|-6-6-6-6--6-6-6-6--8-8-8-8--3-3-3-3-|-6-6-6-6--6-6-6-6----5-5-5-5---5----|
A|-4-4-4-4--6-6-6-6--6-6-6-6--3-3-3-3-|-4-4-4-4--6-6-6-6----3-3-3-3---3----|
E|----------4-4-4-4-----------1-1-1-1-|----------4-4-4-4-------------------|

Guitar 2
e|------------------------------------|------------------------------------|
B|------------------------------------|------------------------------------|
G|-5-5-5-5-----------7-7-7-7----------|-5-5-5-5-------------4-4-4-4---4----|
D|-5-5-5-5--5-5-5-5--7-7-7-7--2-2-2-2-|-5-5-5-5--5-5-5-5----4-4-4-4---4----|
A|-3-3-3-3--5-5-5-5--5-5-5-5--2-2-2-2-|-3-3-3-3--5-5-5-5----2-2-2-2---2----|
E|----------3-3-3-3-----------0-0-0-0-|----------3-3-3-3-------------------|


Post Chorus
Guitar 2   ‘ aha aha aha’
e|-0--0-0-0--3--3-3-3--2--2-2-2--0---0--|-0--0-0-0--3--3-3-3--2--2-2-2--0---0--|
B|-0--0-0-0--3--3-3-3--3--3-3-3--2---2--|-0--0-0-0--3--3-3-3--3--3-3-3--2---2--|
G|-0--0-0-0--0--0-0-0--2--2-2-2--2---2--|-0--0-0-0--0--0-0-0--2--2-2-2--2---2--|
D|-2--2-2-2--0--0------0--0------2-2-2-2|-2--2-2-2--0--0------0--0------2-2-2-2|
A|-2--2------2--2----------------0-0-0-0|-2--2------2--2----------------0-0-0-0|
E|-0--0------3--3-----------------------|-0--0------3--3-----------------------|

Guitar 1 (Plays Nothing)

Verse
Guitar 2 ‘I'm walking down the line’
e|-0--0-0-0--3--3-3-3--2--2-2-2--0---0--|-0--0-0-0--3--3-3-3--2--2-2-2--0---0--|
B|-0--0-0-0--3--3-3-3--3--3-3-3--2---2--|-0--0-0-0--3--3-3-3--3--3-3-3--2---2--|
G|-0--0-0-0--0--0-0-0--2--2-2-2--2---2--|-0--0-0-0--0--0-0-0--2--2-2-2--2---2--|
D|-2--2-2-2--0--0------0--0------2-2-2-2|-2--2-2-2--0--0------0--0------2-2-2-2|
A|-2--2------2--2----------------0-0-0-0|-2--2------2--2----------------0-0-0-0|
E|-0--0------3--3-----------------------|-0--0------3--3-----------------------|

Guitar 1 (nothing)

Guitar 2
e|-0--0-0-0--3--3-3-3--2--2-2-2--0---0--|-0--0-0-0--3--3-3-3--2--2-2-2--0---0--|
B|-0--0-0-0--3--3-3-3--3--3-3-3--2---2--|-0--0-0-0--3--3-3-3--3--3-3-3--2---2--|
G|-0--0-0-0--0--0-0-0--2--2-2-2--2---2--|-0--0-0-0--0--0-0-0--2--2-2-2--2---2--|
D|-2--2-2-2--0--0------0--0------2-2-2-2|-2--2-2-2--0--0------0--0------2-2-2-2|
A|-2--2------2--2----------------0-0-0-0|-2--2------2--2----------------0-0-0-0|
E|-0--0------3--3-----------------------|-0--0------3--3-----------------------|

Guitar 1
e|-----2--3-----/7--5------2h3----------|------------------------------------|
B|--------------------------------------|------------------------------------|
G|--------------------------------------|------------------------------------|
D|--------------------------------------|------------------------------------|
A|--------------------------------------|------------------------------------|
E|--------------------------------------|------------------------------------|

Guitar 2  ‘Check my vital signs to 
           know I'm still alive’
e|-0--0-0-0--3--3-3-3--2--2-2-2--0---0--|-0--0-0-0--3--3-3-3--2--2-2-2--0---0--|
B|-0--0-0-0--3--3-3-3--3--3-3-3--2---2--|-0--0-0-0--3--3-3-3--3--3-3-3--2---2--|
G|-0--0-0-0--0--0-0-0--2--2-2-2--2---2--|-0--0-0-0--0--0-0-0--2--2-2-2--2---2--|
D|-2--2-2-2--0--0------0--0------2-2-2-2|-2--2-2-2--0--0------0--0------2-2-2-2|
A|-2--2------2--2----------------0-0-0-0|-2--2------2--2----------------0-0-0-0|
E|-0--0------3--3-----------------------|-0--0------3--3-----------------------|

Guitar 1
e|--------------------------------------|-----2--3-----/7--5------2h3--------|
B|--------------------------------------|------------------------------------|
G|--------------------------------------|------------------------------------|
D|--------------------------------------|------------------------------------|
A|--------------------------------------|------------------------------------|
E|--------------------------------------|------------------------------------|

Guitar 2  ‘I walk alone I walk alone
                          I walk alone I walk a-‘
e|-0--0-0-0--3--3-3-3--2--2-2-2----------|
B|-0--0-0-0--3--3-3-3--3--3-3-3----------|
G|-0--0-0-0--0--0-0-0--2--2-2-2--2-2-2---|
D|-2--2-2-2--0--0------0--0------2-2-2---|
A|-2--2------2--2----------------0-0-0-2-|
E|-0--0------3--3------------------------|

Guitar 1
e|----2--3-----/7--5-----2h3-------------|
B|---------------------------------------|
G|------------------------------2-2-2----|
D|------------------------------2-2-2----|
A|------------------------------0-0-0--2-|
E|---------------------------------------|

Chorus
Guitar 1  ‘my shadows the only one 
        That walks beside me’
e|------------------------------------|------------------------------------|
B|------------------------------------|------------------------------------|
G|-6-6-6-6-----------8-8-8-8----------|-6-6-6-6-----------8-8-8-8----------|
D|-6-6-6-6--6-6-6-6--8-8-8-8--3-3-3-3-|-6-6-6-6--6-6-6-6--8-8-8-8--3-3-3-3-|
A|-4-4-4-4--6-6-6-6--6-6-6-6--3-3-3-3-|-4-4-4-4--6-6-6-6--6-6-6-6--3-3-3-3-|
E|----------4-4-4-4-----------1-1-1-1-|----------4-4-4-4-----------1-1-1-1-|

Guitar 2
e|------------------------------------|------------------------------------|
B|------------------------------------|------------------------------------|
G|-5-5-5-5-----------7-7-7-7----------|-5-5-5-5-----------7-7-7-7----------|
D|-5-5-5-5--5-5-5-5--7-7-7-7--2-2-2-2-|-5-5-5-5--5-5-5-5--7-7-7-7--2-2-2-2-|
A|-3-3-3-3--5-5-5-5--5-5-5-5--2-2-2-2-|-3-3-3-3--5-5-5-5--5-5-5-5--2-2-2-2-|
E|----------3-3-3-3-----------0-0-0-0-|----------3-3-3-3-----------0-0-0-0-|

Guitar 1
e|------------------------------------|------------------------------------|
B|------------------------------------|------------------------------------|
G|-6-6-6-6-----------8-8-8-8----------|-6-6-6-6-------------5-5-5-5---5----|
D|-6-6-6-6--6-6-6-6--8-8-8-8--3-3-3-3-|-6-6-6-6--6-6-6-6----5-5-5-5---5----|
A|-4-4-4-4--6-6-6-6--6-6-6-6--3-3-3-3-|-4-4-4-4--6-6-6-6----3-3-3-3---3----|
E|----------4-4-4-4-----------1-1-1-1-|----------4-4-4-4-------------------|

Guitar 2
e|------------------------------------|------------------------------------|
B|------------------------------------|------------------------------------|
G|-5-5-5-5-----------7-7-7-7----------|-5-5-5-5-------------4-4-4-4---4----|
D|-5-5-5-5--5-5-5-5--7-7-7-7--2-2-2-2-|-5-5-5-5--5-5-5-5----4-4-4-4---4----|
A|-3-3-3-3--5-5-5-5--5-5-5-5--2-2-2-2-|-3-3-3-3--5-5-5-5----2-2-2-2---2----|
E|----------3-3-3-3-----------0-0-0-0-|----------3-3-3-3-------------------|

Post Chorus
Guitar 2   ‘ aha aha aha’
e|-0--0-0-0--3--3-3-3--2--2-2-2--0---0--|-0--0-0-0--3--3-3-3--2--2-2-2---------|
B|-0--0-0-0--3--3-3-3--3--3-3-3--2---2--|-0--0-0-0--3--3-3-3--3--3-3-3---------|
G|-0--0-0-0--0--0-0-0--2--2-2-2--2---2--|-0--0-0-0--0--0-0-0--2--2-2-2--2-2-2--|
D|-2--2-2-2--0--0------0--0------2-2-2-2|-2--2-2-2--0--0------0--0------2-2-2--|
A|-2--2------2--2----------------0-0-0-0|-2--2------2--2----------------0-0-0-2|
E|-0--0------3--3-----------------------|-0--0------3--3-----------------------|


Solo  (there are two tracks in the solo – they are tabbed separately below)
Guitar 2
E|---------------------------------------------------------------------------------|
B|-----------------------------------13-11-----------------------------------------|
G|-10-10-10-10--12-13-13-13-13-13-13--x--x-15-15-15-15--12-13-13-13-13-13-13-13-13-|
D|--x--x--x--x---x--x--x--x--x--x--x-10--8--x--x--x--x---x--x--x--x--x--x--x--x--x-|
A|--8--8--8--8--10-11-11-11-11-11-11-------13-13-13-13--10-11-11-11-11-11-11-11-11-|
E|---------------------------------------------------------------------------------|

E|---------------------------------------------------------------------------------|
B|-----------------------------------13-11-----------------------------------------|
G|-10-10-10-10--12-13-13-13-13-13-13--x--x-15-15-15-15--12-13-13-13-13-13-13-13-13-|
D|--x--x--x--x---x--x--x--x--x--x--x-10--8--x--x--x--x---x--x--x--x--x--x--x--x--x-|
A|--8--8--8--8--10-11-11-11-11-11-11-------13-13-13-13--10-11-11-11-11-11-11-11-11-|
E|---------------------------------------------------------------------------------|

E|---------------------------------------------------------------------------------|
B|-----------------------------------13-11-----------------------------------------|
G|-10-10-10-10--12-13-13-13-13-13-13--x--x-15-15-15-15--12-13-13-13-13-13-13-13-13-|
D|--x--x--x--x---x--x--x--x--x--x--x-10--8--x--x--x--x---x--x--x--x--x--x--x--x--x-|
A|--8--8--8--8--10-11-11-11-11-11-11-------13-13-13-13--10-11-11-11-11-11-11-11-11-|
E|---------------------------------------------------------------------------------|

E|---------------------------------------------------------------------------------|
B|-----------------------------------13-11--13-13-13-13-13-13-13-13-13-13-13-13-13-|
G|-10-10-10-10--12-13-13-13-13-13-13--x--x---x--x--x--x--x--x--x--x--x--x--x--x--x-|
D|--x--x--x--x---x--x--x--x--x--x--x-10--8--10-10-10-10-10-10-10-10-10-10-10-10-10-|
A|--8--8--8--8--10-11-11-11-11-11-11-----------------------------------------------|
E|---------------------------------------------------------------------------------|

E|-------------------------------------|
B|-13-13-13-13-13-13-13-13-13-13-13-13-|
G|--x--x--x--x--x--x--x--x--x--x--x--x-|
D|-10-10-10-10-10-10-10-10-10-10-10-10-|
A|-------------------------------------|
E|-------------------------------------|

Guitar 1
e|------------------------------------|-----------------------------------------|
B|------------------------------------|-----------------------------------------|
G|-6-6-6-6-----------8-8-8-8----------|---6-6-6-6-------------8-8-8-8-----------|
D|-6-6-6-6--6-6-6-6--8-8-8-8--3-3-3-3-|---6-6-6-6---6-6-6-6---8-8-8-8---3-3-3-3-|
A|-4-4-4-4--6-6-6-6--6-6-6-6--3-3-3-3-|---4-4-4-4---6-6-6-6---6-6-6-6---3-3-3-3-|
E|----------4-4-4-4-----------1-1-1-1-|-------------4-4-4-4-------------1-1-1-1-|
	
e|------------------------------------|------------------------------------|
B|------------------------------------|------------------------------------|
G|-6-6---------------8-8-8-8----------|-6-6---------------5-5-5-5-5-5-5-5--|
D|-6-6------6-6------8-8-8-8--3-3-3-3-|-6-6------6-6------5-5-5-5-5-5-5-5--|
A|-4-4------6-6------6-6-6-6--3-3-3-3-|-4-4------6-6------3-3-3-3-3-3-3-3--|
E|----------4-4---------------1-1-1-1-|----------4-4-----------------------|

e|-------------|
B|-------------|
G|-5-5-5-5--5#-|
D|-5-5-5-5--5#-|
A|-3-3-3-3--3#-|
E|-------------|

Post Chorus
Guitar 2  (acoustic sound)
e|-0--0-0-0--3--3-3-3--2--2-2-2--0---0--|-0--0-0-0--3--3-3-3--2--2-2-2---------|
B|-0--0-0-0--3--3-3-3--3--3-3-3--2---2--|-0--0-0-0--3--3-3-3--3--3-3-3---------|
G|-0--0-0-0--0--0-0-0--2--2-2-2--2---2--|-0--0-0-0--0--0-0-0--2--2-2-2--2-2-2--|
D|-2--2-2-2--0--0------0--0------2-2-2-2|-2--2-2-2--0--0------0--0------2-2-2--|
A|-2--2------2--2----------------0-0-0-0|-2--2------2--2----------------0-0-0-2|
E|-0--0------3--3-----------------------|-0--0------3--3-----------------------|

Pre Outro
Guitar 1
e|------------------------------------|------------------------------------|
B|------------------------------------|------------------------------------|
G|-6-6-6-6-----------8-8-8-8----------|-6-6-6-6-----------8-8-8-8----------|
D|-6-6-6-6--6-6-6-6--8-8-8-8--3-3-3-3-|-6-6-6-6--6-6-6-6--8-8-8-8--3-3-3-3-|
A|-4-4-4-4--6-6-6-6--6-6-6-6--3-3-3-3-|-4-4-4-4--6-6-6-6--6-6-6-6--3-3-3-3-|
E|----------4-4-4-4-----------1-1-1-1-|----------4-4-4-4-----------1-1-1-1-|

Guitar 2
e|------------------------------------|------------------------------------|
B|------------------------------------|------------------------------------|
G|-5-5-5-5-----------7-7-7-7----------|-5-5-5-5-----------7-7-7-7----------|
D|-5-5-5-5--5-5-5-5--7-7-7-7--2-2-2-2-|-5-5-5-5--5-5-5-5--7-7-7-7--2-2-2-2-|
A|-3-3-3-3--5-5-5-5--5-5-5-5--2-2-2-2-|-3-3-3-3--5-5-5-5--5-5-5-5--2-2-2-2-|
E|----------3-3-3-3-----------0-0-0-0-|----------3-3-3-3-----------0-0-0-0-|

Guitar 1
e|------------------------------------|------------------------------------|
B|------------------------------------|------------------------------------|
G|-6-6-6-6-----------8-8-8-8----------|-6-6-6-6-----------8-8-8-8----------|
D|-6-6-6-6--6-6-6-6--8-8-8-8--3-3-3-3-|-6-6-6-6--6-6-6-6--8-8-8-8--3-3-3-3-|
A|-4-4-4-4--6-6-6-6--6-6-6-6--3-3-3-3-|-4-4-4-4--6-6-6-6--6-6-6-6--3-3-3-3-|
E|----------4-4-4-4-----------1-1-1-1-|----------4-4-4-4-----------1-1-1-1-|

Guitar 2
E|---------------------------------------------------------------------------------|
B|-----------------------------------13-11-----------------------------------------|
G|-10-10-10-10--12-13-13-13-13-13-13--x--x-15-15-15-15--12-13-13-13-13-13-13-13-13-|
D|--x--x--x--x---x--x--x--x--x--x--x-10--8--x--x--x--x---x--x--x--x--x--x--x--x--x-|
A|--8--8--8--8--10-11-11-11-11-11-11-------13-13-13-13--10-11-11-11-11-11-11-11-11-|
E|---------------------------------------------------------------------------------|

Guitar 1
e|------------------------------------|------------------------------------|
B|------------------------------------|------------------------------------|
G|-6-6-6-6-----------8-8-8-8----------|-6-6-6-6-------------5-5-5-5--------|
D|-6-6-6-6--6-6-6-6--8-8-8-8--3-3-3-3-|-6-6-6-6--6-6-6-6----5-5-5-5--------|
A|-4-4-4-4--6-6-6-6--6-6-6-6--3-3-3-3-|-4-4-4-4--6-6-6-6----3-3-3-3--------|
E|----------4-4-4-4-----------1-1-1-1-|----------4-4-4-4-------------------|

E|---------------------------------------------------------------------------------|
B|-----------------------------------13-11--13-13-13-13-13-13-13-13-13-13-13-13-13-|
G|-10-10-10-10--12-13-13-13-13-13-13--x--x---x--x--x--x--x--x--x--x--x--x--x--x--x-|
D|--x--x--x--x---x--x--x--x--x--x--x-10--8--10-10-10-10-10-10-10-10-10-10-10-10-10-|
A|--8--8--8--8--10-11-11-11-11-11-11-----------------------------------------------|
E|---------------------------------------------------------------------------------|

Guitar 1
e|------------------------------------|
B|------------------------------------|
G|-5-5-5-5-5-5-5-5-5-5-5-5------------|
D|-5-5-5-5-5-5-5-5-5-5-5-5------------|
A|-3-3-3-3-3-3-3-3-3-3-3-3------------|
E|------------------------------------|

Guitar 2
E|-------------------------------------|
B|-13-13-13-13-13-13-13-13-13-13-13-13-|
G|--x--x--x--x--x--x--x--x--x--x--x--x-|
D|-10-10-10-10-10-10-10-10-10-10-10-10-|
A|-------------------------------------|
E|-------------------------------------|

Outro
Guitar 1 
e|----------------------------------------|----------------------------------------|
B|----------------------------------------|----------------------------------------|
G|----------------------------------------|----------------------------------------|
D|----------------------------------------|----------------------------------------|
A|-------4-4-4--6-6-6--5-5-5-6-6-6--2-2-2-|-------4-4-4--6-6-6--5-5-5-6-6-6--2-2-2-|
E|-1-1-1---------------------4-4-4--0-0-0-|-1-1-1---------------------4-4-4--0-0-0-|

Guitar 2 (with some strange effects)
e|----------------------------------------|----------------------------------------|
B|-6-6-6-6-6-6--6-6-6-6-6-8--9-9-9--------|-6-6-6-6-6-6--6-6-6-6-6-8--9-9-9--------|
G|-x-x-x-x-x-x--x-x-x-x-x-x--x-x-x--9-9-9-|-x-x-x-x-x-x--x-x-x-x-x-x--x-x-x--9-9-9-|
D|-3-3-3-3-3-3--3-3-3-3-3-5--6-6-6--x-x-x-|-3-3-3-3-3-3--3-3-3-3-3-5--6-6-6--x-x-x-|
A|----------------------------------7-7-7-|----------------------------------7-7-7-|
E|----------------------------------------|----------------------------------------|

Guitar 1
e|----------------------------------------|---------------------------|----------|
B|----------------------------------------|---------------------------|----------|
G|----------------------------------------|---------------------------|----------|
D|----------------------------------------|---------------------------|----------|
A|-------4-4-4--6-6-6--5-5-5-6-6-6--2-2-2-|-------4-4-4--6-6-6--5-5-5-|-6-6--2-2-|
E|-1-1-1---------------------4-4-4--0-0-0-|-1-1-1---------------------|-4-4--0-0-|

Guitar 2 (with some strange effects)
e|----------------------------------------|---------------------------|----------|
B|-6-6-6-6-6-6--6-6-6-6-6-8--9-9-9--------|-6-6-6-6-6-6--6-6-6-6-6-8--|-9-9------|
G|-x-x-x-x-x-x--x-x-x-x-x-x--x-x-x--9-9-9-|-x-x-x-x-x-x--x-x-x-x-x-x--|-x-x--9-9-|
D|-3-3-3-3-3-3--3-3-3-3-3-5--6-6-6--x-x-x-|-3-3-3-3-3-3--3-3-3-3-3-5--|-6-6--x-x-|
A|----------------------------------7-7-7-|---------------------------|------7-7-|
E|----------------------------------------|---------------------------|----------|

Lyrics

(Verse)
I walk a lonely road
The only one I that have ever known
Don't know were it goes
But its home to me and I walk alone
I walk this empty street
On the boulevard of broken dreams
Where the city sleeps
And I'm the only one and I walk alone
I walk alone I walk alone
I walk alone I walk a

(Chorus)
My shadows... only one that walks beside me
My shallow... hearts’ the only thing that's beating
Sometimes I wish someone out there will find me
Till then I'll walk alone

(Verse 2)
I'm walking down the line
That divides me somewhere in my mind
On the border line of the edge
And were I walk alone
Read between the lines 
What’s fucked up and every things all right
Check my vital signs to know I'm still alive
And I walk alone
I walk alone I walk alone
I walk alone I walk a-

(Chorus)
My shadows only one that walks beside me
My shallow hearts’ the only thing that's beating
Sometimes I wish someone out there will find me
Till then I'll walk alone

(Verse 3)
I walk this empty street
On the boulevard of broken dreams
Where the city sleeps
And I'm the only one and I walk a-

(Chorus)
My shadows only one that walks beside me
My shallow hearts’ the only thing that's beating
Sometimes I wish someone out there will find me
Till then I'll walk alone

Having the capo on guitar 2 it means that you move every guitar 2 fret up one (because
it is like the nut of the guitar has moved) so if it says fret 2, you play fret 3 the
same applies for chords say a G major chord for instance looks like this |320033 but
with the capo on it you actually play this |430044| (this only applies for boulevard
of broken dreams) if this is confusing leave a comment

--------------------------------------------------------------------------------------
Green Day Are we waiting
--------------------------------------------------------------------------------------

Intro
Guitar 1
e|------------------------------------2-----------2-------|
B|-------2-----------2--------------3---3-------3---3-----|
G|-----2---2-------2---2----------2-------2---2-------2---|
D|---2-------2---2-------2------0-----------0-------------|
A|-0-----------0------------------------------------------|
E|--------------------------------------------------------|

Verse
Guitar 1
e|-------------------------------------2-----------2-------|
B|--------2-----------2--------------3---3-------3---3-----|
G|------2---2-------2---2----------2-------2---2-------2---|
D|----2-------2---2-------2------0-----------0-------------|
A|--0-----------0------------------------------------------|
E|---------------------------------------------------------|

Guitar 2 (slide played first before A chord)
e|---------------------------------------------------------|
B|---------------------------------------------------------|
G|--2~~~-------------------------7~~-----------------------|
D|--2~~~-------------------------7~~-----------------------|
A|--0~~~-------------------------5~~-----------------------|
E|---------------------------------------------------------|

Pre Chorus
Guitar 1
e|------------------------------------------------------------|
B|---------10---------------9-------------7-------------7-----|
G|------11----11----------9---9---------7---7---------7---7---|
D|---11----------11-----9-------9-----7-------7-----7-------7-|
A|-9------------------7-------------5-------------5-----------|
E|------------------------------------------------------------|

Guitar 2
e|------------------------------------------------------------|
B|------------------------------------------------------------|
G|----------------------------------7~~-----------------------|
D|-4~~----------------2~~-----------7~~-----------------------|
A|-4~~----------------2~~-----------5~~-----------------------|
E|-2~~----------------0~~-------------------------------------|

Guitar 1
e|---------------------------------------------------------------|
B|---------10---------------9--------9\7-----7-------------7-----|
G|------11----11----------9---9------9\7-------7---------7---7---|
D|---11----------11-----9------------9\7--7------7-----7-------7-|
A|-9------------------7----------7-------------------5-----------|
E|---------------------------------------------------------------|

Guitar 2
e|---------------------------------------------------------------|
B|---------------------------------------------------------------|
G|----------------------------------7~~--------------------------|
D|-4~~----------------2~~-----------7~~--------------------------|
A|-4~~----------------2~~-----------5~~--------------------------|
E|-2~~----------------0~~----------------------------------------|

Chorus 1
Guitar 1
e|-------------------------------------2-----------2-------|
B|--------2-----------2--------------3---3-------3---3-----|
G|------2---2-------2---2----------2-------2---2-------2---|
D|----2-------2---2-------2------0-----------0-------------|
A|--0-----------0------------------------------------------|
E|---------------------------------------------------------|

Guitar 2 (slide played first before A chord)
e|---------------------------------------------------------|
B|---------------------------------------------------------|
G|--2~~~-------------------------7~~-----------------------|
D|--2~~~-------------------------7~~-----------------------|
A|--0~~~-------------------------5~~-----------------------|
E|---------------------------------------------------------|

Order

Intro
Verse x3
Pre Chorus
Chorus x2
Verse x3
Pre Chorus
Chorus x5


Lyrics

(Verse 1)
Starry nights city lights
Coming down over me                             
Skyscrapers and stargazers                      
In my head
Are we we are, Are we we are
The waiting unknown

(Pre-Chorus)
This dirty town was burning down in my dreams   
Lost and found city bound in my dreams

(Chorus)
And screaming
Are we we are, Are we we are the waiting        
And screaming
Are we we are, Are we we are the waiting

(Verse 2)
Forget me not’s and second thoughts
Live in isolation
Heads or tails and fairytales                   
In my mind
Are we we are, Are we we are 
The waiting unknown

(Pre-Chorus)
The rage and love, the story of my life         
The Jesus of suburbia is a lie

(End)
And screaming
Are we we are, Are we we are the waiting 
And screaming
Are we we are, Are we we are the waiting
                                                
Are we we are, Are we we are the waiting 
And screaming
Are we we are, Are we we are the waiting

Are we we are, Are we we are the waiting

--------------------------------------------------------------------------------------
Green Day St. Jimmy
--------------------------------------------------------------------------------------
continues from slide at the end of ‘are we waiting’

Intro
Guitar 1
e|-----------------------------------------------------------------------------|
B|-----------------------------------------------------------------------------|
G|-----------------------------------------------------------------------------|
D|-----------------------------------------------------------------------------|
A|---00000000000000000000000000000000-----00000000000000000000000000000000-----|
E|-----------------------------------------------------------------------------|
PM   ********************************     ********************************

Guitar 2				      
e|-----------------------------------------------------------------------------|
B|-----------------------------------------------------------------------------|
G|------------------------------------7------------------------------------7---|
D|-7----------------------------------7-7----------------------------------7-7-|
A|-7----------------------------------5-7----------------------------------5-7-|
E|-5------------------------------------5------------------------------------5-|

Guitar 1
e|------------------------------------------------------------------------------|
B|------------------------------------------------------------------------------|
G|------------------------------------------------------------------------------|
D|------------------------------------------------------------------------------|
A|-00000000000000000000000000000000----0000000000000000----0000000000000000-----|
E|------------------------------------------------------------------------------|
PM ********************************    ****************    ****************

Guitar 2				      
e|------------------------------------------------------------------------------|
B|------------------------------------------------------------------------------|
G|----------------------------------7-------------------7-------------------7---|
D|----------------------------------7-7-----------------7-7-----------------7-7-|
A|----------------------------------5-7-----------------5-7-----------------5-7-|
E|------------------------------------5-------------------5-------------------5-|

Guitar 1
e|------------------|
B|------------------|
G|------------------|
D|------------------|
A|-00000000---------|
E|------------------|
PM ******** 

Guitar 2				      
e|------------------|
B|------------------|
G|-------------9----| ‘1,2,3,4!’
D|----------7--9-10-|
A|----------7--7-10-|
E|----------5-----8-|
             
Verse 
e|------------------------------------|
B|------------------------------------|
G|----------7-7-7-7--9-9-9-9----------|
D|-7-7-7-7--7-7-7-7--9-9-9-9--7-7-7-7-|
A|-7-7-7-7--5-5-5-5--7-7-7-7--7-7-7-7-|
E|-5-5-5-5--------------------5-5-5-5-|

Chorus
e|-----------------------------------------------------------------------------|
B|-----------------------------------------------------------------------------|
G|-7-7-7-7-7-7-7-7-7-7-----------------------7-7-7-7-7-7-7-7-7-7--9-9--9-9-9-9-|
D|-7-7-7-7-7-7-7-7-7-7--7-7-7-7-7-7-7-7-7-7--7-7-7-7-7-7-7-7-7-7--9-9--9-9-9-9-|
A|-5-5-5-5-5-5-5-5-5-5--7-7-7-7-7-7-7-7-7-7--5-5-5-5-5-5-5-5-5-5--7-7--7-7-7-7-|
E|----------------------5-5-5-5-5-5-5-5-5-5------------------------------------|

Pre Verse
e|------------------------------------|---------------------------------------|
B|------------------------------------|---------------------------10-10-10-10-|
G|----------7-7-7-7--9-9-9-9----------|----------7-7-7-7--9-9-9-9--9--9--9--9-|
D|-7-7-7-7--7-7-7-7--9-9-9-9--7-7-7-7-|-7-7-7-7--7-7-7-7--9-9-9-9--7--7--7--7-|
A|-7-7-7-7--5-5-5-5--7-7-7-7--7-7-7-7-|-7-7-7-7--5-5-5-5--7-7-7-7-------------|
E|-5-5-5-5--------------------5-5-5-5-|-5-5-5-5-------------------------------|

Bridge part 1
e|------------------------------|
B|------------------------------|
G|----7-----7--9-9-9-9-9-9-9-9--|
D|-7--7--7--7--9-9-9-9-9-9-9-9--|
A|-7--5--7--5--7-7-7-7-7-7-7-7--|
E|-5-----5----------------------|
Bridge part 2
e|------------------------------------|
B|------------------------------------|
G|----------9-9-9-9--5-5-5-5--8-8-8-8-|
D|-7-7-7-7--9-9-9-9--5-5-5-5--8-8-8-8-|
A|-7-7-7-7--7-7-7-7--3-3-3-3--6-6-6-6-|
E|-5-5-5-5----------------------------|

Bridge part 3
E|------------------------------------------------------------------------------|
B|---------------------------10-10-10-10--10-10-10-10---------------------------|
G|----------7-7-7-7--9-9-9-9--9--9--9--9---9--9--9--9--7-7-7-7--9-9-9-9-9-9-9-9-|
D|-7-7-7-7--7-7-7-7--9-9-9-9--7--7--7--7---7--7--7--7--7-7-7-7--9-9-9-9-9-9-9-9-|
A|-7-7-7-7--5-5-5-5--7-7-7-7---------------------------5-5-5-5--7-7-7-7-7-7-7-7-|
E|-5-5-5-5----------------------------------------------------------------------|

e|---------------------|
B|---------------------|
G|-9-9-9-9-9-9-9--9~~~-|
D|-9-9-9-9-9-9-9--9~~~-|
A|-7-7-7-7-7-7-7--7~~~-|
E|---------------------|

Solo
Guitar 1
e|--------------------------------------------------------12---12\--|
B|-----------------------------------------8---7--10--10------------|
G|---------------4/9--9~--9--7--7--7~--7-7--------------------------|
D|------------------------------------------------------------------|
A|------------------------------------------------------------------|
E|-(pick-slide)-----------------------------------------------------|

Guitar 2
e|------------------------------------------------------------------|
B|------------------------------------------------------------------|
G|----------------------------7-7--7-7-7----------7---7-------------|
D|----------------7-7--7-7-7--7-7--7-7-7--5--5----7---7---7-7-7-7-7-|
A|---(Wait for----7-7--7-7-7--5-5--5-5-5--5--5----5---5---7-7-7-7-7-|
E|--Pick-slide)---5-5--5-5-5--------------3--3------------5-5-5-5-5-|

Pre outro
e|-------------------------------------------|
B|-------------------------------------------|
G|------------7-7-7-7-7-------7-7------------|
D|-7-7-7-7-7--7-7-7-7-7--5-5--7-7--7-7-7-7-7-|
A|-7-7-7-7-7--5-5-5-5-5--5-5--5-5--7-7-7-7-7-|
E|-5-5-5-5-5-------------3-3-------5-5-5-5-5-|

Outro
e|---------------------|----------------------------------|
B|---------------------|----------------------------------|
G|---------7~--9-9-----|--------7~--9-9-9-9-9-9-9-9--9~~~-|
D|--7~-7~--7~--9-9---7~|-7~-7~--7~--9-9-9-9-9-9-9-9--9~~~-|
A|--7~-7~--5~--7-7---7~|-7~-7~--5~--7-7-7-7-7-7-7-7--7~~~-|
E|--5~-5~------------5~|-5~-5~----------------------------|

End (‘and don’t wear it out’)
e|---------------------|
B|---------------------|
G|---------------------|
D|--7----7-----7----7--|
A|--7----7-----7----7--|
E|--5----5-----5----5--|

Order

Intro
Verse x6
Chorus
Pre Verse
Verse x4
Chorus
Bridge part1 x4
Bridge part2 x4
Bridge part3
Solo
Pre outro x4
Outro
End


Lyrics

(Intro)
St. Jimmy's comin' down across the alleyway
Up on the boulevard like a zip gun on parade
Life on the silhouette                                  
He's insubordinate
Coming at you on account of 1,2
! 1, 2, 3, 4 !

(Verse 1)
My name is Jimmy and you better not wear it out
Suicide commando that your momma talked about        
King of the forty thieves im here to represent
That needle in the vein of the establishment

(Chorus)
I'm the patron saint of the denial              
With an angel face and a taste for suicidal             

(Verse 2)
Cigarettes and ramen and a little bag of dope 
I am the son of a bitch and Edgar Allen Poe             
Raised in the city under a halo of rights               
The product of war and fear that we've been victimized

(Chorus)
I'm the patron saint of the denial
With an angel face and a taste for suicidal             

(Bridge)
You talking to me?
I'll give you something to cry about.                   
ST. JIMMY!

(Solo)
My name is St. Jimmy I'm a son of a gun
I am the one that's from the way outside now
A teenage assassin executing some fun
In the cult of the life of crime now

(Outro)
I really hate to say it but I told you so
So shut your mouth before I shoot you down old boy
Welcome to the club and give me some bud
I'm the resident leader at the lost and found	

(End)
It's comedy and tragedy
It's St. Jimmy 
And that's my name.
...And don't wear it out!

--------------------------------------------------------------------------------------
Green Day Give me Novacaine
--------------------------------------------------------------------------------------
All the tabs I have looked at for this song have often overlooked the two guitar tracks
in the song where as I have tabbed both of them.

Guitar 1 (acoustic)
Guitar 2 (electric)

Chords used: these may not be the correct chord names but they apply to this song on my tab.

A  |x0222x|
F5 |2444xx|
B5 |x244xx|
E  |0799xx|


Intro (play each chord 16 times each)
A, F5, B5, E


Verse
Guitar 1 (play each chord 16 times each)
A, F5, B5, E
A, F5, B5, E	


Guitar 2 (clean)
E|---------------------------------------------------------------------|
B|-2-x-2-2-x-2-2-x-2-2-2-----------------------------------------------|
G|-2-x-2-2-x-2-2-x-2-2-2--4-x-4-4-x-4-4-x-4-4-4--4-x-4-4-x-4-4-x-4-4-4-|
D|-2-x-2-2-x-2-2-x-2-2-2--4-x-4-4-x-4-4-x-4-4-4--4-x-4-4-x-4-4-x-4-4-4-|
A|-0-x-0-0-x-0-0-x-0-0-0--4-x-4-4-x-4-4-x-4-4-4--2-x-2-2-x-2-2-x-2-2-2-|
E|------------------------2-x-2-2-x-2-2-x-2-2-2------------------------|

E|-----------------------|
B|-----------------------|
G|-9-x-9-9-x-9-9-x-9-9-9-|
D|-7-x-9-9-x-9-9-x-9-9-9-|
A|-7-x-7-7-x-7-7-x-7-7-7-|
E|-0-x-0-0-x-0-0-x-0-0-0-| 

E|---------------------------------------------------------------------|
B|-2-x-2-2-x-2-2-x-2-2-2-----------------------------------------------|
G|-2-x-2-2-x-2-2-x-2-2-2--4-x-4-4-x-4-4-x-4-4-4--4-x-4-4-x-4-4-x-4-4-4-|
D|-2-x-2-2-x-2-2-x-2-2-2--4-x-4-4-x-4-4-x-4-4-4--4-x-4-4-x-4-4-x-4-4-4-|
A|-0-x-0-0-x-0-0-x-0-0-0--4-x-4-4-x-4-4-x-4-4-4--2-x-2-2-x-2-2-x-2-2-2-|
E|------------------------2-x-2-2-x-2-2-x-2-2-2------------------------|

E|--------------------|
B|--------------------|
G|-9--9-9--9-9--9-9-9-|
D|-7--9-9--9-9--9-9-9-|
A|-7--7-7--7-7--7-7-7-|
E|-0--0-0--0-0--0-0-0-|

Pre Chorus (Distorted)
Guitar 2
E|---------------------------------------------------------------|
B|---------------------------------------------------------------|
G|-7-7-7-7--(drain the pressure----------------------------------|
D|-7-7-7-7---from the swelling)--7-7-7-7-7-7-7-7-7-7-7-7-7-7-7-7-|
A|-5-5-5-5-----------------------7-7-7-7-7-7-7-7-7-7-7-7-7-7-7-7-|
E|-------------------------------5-5-5-5-5-5-5-5-5-5-5-5-5-5-5-5-|

E|---------------------------------------------------------------|
B|---------------------------------------------------------------|
G|-7-7-7-7--(this sensation’s------------------------------------|
D|-7-7-7-7-----over whelming)----7-7-7-7-7-7-7-7-7-7-7-7-7-7-7-7-|
A|-5-5-5-5-----------------------7-7-7-7-7-7-7-7-7-7-7-7-7-7-7-7-|
E|-------------------------------5-5-5-5-5-5-5-5-5-5-5-5-5-5-5-5-|

Chorus
Guitar 2 (Distorted)
E|----------------------------------------------------------------------|
B|----------------------------------------------------------------------|
G|-7-7-7-7-7-7-7-7-7-7-7-7---------------------------4-4-4-4-4-4-4-4-4-4|
D|-7-7-7-7-7-7-7-7-7-7-7-7--4-4-4-4-4-4-4-4-4-4-4-4--4-4-4-4-4-4-4-4-4-4|
A|-5-5-5-5-5-5-5-5-5-5-5-5--4-4-4-4-4-4-4-4-4-4-4-4--2-2-2-2-2-2-2-2-2-2|
E|--------------------------2-2-2-2-2-2-2-2-2-2-2-2---------------------|

E|----------------------------|
B|----------------------------|
G|-4-4-/--9-9-9-9-9-9-9-9-9-9-|
D|-4-4-/--9-9-9-9-9-9-9-9-9-9-|
A|-2-2-/--7-7-7-7-7-7-7-7-7-7-|
E|----------------------------|

Verse 2
Guitar 1
E|---------------------------------------------------------------------|
B|-2-x-2-2-x-2-2-x-2-2-2-----------------------------------------------|
G|-2-x-2-2-x-2-2-x-2-2-2--4-x-4-4-x-4-4-x-4-4-4--4-x-4-4-x-4-4-x-4-4-4-|
D|-2-x-2-2-x-2-2-x-2-2-2--4-x-4-4-x-4-4-x-4-4-4--4-x-4-4-x-4-4-x-4-4-4-|
A|-0-x-0-0-x-0-0-x-0-0-0--4-x-4-4-x-4-4-x-4-4-4--2-x-2-2-x-2-2-x-2-2-2-|
E|------------------------2-x-2-2-x-2-2-x-2-2-2------------------------|

Guitar 2
e|----------------------------------------------------------------------|
B|--5-/-14~-----------------10-\-7b~----------------7-/-15~-------------|
G|----------------------------------------------------------------------|
D|----------------------------------------------------------------------|
A|----------------------------------------------------------------------|
E|----------------------------------------------------------------------|

Guitar 1
E|-----------------------|
B|-----------------------|
G|-9-x-9-9-x-9-9-x-9-9-9-|
D|-7-x-9-9-x-9-9-x-9-9-9-|
A|-7-x-7-7-x-7-7-x-7-7-7-|
E|-0-x-0-0-x-0-0-x-0-0-0-|

Guitar 2
e|-----------------------|
B|--12-\-9~--------------|
G|-----------------------|
D|-----------------------|
A|-----------------------|
E|-----------------------|

Pre Solo
e|--------------------------------------------------------------------------------|
B|--------------------------------------------------------------------------------|
G|--------------------------------------------------------------------------------|
D|-x-x-x-x-x-x--7-7-7-7-7-7-7-7--7-7-7-7-7-7-7-7--7-7-7-7-7-7-7-7--7-7-7-7-7-7-7-7|
A|-x-x-x-x-x-x--7-7-7-7-7-7-7-7--7-7-7-7-7-7-7-7--7-7-7-7-7-7-7-7--7-7-7-7-7-7-7-7|
E|-x-x-x-x-x-x--5-5-5-5-5-5-5-5--5-5-5-5-5-5-5-5--5-5-5-5-5-5-5-5--5-5-5-5-5-5-5-5|

Solo
Guitar 1
E|--------4------5-5-4----|-------------9------------|\
B|-----------7----------7-|--10---10------10---------| \
G|----6-6-----------------|-----9----9--------9------|  \
D|-4----------------------|-7-------------------7--7-|   \
A|------------------------|--------------------------|    \
E|------------------------|--------------------------|     \
Guitar 2 						        x3
E|--------------------------|------------------------|     /
B|--------------------------|------------------------|    /
G|--------------------------|------------------------|   /
D|-4-4-4-4-4-4--4-4-4-4-4-4-|-7-7-7-7-7-7-7-7-7-7-7-7|  /
A|-4-4-4-4-4-4--4-4-4-4-4-4-|-7-7-7-7-7-7-7-7-7-7-7-7| / 
E|-2-2-2-2-2-2--2-2-2-2-2-2-|-5-5-5-5-5-5-5-5-5-5-5-5|/

Guitar 1	
E|------------10----10------|---------------5-5-5-5--7-7-7-7-7-7-7-7------------|
B|------12-------12----12---|-12-12-9-9-9-9-5-5-5-5--5-5-5-5-5-5-5-5--7-7-8-8-7-|
G|---11----11-------------11|-11-11-9-9-9-9---------------------------7-7-7-7-7-|
D|-9------------------------|---------------------------------------------------|
A|--------------------------|---------------------------------------------------|
E|--------------------------|---------------------------------------------------|

Guitar 2 						      
E|--------------------------|---------------------------------|     
B|--------------------------|---------------------------------|    
G|--------------------------|---------------------------------|
D|-4-4-4-4-4--4-4-4-4-4-4-4-|-9-9-9-9-9-9-9-9-9-9-9-9-9-9-9-9-|
A|-4-4-4-4-4--4-4-4-4-4-4-4-|-9-9-9-9-9-9-9-9-9-9-9-9-9-9-9-9-|
E|-2-2-2-2-2--2-2-2-2-2-2-2-|-7-7-7-7-7-7-7-7-7-7-7-7-7-7-7-7-|

Outro

|Guitar 1|
A, F5, B5, E, A

Guitar 2 (clean)
E|---------------------------------------------------------------------|
B|-2-x-2-2-x-2-2-x-2-2-2-----------------------------------------------|
G|-2-x-2-2-x-2-2-x-2-2-2--4-x-4-4-x-4-4-x-4-4-4--4-x-4-4-x-4-4-x-4-4-4-|
D|-2-x-2-2-x-2-2-x-2-2-2--4-x-4-4-x-4-4-x-4-4-4--4-x-4-4-x-4-4-x-4-4-4-|
A|-0-x-0-0-x-0-0-x-0-0-0--4-x-4-4-x-4-4-x-4-4-4--2-x-2-2-x-2-2-x-2-2-2-|
E|------------------------2-x-2-2-x-2-2-x-2-2-2------------------------|

E|---------------------------|
B|------------------------2~-|
G|-9-x-9-9-x-9-9-x-9-9-9--2~-|
D|-7-x-9-9-x-9-9-x-9-9-9--2~-|
A|-7-x-7-7-x-7-7-x-7-7-7--0~-|
E|-0-x-0-0-x-0-0-x-0-0-0-----|

Guitar 2


Order

Intro
Verse
Pre Chorus
Chorus
Verse 2 x3
Pre Chorus
Chorus
Pre Solo
Solo
Pre Chorus
Chorus
Outro

Lyrics

(Verse)
Take away the sensation inside 
Bittersweet migraine in my head 
It's like a throbbing toothache of the mind 
I can't take this feeling anymore 

(Pre Chorus)
Drain the pressure from the swelling, 
The sensation's overwhelming, 

(Chorus)
Give me a kiss goodnight and 
Everything will be all right 
Tell me that I won't feel a thing 
So give me novacaine 

(Verse 2)
Out of body and out of mind 
Kiss the demons out of my dreams 
I get the funny feeling, that's all right 
Jimmy says it's better than air, 
I'll tell you why 

(Pre Chorus)
Drain the pressure from the swelling, 
The sensations overwhelming, 

(Chorus)
Give me a kiss goodnight and 
Everything will be all right, 
Tell me that I won't feel a thing, 
So give me novacaine 

Oh novacaine 

(Pre Chorus)
Drain the pressure from the swelling, 
The sensations overwhelming 

(Chorus)
Give me a kiss goodnight and 
Everything will be all right, 
Tell me, Jimmy, I won't feel a thing, 
So give me novacaine

--------------------------------------------------------------------------------------
Green Day She’s a rebel
--------------------------------------------------------------------------------------

Intro
e|------------------------------------------------------------|
B|------------------------------------------------------------|
G|----------------7-7-7-5-5-5-5-----------------7-7-7-5-5-5-5-|
D|-5-5--5-5--5-5--7-7-7-5-5-5-5--5-5--5-5--5-5--7-7-7-5-5-5-5-|
A|-5-5--5-5--5-5--5-5-5-3-3-3-3--5-5--5-5--5-5--5-5-5-3-3-3-3-|
E|-3-3--3-3--3-3-----------------3-3--3-3--3-3----------------|

Verse
e|--------------------------------------------------|
B|--------------------------------------------------|
G|--------5-5---------5-5---------5-5--7-7--5-5-5-5-|
D|-5-x-x--5-5--5-x-x--5-5--5-x-x--5-5--7-7--5-5-5-5-|
A|-5-x-x--3-3--5-x-x--3-3--5-x-x--3-3--5-5--3-3-3-3-|
E|-3-x-x-------3-x-x-------3-x-x--------------------|

Chorus
e|-----------------------------------------------------------------------------------|
B|-----------------------------------------------------------------------------------|
G|-9-9-9-9------------------5-5-5-5-----------------5-5-5-5---------9-9--10-10-10-10-|
D|-9-9-9-9-9-9-9-9-9-9-9-9--5-5-5-5-5-5-5-5-5-5-5-5-5-5-5-5-9-9-9-9-9-9--10-10-10-10-|
A|-7-7-7-7-9-9-9-9-9-9-9-9--3-3-3-3-5-5-5-5-5-5-5-5-3-3-3-3-9-9-9-9-7-7---8--8--8--8-|
E|---------7-7-7-7-7-7-7-7----------3-3-3-3-3-3-3-3---------7-7-7-7------------------|

e|-------------------------------------|
B|-------------------------------------|
G|-7-7----------5-5---12-12-12-x-------|
D|-7-7--9-9-7-7-5-5---12-12-12-x-12-12-|
A|-5-5--9-9-7-7-3-3---10-10-10-x-12-12-|
E|------7-7-5-5------------------10-10-|

Bridge
e|---------------------|---------------------|---------------------|
B|---------------------|---------------------|---------------------|
G|-x-x-12-12-x-x-12-12-|-x-x-12-12-x-x-12-12-|-x-x-12-12-x-x-12-12-|
D|-x-x--x--x-x-x--x--x-|-x-x--x--x-x-x--x--x-|-x-x--x--x-x-x--x--x-|
A|-x-x-10-10-x-x-10-10-|-x-x-10-10-x-x-10-10-|-x-x-10-10-x-x-10-10-|
E|---------------------|---------------------|---------------------|

e|---------------------------|
B|---------------------------|
G|-11--11-11-11--12--14--12--|
D|--x---x--x--x---x---x---x--|
A|--9---9--9--9--10--12--10--|
E|---------------------------|

Pre Outro
e|--------------------------------------------------|
B|--------------------------------------------------|
G|--------5-5---------5-5---------5-5--7-7--5-5-5-5-|
D|-5-x-x--5-5--5-x-x--5-5--5-x-x--5-5--7-7--5-5-5-5-|
A|-5-x-x--3-3--5-x-x--3-3--5-x-x--3-3--5-5--3-3-3-3-|
E|-3-x-x-------3-x-x-------3-x-x--------------------|

Outro
Guitar 1
e|----------------|----------------|----------------|--------------------|
B|----------------|----------------|----------------|--------------------|
G|-----------5--5-|-----------5--5-|-----------5--5-|--7--7---5--5--5--5-|
D|-5--x--x---5--5-|-5--x--x---5--5-|-5--x--x---5--5-|--7--7---5--5--5--5-|
A|-5--x--x---3--3-|-5--x--x---3--3-|-5--x--x---3--3-|--5--5---3--3--3--3-|
E|-3--x--x--------|-3--x--x--------|-3--x--x--------|--------------------|

Guitar 2 
e|----------------|----------------|----------------|--------------------|
B|----------------|----------------|----------------|--------------------|
G|-xx-1212-xx-1212|-xx-1212-xx-1212|-xx-1212-xx-1212|-11111111--12-14-12-|
D|-xx--x-x-xx--x-x|-xx--x-x-xx--x-x|-xx--x-x-xx--x-x|--x-x-x-x---x--x--x-|
A|-xx-1010-xx-1010|-xx-1010-xx-1010|-xx-1010-xx-1010|--9-9-9-9--10-12-10-|
E|----------------|----------------|----------------|--------------------|

Guitar 1
e|----------------|----------------|----------------|--------------------|------|
B|----------------|----------------|----------------|--------------------|------|
G|-----------5--5-|-----------5--5-|-----------5--5-|--7--7---5--5--5--5-|------|
D|-5--x--x---5--5-|-5--x--x---5--5-|-5--x--x---5--5-|--7--7---5--5--5--5-|-5--5-|
A|-5--x--x---3--3-|-5--x--x---3--3-|-5--x--x---3--3-|--5--5---3--3--3--3-|-5--5-|
E|-3--x--x--------|-3--x--x--------|-3--x--x--------|--------------------|-3--3-|
										
Guitar 2 
e|----------------|----------------|----------------|--------------------|
B|----------------|----------------|----------------|--------------------|
G|-xx-1212-xx-1212|-xx-1212-xx-1212|-xx-1212-xx-1212|-11111111--12-14-12-|
D|-xx--x-x-xx--x-x|-xx--x-x-xx--x-x|-xx--x-x-xx--x-x|--x-x-x-x---x--x--x-|
A|-xx-1010-xx-1010|-xx-1010-xx-1010|-xx-1010-xx-1010|--9-9-9-9--10-12-10-|
E|----------------|----------------|----------------|--------------------|

Order

Intro
Verse x5
Chorus
Bridge x2
Chorus
Intro
Pre Outro x2
Outro

Lyrics

Lyrics:

(Intro)
She's a rebel
She's a saint                   
She's the salt of the earth
And she's dangerous             
She's a rebel
Vigilante                       
Missing link on the brink       
Of destruction

(Verse 1)
From Chicago 
To Toronto                      
She's the one that they
Call old Whatsername            
She's the symbol
Of resistance                   
And she's holding on my
Heart like a hand grenade

Is she dreaming?
What I'm thinking
Is she the mother of all bombs?  
Gonna detonate                  
Is she trouble?                  
Like I'm trouble
Make it a double                
Twist of fate
Or a melody that

(Chorus)
She sings for revolution
The dawning of our lives
She brings this liberation      
That I just can’t define
Well nothing comes to mind

(Bridge)

(Chorus)

(Intro)
(Intro – lyrics verse played)


She's a rebel
She's a rebel                   
She's a rebel           
And she's dangerous            
She's a rebel
She's a rebel                   
She's a rebel
And she's dangerous

--------------------------------------------------------------------------------------
Green Day Extraordinary Girl
--------------------------------------------------------------------------------------

Intro (played by electric sitar but you can play it on your guitar) 
e|---------3-------------3-----------------------------------------|
B|-5---6-------5----6---------5---3------------------(drums enter)-|
G|--------------------------------------6------5-------------------|
D|-----------------------------------------------------------------|
A|-----------------------------------------------------------------|
E|-----------------------------------------------------------------|

Intro part 2
Guitar 1
e|-------------1--3---1---------------1--3--1----|
B|-5~~---3--5-------------5-----3--5-----------4-|
G|-----------------------------------------------|
D|-----------------------------------------------|
A|-----------------------------------------------|
E|-----------------------------------------------|

Guitar 2
e|------------------------------------------------|
B|-2-2-2-2--0--3-3-3-3--0--2-2-2-2--0--3-3-3-3--0-|
G|-2-2-2-2--0--2-2-2-2--0--2-2-2-2--0--2-2-2-2--0-|
D|-2-2-2-2-----0-0-0-0-----2-2-2-2-----0-0-0-0----|
A|-0-0-0-0-----------------0-0-0-0----------------|
E|------------------------------------------------|

Verse
Guitar 2
e|------------------------------------------------------------------------|
B|-2-2-2-2--0--3-3-3-3--0--2-2-2-2--0--3-3-3-3--0--2-2-2-2--0--3-3-3-3--0-|
G|-2-2-2-2--0--2-2-2-2--0--2-2-2-2--0--2-2-2-2--0--2-2-2-2--0--3-3-3-3--0-|
D|-2-2-2-2-----0-0-0-0-----2-2-2-2-----0-0-0-0-----2-2-2-2-----0-0-0-0----|
A|-0-0-0-0-----------------0-0-0-0-----------------0-0-0-0-----x-x-x-x----|
E|-------------------------------------------------------------3-3-3-3----|

e|--------------------------------------------------|
B|--------------------------------------------------|
G|--------------------------------------------------|
D|-11---11--9--11--11--9---11--12--11--9--11--11--9-|
A|--0----0--0---0---0--0----0---0---0--0---0---0--0-|
E|--------------------------------------------------|

Guitar 1
e|--------------------3------------------3--------------------------|
B|---5~~--3---5---6-----6--5---3-5---6-----6---5-5--5----3-3-3----2-|
G|------------------------------------------------------------------|
D|------------------------------------------------------------------|
A|------------------------------------------------------------------|
E|------------------------------------------------------------------|

Guitar 2
e|------------------------------------------------------------------------|
B|-2-2-2-2--0--3-3-3-3--0--2-2-2-2--0--3-3-3-3--0--2-2-2-2--0--3-3-3-3--0-|
G|-2-2-2-2--0--2-2-2-2--0--2-2-2-2--0--2-2-2-2--0--2-2-2-2--0--3-3-3-3--0-|
D|-2-2-2-2-----0-0-0-0-----2-2-2-2-----0-0-0-0-----2-2-2-2-----0-0-0-0----|
A|-0-0-0-0-----------------0-0-0-0-----------------0-0-0-0-----x-x-x-x----|
E|-------------------------------------------------------------3-3-3-3----|

Guitar 1
e|--------------------------------------------------|
B|--------------------------------------------------|
G|--------------------------------------------------|
D|-11---11--9--11--11--9---11--12--11--9--11--11--9-|
A|--------------------------------------------------|
E|--------------------------------------------------|

Guitar 2
e|--------------------------------------------------|
B|--------------------------------------------------|
G|--------------------------------------------------|
D|-11---11--9--11--11--9---11--12--11--9--11--11--9-|
A|--0----0--0---0---0--0----0---0---0--0---0---0--0-|
E|--------------------------------------------------|


Chorus 
Guitar 2
e|----------------------------------------------------------------------------|
B|----------------------------------------------------------------------------|
G|------------------------7-7-7--9-9-9---------------------------7-7-7--9-9-9-|
D|-4-4-4-4-x--2-2-2-2-2---7-7-7--9-9-9---4-4-4-4-x--2-2-2-2-2----7-7-7--9-9-9-|
A|-4-4-4-4-x--2-2-2-2-2---5-5-5--7-7-7---4-4-4-4-x--2-2-2-2-2----5-5-5--7-7-7-|
E|-2-2-2-2-x--0-0-0-0-0------------------2-2-2-2-x--0-0-0-0-0-----------------|

Guitar 1
e|---------------------------------------5-0----------------------------------|
B|-------------------------------------------1--------------------------------|
G|----------------------------------------------------------------------------|
D|----------------------------------------------------------------------------|
A|----------------------------------------------------------------------------|
E|----------------------------------------------------------------------------|

Guitar 2
e|--------------------------------------|
B|--------------------------------------|
G|-7-7-7-7-7--9-9-9-9-9---7~~~---9#-----|
D|-7-7-7-7-7--9-9-9-9-9---7~~~---9#-----|
A|-5-5-5-5-5--7-7-7-7-7---5~~~---7#-----|
E|--------------------------------------|

Chorus 2
Guitar 2
e|----------------------------------------------------------------------------|
B|----------------------------------------------------------------------------|
G|------------------------7-7-7--9-9-9---------------------------7-7-7--9-9-9-|
D|-4-4-4-4-x--2-2-2-2-2---7-7-7--9-9-9---4-4-4-4-x--2-2-2-2-2----7-7-7--9-9-9-|
A|-4-4-4-4-x--2-2-2-2-2---5-5-5--7-7-7---4-4-4-4-x--2-2-2-2-2----5-5-5--7-7-7-|
E|-2-2-2-2-x--0-0-0-0-0------------------2-2-2-2-x--0-0-0-0-0-----------------|

Guitar 1
e|---------------------------------------5-0----------------------------------|
B|-------------------------------------------1--------------------------------|
G|----------------------------------------------------------------------------|
D|----------------------------------------------------------------------------|
A|----------------------------------------------------------------------------|
E|----------------------------------------------------------------------------|

Guitar 2
e|----------------------|----------------------|----------------------|
B|----------------------|----------------------|----------------------|
G|-7-7-7-7-7--9-9-9-9-9-|-7-7-7-7-7--9-9-9-9-9-|-7-7-7-7-7--9-9-9-9-9-|
D|-7-7-7-7-7--9-9-9-9-9-|-7-7-7-7-7--9-9-9-9-9-|-7-7-7-7-7--9-9-9-9-9-|
A|-5-5-5-5-5--7-7-7-7-7-|-5-5-5-5-5--7-7-7-7-7-|-5-5-5-5-5--7-7-7-7-7-|
E|----------------------|----------------------|----------------------|

Order

Intro
Intro part 2
Verse
Chorus
Intro
Verse
Chorus
Verse x 2
Chorus 2
Verse

Lyrics:

She's an extraordinary girl
In an ordinary world
And she can’t seem to get her way
He lacks the courage in his mind
Like a child left behind
Like a pet left in the rain


She's all alone again
Wiping the tears from her eyes
Some days he feels like dying
She gets so sick of crying


She sees the mirror of herself
An image she wants to sell
To anyone willing to buy
He steals the image in her kiss
From her hearts apocalypse
From the one called whatsername


She's all alone again
Wiping the tears from her eyes
Some days he feels like dying
She gets so sick of crying


She's all alone again
Wiping the tears from her eyes
Some days he feels like dying
Some days it's not worth trying
Now that they both are finding
She gets so sick of crying

She's an extraordinary girl
An extraordinary girl
An extraordinary girl
An extraordinary girl


--------------------------------------------------------------------------------------
Green Day Letter Bomb
--------------------------------------------------------------------------------------

Intro					        
e|-----------------|-----------------|-----------------|-----------------|
B|-----------------|-----------------|-----------------|-----------------|
G|-9-9-9-9-9-9-9-9-|-9-9-9-9-9-9-9-9-|-9-9-9-9-9-9-9-9-|-9-9-9-9-9-9-9-9-|
D|-x-x-x-x-x-x-x-x-|-x-x-x-x-x-x-x-x-|-x-x-x-x-x-x-x-x-|-x-x-x-x-x-x-x-x-|
A|-7-7-7-7-7-7-7-7-|-7-7-7-7-7-7-7-7-|-7-7-7-7-7-7-7-7-|-7-7-7-7-7-7-7-7-|
E|-----------------|-----------------|-----------------|-----------------|

e|-----------------|-----------------|-----------------|-----------------|
B|-----------------|-----------------|-----------------|-----------------|
G|-9-9-9-9-9-9-9-9-|-9-9-9-9-9-9-9-9-|-8-8-8-8-8-8-8-8-|-8-8-8-8-8-8-8-8-|
D|-x-x-x-x-x-x-x-x-|-x-x-x-x-x-x-x-x-|-x-x-x-x-x-x-x-x-|-x-x-x-x-x-x-x-x-|
A|-7-7-7-7-7-7-7-7-|-7-7-7-7-7-7-7-7-|-6-6-6-6-6-6-6-6-|-6-6-6-6-6-6-6-6-|
E|-----------------|-----------------|-----------------|-----------------|

e|-----------------|-----------------|-----------------|-----------------|
B|-----------------|-----------------|-----------------|-----------------|
G|-9-9-9-9-9-9-9-9-|-9-9-9-9-9-9-9-9-|-9-9-9-9-9-9-9-9-|-9-9-9-9-9-9-9-9-|
D|-x-x-x-x-x-x-x-x-|-x-x-x-x-x-x-x-x-|-x-x-x-x-x-x-x-x-|-x-x-x-x-x-x-x-x-|
A|-7-7-7-7-7-7-7-7-|-7-7-7-7-7-7-7-7-|-7-7-7-7-7-7-7-7-|-7-7-7-7-7-7-7-7-|
E|-----------------|-----------------|-----------------|-----------------|

e|------------------------------------------------------------------------|
B|------------------------------------------------------------------------|
G|--------------------------------------------------6-6-6-6-6-6-6-6-6-6-6-| 
D|----2-2-2-2-2-2-2-2-2-2-6-6-6-6-6-6-6-6-6-6-6-6-6-6-6-6-6-6-6-6-6-6-6-6-|
A|----2-2-2-2-2-2-2-2-2-2-6-6-6-6-6-6-6-6-6-6-6-6-6-4-4-4-4-4-4-4-4-4-4-4-|
E|12\-0-0-0-0-0-0-0-0-0-0-4-4-4-4-4-4-4-4-4-4-4-4-4-----------------------|

e|-------------------------------|
B|-------------------------------|
G|-------------------------------|
D|-x--7-7-7-7-7-7-7-7-7-7-7-7----|
A|-x--7-7-7-7-7-7-7-7-7-7-7-7----|
E|-x--5-5-5-5-5-5-5-5-5-5-5-5--0-|

Verse
e|-----------------------------------------------------------------------|
B|-----------------------------------------------------------------------|
G|-----------------------------------------------------------------------|
D|-2-2-2-2-2-2-2-2-2-2-2-2-2-2-2--7-7-7-7-7-7-7-7-7-7-7-7-7---4-4-4-4-4-4|
A|-2-2-2-2-2-2-2-2-2-2-2-2-2-2-2--7-7-7-7-7-7-7-7-7-7-7-7-7---4-4-4-4-4-4|
E|-0-0-0-0-0-0-0-0-0-0-0-0-0-0-0--5-5-5-5-5-5-5-5-5-5-5-5-5-0-2-2-2-2-2-2|
PM   ***************

e|--------------0-0------------------------------------------------------|
B|--------------0-0-------------------------------5-5-5-5-5-5-x----------|
G|---------------------------------------------6--6-6-6-6-6-6-x----------|
D|7-7-7-7-7-7----------------------6-6-6-6--6--6--6-6-6-6-6-6-x-6-6-6-6-6|
A|7-7-7-7-7-7-------2-2-2-2-2-2----6-6-6-6--6--4--4-4-4-4-4-4-x-6-6-6-6-6|
E|5-5-5-5-5-5-0-----0-0-0-0-0-0-0--4-4-4-4--4-------------------4-4-4-4-4|

e|-----------------------------------------------------------------------|
B|----5-5-5-5-5-x--------------------------------------------------------|
G|-6--6-6-6-6-6-x--------------------------4-4-4-2---4-4-4-4-4-4-4-x-----|
D|-6--6-6-6-6-6-x--7-7-7-7-7---4-4-4-4-4---4-4-4-2---4-4-4-4-4-4-4-x-----|
A|-4--4-4-4-4-4-x--7-7-7-7-7---4-4-4-4-4---2-2-2-0---2-2-2-2-2-2-2-x-----|
E|-----------------5-5-5-5-5-0-2-2-2-2-2-0---------0---------------------|

Verse 2
e|-----------------------------------------------------------------------|
B|-----------------------------------------------------------------------|
G|-----------------------------------------------------------------------|
D|-2-2-2-2-2-2-2-2-2-2-2-2-2-2-2--7-7-7-7-7-7-7-7-7-7-7-7-7---4-4-4-4-4-4|
A|-2-2-2-2-2-2-2-2-2-2-2-2-2-2-2--7-7-7-7-7-7-7-7-7-7-7-7-7---4-4-4-4-4-4|
E|-0-0-0-0-0-0-0-0-0-0-0-0-0-0-0--5-5-5-5-5-5-5-5-5-5-5-5-5-0-2-2-2-2-2-2|
PM   ***************

e|--------------0-0------------------------------------------------------|
B|--------------0-0-------------------------------5-5-5-5-5-5-x----------|
G|---------------------------------------------6--6-6-6-6-6-6-x----------|
D|7-7-7-7-7-7----------------------6-6-6-6--6--6--6-6-6-6-6-6-x-6-6-6-6-6|
A|7-7-7-7-7-7-------2-2-2-2-2-2----6-6-6-6--6--4--4-4-4-4-4-4-x-6-6-6-6-6|
E|5-5-5-5-5-5-0-----0-0-0-0-0-0-0--4-4-4-4--4-------------------4-4-4-4-4|

e|-----------------------------------------------------|------------|
B|----5-5-5-5-5-x--------------------------------------|------------|
G|-6--6-6-6-6-6-x--------------------------4-4-4-2---4-|4-4-4-2---4-|
D|-6--6-6-6-6-6-x--7-7-7-7-7---4-4-4-4-4---4-4-4-2---4-|4-4-4-2---4-|
A|-4--4-4-4-4-4-x--7-7-7-7-7---4-4-4-4-4---2-2-2-0---2-|2-2-2-0---2-|
E|-----------------5-5-5-5-5-0-2-2-2-2-2-0---------0---|-------0----|

e|-------------|------------|------------|
B|-------------|------------|------------|
G|-4-4-4-2---4-|4-4-4-2---4-|4-4-4-2---2-|
D|-4-4-4-2---4-|4-4-4-2---4-|4-4-4-2---2-|
A|-2-2-2-0---2-|2-2-2-0---2-|2-2-2-0---0-|
E|---------0---|-------0----|-------0----|
 
Pre chorus 
e|---------------------------------|---------------------------|
B|---------------------------------|---------------------------|
G|---------------------------------|-------------------------4-|
D|-7-7-7-7-7-7-7-7-7-7-7-7-------7-|-7-7-7-7-7-7-7-7-7-------4-|
A|-7-7-7-7-7-7-7-7-7-7-7-7-------7-|-7-7-7-7-7-7-7-7-7-------2-|
E|-5-5-5-5-5-5-5-5-5-5-5-5--0-0--5-|-5-5-5-5-5-5-5-5-5--0-0----|
                         
e|------------------------------------------------------|
B|------------------------------------------------------|
G|-4-4-4-4-4-4-4-4-4-4-4-4-----4-4-4-4-4-----4---4------|
D|-4-4-4-4-4-4-4-4-4-4-4-4-----4-4-4-4-4-----4---4------|
A|-2-2-2-2-2-2-2-2-2-2-2-2-----2-2-2-2-2-----2---2------|
E|-------------------------0-0-----------0-0---0----12\-|

Chorus
e|-----------------------------------------|-----------------------------------------|
B|-----------------------------------------|-----------------------------------------|
G|-9-9-9-9---------------------------------|-9-9-9-9---------------------------------|
D|-9-9-9-9-9-9-9-9-9-9--7-7-7-7-7-7-7-7-7-7|-9-9-9-9-9-9-9-9-9-9--7-7-7-7-7-7-7-7-7-7|
A|-7-7-7-7-9-9-9-9-9-9--7-7-7-7-7-7-7-7-7-7|-7-7-7-7-9-9-9-9-9-9--7-7-7-7-7-7-7-7-7-7|
E|---------7-7-7-7-7-7--5-5-5-5-5-5-5-5-5-5|---------7-7-7-7-7-7--5-5-5-5-5-5-5-5-5-5|

e|-------------------------------------------------------------------------------|
B|-------------------------------------------------------------------------------|
G|-9-9-9-9----------------------5-5--9-9-9-9-------------------------------------|
D|-9-9-9-9--9-9-9-9-9--7-7-7-7\-5-5--9-9-9-9--9-9-9-9-9--7-7-7-7-7-7-7-7-7--4~-7#|
A|-7-7-7-7--9-9-9-9-9--7-7-7-7\-3-3--7-7-7-7--9-9-9-9-9--7-7-7-7-7-7-7-7-7--4~-7#|
E|----------7-7-7-7-7--5-5-5-5\---------------7-7-7-7-7--5-5-5-5-5-5-5-5-5--2~-5#|

Midtro
Guitar 1
e|-----------------|-----------------|-----------------|-----------------|
B|-----------------|-----------------|-----------------|-----------------|
G|-9-9-9-9-9-9-9-9-|-9-9-9-9-9-9-9-9-|-9-9-9-9-9-9-9-9-|-9-9-9-9-9-9-9-9-|
D|-x-x-x-x-x-x-x-x-|-x-x-x-x-x-x-x-x-|-x-x-x-x-x-x-x-x-|-x-x-x-x-x-x-x-x-|
A|-7-7-7-7-7-7-7-7-|-7-7-7-7-7-7-7-7-|-7-7-7-7-7-7-7-7-|-7-7-7-7-7-7-7-7-|
E|-----------------|-----------------|-----------------|-----------------|

Guitar 2
e|-----------------------------------------------------------------------|
B|-----------------------------------------------------------------------|
G|-----------------------------------------------------------------------|
D|----------------(plays nothing)----------------------------------------|
A|-----------------------------------------------------------------------|
E|-----------------------------------------------------------------------|

Guitar 1
e|-----------------|-----------------|-----------------|-----------------|
B|-----------------|-----------------|-----------------|-----------------|
G|-9-9-9-9-9-9-9-9-|-9-9-9-9-9-9-9-9-|-8-8-8-8-8-8-8-8-|-8-8-8-8-8-8-8-8-|
D|-x-x-x-x-x-x-x-x-|-x-x-x-x-x-x-x-x-|-x-x-x-x-x-x-x-x-|-x-x-x-x-x-x-x-x-|
A|-7-7-7-7-7-7-7-7-|-7-7-7-7-7-7-7-7-|-6-6-6-6-6-6-6-6-|-6-6-6-6-6-6-6-6-|
E|-----------------|-----------------|-----------------|-----------------|

Guitar 2
e|-4-4-4--------4-4|-4-------4-4-----|--------4-4-4----|---4-4-4------4-4|
B|-------5-5-5-----|---5-5-5-----5-5-|-4-4-4--------4-4|-4--------4-4----|
G|-----------------|-----------------|-----------------|-----------------|
D|-----------------|-----------------|-----------------|-----------------|
A|-----------------|-----------------|-----------------|-----------------|
E|-----------------|-----------------|-----------------|-----------------|

Guitar 1
e|-----------------|-----------------|-----------------|-----------------|
B|-----------------|-----------------|-----------------|-----------------|
G|-9-9-9-9-8-8-8-8-|-4-4-4-4-8-8-8-8-|-9-9-9-9-8-8-8-8-|-4---------------|
D|-x-x-x-x-x-x-x-x-|-x-x-x-x-x-x-x-x-|-x-x-x-x-x-x-x-x-|-x---------------|
A|-7-7-7-7-6-6-6-6-|-2-2-2-2-6-6-6-6-|-7-7-7-7-6-6-6-6-|-2---------------|
E|-----------------|-----------------|-----------------|-----------------|

Guitar 2
e|-4-4-4--------4-4|-4-------4-4-----|-5-5-5-------5-5-|-5---------------|
B|-------5-5-5-----|---5-5-5-----5-5-|-------5-5-5-----|-----------------|
G|-----------------|-----------------|-----------------|-----------------|
D|-----------------|-----------------|-----------------|-----------------|
A|-----------------|-----------------|-----------------|-----------------|
E|-----------------|-----------------|-----------------|----(pick slide)-|

Interlude
Guitar 1
e|------------------------------------------------------------------------|
B|------------------------------------------------------------------------|
G|--------------------------------------------------6-6-6-6-6-6-6-6-6-6-6-| 
D|----2-2-2-2-2-2-2-2-2-2-6-6-6-6-6-6-6-6-6-6-6-6-6-6-6-6-6-6-6-6-6-6-6-6-|
A|----2-2-2-2-2-2-2-2-2-2-6-6-6-6-6-6-6-6-6-6-6-6-6-4-4-4-4-4-4-4-4-4-4-4-|
E|12\-0-0-0-0-0-0-0-0-0-0-4-4-4-4-4-4-4-4-4-4-4-4-4-----------------------|

e|-------------------------------|-----------------------------------------|
B|-------------------------------|-----------------------------------------|
G|-------------------------------|-----------------------------------------|
D|-x--7-7-7-7-7-7-7-7-7-7-7-7----|--2-2-2-2-2-2-2-2-2---6-6-6-6-6-6-6-6-6--|
A|-x--7-7-7-7-7-7-7-7-7-7-7-7----|--2-2-2-2-2-2-2-2-2---6-6-6-6-6-6-6-6-6--|
E|-x--5-5-5-5-5-5-5-5-5-5-5-5--0-|--0-0-0-0-0-0-0-0-0---4-4-4-4-4-4-4-4-4--|

Guitar 2
e|-------------------------------|-------------------------------------------|
B|-------------------------------|-5---5---5---5---5---4-4-4-5-5-5-4-2-------|
G|-------------------------------|---4---4---4---4---4-----------------5-5-5-|
D|-------------------------------|-------------------------------------------|
A|-------------------------------|-------------------------------------------|
E|-------------------------------|-------------------------------------------|

Guitar 1
e|------------------------------------|------------------------------------|
B|------------------------------------|------------------------------------|
G|-9-9-9-9--8-8-8-8--4-4-4-4--8-8-8-8-|-9-9-9-9--8-8-8-8--4-4-4-4--8-8-8-8-|
D|-x-x-x-x--x-x-x-x--x-x-x-x--x-x-x-x-|-x-x-x-x--x-x-x-x--x-x-x-x--x-x-x-x-|
A|-7-7-7-7--6-6-6-6--2-2-2-2--6-6-6-6-|-7-7-7-7--6-6-6-6--2-2-2-2--6-6-6-6-|
E|------------------------------------|------------------------------------|

Bridge
 (You're not the Jesus of Suburbia...)
e|-----------------------------------------------------------------------------|
B|-----------------------------------------------------------------------------|
G|-----------------------------------------------------------------------------|
D|------9-9-9-9-9-9-9-9-9-9-9-9-9-----9-9-9-9-9-9-9-9-9-9-9-9-9-----7-7-7-7-7-7|
A|------9-9-9-9-9-9-9-9-9-9-9-9-9-----9-9-9-9-9-9-9-9-9-9-9-9-9-----7-7-7-7-7-7|
E|-0-0--7-7-7-7-7-7-7-7-7-7-7-7-7-0-0-7-7-7-7-7-7-7-7-7-7-7-7-7-0-0-5-5-5-5-5-5|

e|---------------------------------------------|
B|---------------------------------------------|
G|---------------------------------------------|
D|-7-7-7-7-7-7-7-----9-9-9-9-9-----9---9-----x-|
A|-7-7-7-7-7-7-7-----9-9-9-9-9-----9---9-----x-|
E|-5-5-5-5-5-5-5-0-0-7-7-7-7-7-0-0-7-0-7-0-0-x-|

Outro
e|-------------------------------|-----------------------------------------------|
B|-------------------------------|-----------------------------------------------|
G|9-9-9-9-9-9-9-9-9-9-9-9-9-9-9-9|13-13-13-13-13-13-13-13-13-13-13-13-13-13-13-13|
D|x-x-x-x-x-x-x-x-x-x-x-x-x-x-x-x|-x--x--x--x--x--x--x--x--x--x--x--x--x--x--x--x|
A|7-7-7-7-7-7-7-7-7-7-7-7-7-7-7-7|11-11-11-11-11-11-11-11-11-11-11-11-11-11-11-11|
E|-------------------------------|-----------------------------------------------|

E|-----------------------------------------------|--------------------------------|
B|-----------------------------------------------|--------------------------------|
G|13-13-13-13-13-13-13-13-13-13-13-13-13-13-13-13|14-14-14-14-14-14-14-14-14-14-14|
D|-x--x--x--x--x--x--x--x--x--x--x--x--x--x--x--x|-x--x--x--x--x--x--x--x--x--x--x|
A|11-11-11-11-11-11-11-11-11-11-11-11-11-11-11-11|12-12-12-12-12-12-12-12-12-12-12|
E|-----------------------------------------------|--------------------------------|

End
Guitar 1
e|----------------------------------------------------------------------------------|
B|----------------------------------------------------------------------------------|
G|----------------------------------------------------------------------------------|
D|-2~~----------2-2----------2~~----------2-2----------2~~----------2-2----------2~-|
A|-2~~----------2-2----------2~~----------2-2----------2~~----------2-2----------2~-|
E|-0~~----------0-0----------0~~----------0-0----------0~~----------0-0----------0~-|

Guitar 2
e|--------------------------------------------------------------------------------|
B|--------------------------------------------------------------------------------|
G|-----9-9-9-9-9----9-9-9-9-9----9-9-9-9-9----9-9-9-9-9----9-9-9-9-9----9-9-9-9-9-|
D|-----x-x-x-x-x----x-x-x-x-x----x-x-x-x-x----x-x-x-x-x----x-x-x-x-x----x-x-x-x-x-|
A|-----7-7-7-7-7----7-7-7-7-7----7-7-7-7-7----7-7-7-7-7----7-7-7-7-7----7-7-7-7-7-|
E|--------------------------------------------------------------------------------|

Order

Intro
Verse
Verse 2
Pre Chorus
Chorus
Midtro
Interlude
Bridge
Chorus
Outro x2
End


Lyrics 

(Intro)
No body likes you
Everyone left you
They're all out without you
Having fun

(Verse)
Where have all the bastards gone?
The underbelly stacks up ten high
The dummy failed the crash test
Collecting unemployment checks
(Like a) flunky only along for the ride

(Verse 2)
Where have all the riots gone?
As the City's motto gets pulverized
What's in love is now in debt
On your birth certificate
So strike the fucking match to light this fuse

(Pre Chorus)
The town bishop is an extortionist
And he don't even know that you exist
Standin' still when it's do or die
You better run for your fucking life

(Chorus)
It's not over 'till you're underground
It's not over before it's too late
This city's burning - It's not my burden
It's not hope before it's too late
There is nothing left to analyse

(Midtro))
Where will all the martyrs go when the virus cures itself?
And where we will all go when it's too late

(Interlude)
Well don't look back

(Bridge)
You're not the Jesus of Suburbia
That St. Jimmy is a figment of
Your father's rage and your mother's love
That's made the idiot America

(Chorus)
It's not over till you're underground
It's not hope before it's too late
This city's burning.  It's not my burden
It's not hope before it's too late

(Outro)
She said I can't take this place
I'm leaving it behind
Well she said I can't take this town 
I'm leaving you tonight

(End)

---------------------------------------------------------------------------------
Green Day Wake me up when September ends
---------------------------------------------------------------------------------
Intro
e|--------------|--------------|--------------|--------------|
B|-----3------3-|-----3------3-|-----3------3-|-----3------3-|
G|-0-0----0-0---|-0-0----0-0---|-0-0----0-0---|-0-0----0-0---|
D|--------------|--------------|--------------|--------------|
A|--------------|--------------|--------------|--------------|
E|--------------|--------------|--------------|--------------|

Verse
e|--------------|-------------|-------------|------------|
B|-----3------3-|-----3-----3-|-----3-----3-|-----3----3-|
G|-0-0----0-0---|---0-----0---|---0-----0---|---0----0---|
D|--------------|-4-----4-----|-2-----2-----|-0----0-----|
A|--------------|-------------|-------------|------------|
E|--------------|-------------|-------------|------------|

                                                            1_________2_______
e|---------------|---------------|--------------------------|--------|--------|
B|----5------5---|----4------4---|-----3------3--------3----|----3---|----3---|
G|----5-5----5-5-|----5-5----5-5-|-----0-0----0-0------0-0--|----0-0-|----0-0-|
D|--5-------5----|--5------5-----|---0------0--------0------|--0-----|--0-----|
A|-3------3------|-3------3------|--------------------------|--------|--------|
E|---------------|---------------|-3-------3-------3--------|3-------|2-------|

Chorus
e|----------------|----------------|----------------|-------------------|
B|-----0------0---|-----3------3---|-----5------5---|-----3---------3-0-|
G|-----0-0----0---|-----4-4----4-4-|-----5-5----5-5-|-----0-0-------0---|
D|--------------0-|---4------------|---5------------|---0---------0-----|
A|---2------------|-2--------2-----|-3--------3-----|-------------------|
E|-0--------0-----|----------------|----------------|-3---------2-------|

e|----------------|----------------|----------------|-------------------|
B|-----0------0---|-----3------3---|-----5------5---|-----7------7------|
G|-----0-0----0---|-----4-4----4---|-----5-5----5--5|-----7-7----7--7-0-|
D|--------------0-|---4-----------4|---5------------|---7---------------|
A|---2------------|-2--------2-----|-3--------3-----|-5--------5--------|
E|-0--------0-----|----------------|----------------|-------------------|

Verse 3
e|--------------|-------------|-------------|------------|
B|-----3------3-|-----3-----3-|-----3-----3-|-----3----3-|
G|-0-0----0-0---|---0-----0---|---0-----0---|---0----0---|
D|--------------|-4-----4-----|-2-----2-----|-0----0-----|
A|--------------|-------------|-------------|------------|
E|--------------|-------------|-------------|------------|

e|----------------------------------|---------------------------------|
B|------------------4-4-4-4-4-4-4-4-|---------------------------------|
G|-5-5-5-5-5-5-5-5--5-5-5-5-5-5-5-5-|---------------------------------|
D|-5-5-5-5-5-5-5-5--5-5-5-5-5-5-5-5-|-5-5-5-5-5-5-5-5-5-5-5-5-5-5-5-5-|
A|-3-3-3-3-3-3-3-3--3-3-3-3-3-3-3-3-|-5-5-5-5-5-5-5-5-5-5-5-5-5-5-5-5-|
E|----------------------------------|-3-3-3-3-3-3-3-3-3-3-3-3-3-3-3-3-|

Verse 3 part 2
e|--------------|-------------|-------------|------------|
B|-----3------3-|-----3-----3-|-----3-----3-|-----3----3-|
G|-0-0----0-0---|---0-----0---|---0-----0---|---0----0---|
D|--------------|-4-----4-----|-2-----2-----|-0----0-----|
A|--------------|-------------|-------------|------------|
E|--------------|-------------|-------------|------------|

e|----------------------------------|----------------------------------|
B|------------------4-4-4-4-4-4-4-4-|----------------------------------|
G|-5-5-5-5-5-5-5-5--5-5-5-5-5-5-5-5-|----------------------------------|
D|-5-5-5-5-5-5-5-5--5-5-5-5-5-5-5-5-|-5-5-5-5-5-5-5-5-5-5-5-5----------|
A|-3-3-3-3-3-3-3-3--3-3-3-3-3-3-3-3-|-5-5-5-5-5-5-5-5-5-5-5-5--5-5-5-5-|
E|----------------------------------|-3-3-3-3-3-3-3-3-3-3-3-3--2-2-2-2-|

Chorus
e|---------------------------------------------------------------------|
B|------------------4-4-4-4-4-4-4-4------------------------------------|
G|------------------4-4-4-4-4-4-4-4--5-5-5-5-5-5-5-5-------------------|
D|-2-2-2-2-2-2-2-2--4-4-4-4-4-4-4-4--5-5-5-5-5-5-5-5--5-5-5-5--4-4-4-4-|
A|-2-2-2-2-2-2-2-2--2-2-2-2-2-2-2-2--3-3-3-3-3-3-3-3--5-5-5-5--4-4-4-4-|
E|-0-0-0-0-0-0-0-0------------------------------------3-3-3-3--2-2-2-2-|

e|--------------------------------------------------------------------|
B|------------------4-4-4-4-4-4-4-4-----------------------------------|
G|------------------4-4-4-4-4-4-4-4--5-5-5-5-5-5-5-5--7-7-7-7-7-7-7-7-|
D|-2-2-2-2-2-2-2-2--4-4-4-4-4-4-4-4--5-5-5-5-5-5-5-5--7-7-7-7-7-7-7-7-|
A|-2-2-2-2-2-2-2-2--2-2-2-2-2-2-2-2--3-3-3-3-3-3-3-3--5-5-5-5-5-5-5-5-|
E|-0-0-0-0-0-0-0-0----------------------------------------------------|

Solo
e|-----7-----7---7|-----7-----7---7|-----8------8---8|-10----10---10-10-10-10-|
B|-8-8---8-8---8--|-7-7---7-7---7--|-8-8----8-8---8--|--8--8--8-8--7--7--7--7-|
G|----------------|----------------|-----------------|------------------------|
D|----------------|----------------|-----------------|------------------------|
A|----------------|----------------|-----------------|------------------------|
E|----------------|----------------|-----------------|------------------------|

e|-----7-----7---7|-----7-----7---7|-----8------8---8|-10-10-10-10-10-10-10-10|
B|-8-8---8-8---8--|-7-7---7-7---7--|-8-8----8-8---8--|--8--8--8--8--8--8--8--8|
G|----------------|----------------|-----------------|------------------------|
D|----------------|----------------|-----------------|------------------------|
A|----------------|----------------|-----------------|------------------------|
E|----------------|----------------|-----------------|------------------------|

e|-10-10-10-10-10-10-10-10-|-10-10-10-10-10-10-10-10-|-10-10-10-10-10-10-10-10-|
B|--7--7--7--7--7--7--7--7-|--7--7--7--7--7--7--7--7-|--8--8--8--8--8--8--8--8-|
G|-------------------------|-------------------------|-------------------------|
D|-------------------------|-------------------------|-------------------------|
A|-------------------------|-------------------------|-------------------------|
E|-------------------------|-------------------------|-------------------------|

Outro
e|--------------------------------------------------------------------|
B|------------------4-4-4-4-4-4-4-4-----------------------------------|
G|-5-5-5-5-5-5-5-5--5-5-5-5-5-5-5-5-----------------------------------|
D|-5-5-5-5-5-5-5-5--5-5-5-5-5-5-5-5--5-5-5-5-5-5-5-5--5-5-5-5-5-5-5-5-|
A|-3-3-3-3-3-3-3-3--3-3-3-3-3-3-3-3--5-5-5-5-5-5-5-5--5-5-5-5-5-5-5-5-|
E|-----------------------------------3-3-3-3-3-3-3-3--3-3-3-3-3-3-3-3-|

e|------------------------------------------------------|
B|------------------4-4-4-4-4-4-4-4---------------------|
G|-5-5-5-5-5-5-5-5--5-5-5-5-5-5-5-5---------------------|
D|-5-5-5-5-5-5-5-5--5-5-5-5-5-5-5-5--5-5-5-5-5-5-5-5--5-|
A|-3-3-3-3-3-3-3-3--3-3-3-3-3-3-3-3--5-5-5-5-5-5-5-5--5-|
E|-----------------------------------3-3-3-3-3-3-3-3--3-|

Order

Intro
Verse x2
Chorus
Verse
Intro
Intro (electric guitar)
Verse 3
Verse 3 part 2
Chorus 2
Verse 3 part 2
Solo
Intro
Verse 3 x2
Outro

Lyrics

Summer has come and passed
The innocent can never last             
Wake me up when September ends
Like my fathers come to pass
Seven years has gone so fast            
Wake me up when September ends

Here comes the rain again
Falling from the stars                  
Drenched in my pain again
Becoming who we are

As my memory rests
But never forgets what I lost           
Wake me up when September ends

Summer has come and passed
The innocent can never last             
Wake me up when September ends

Ring out the bells again
Like we did when spring began           
Wake me up when September ends

Here comes the rain again
Falling from the stars                  
Drenched in my pain again
Becoming who we are

As my memory rests
But never forgets what I lost           
Wake me up when September ends

Summer has come and passed
The innocent can never last             
Wake me up when September ends

Like my fathers come to pass
Seven years has gone so fast            
Wake me up when September ends

Wake me up when September Ends
Wake me up when September Ends          
Wake me up when September Ends


--------------------------------------------------------------------------------------
Green Day Homecoming 
--------------------------------------------------------------------------------------

What the chord symbols represent
D:    xx0232
G:    320003
A:    x0222x
Asus: x0223x
--------------------------------------------------------------------------------------
I. Death of St.Jimmy
--------------------------------------------------------------------------------------

Intro
e|-------|
B|-----0-|
G|-----0-|
D|-----0-|
A|-------|
E|-12\---|

Verse
E|---------------|-2--------------|---------------|-2----------|-------|
B|-2----0--0-0---|-3----2~--2-x-x-|-2----0--0-0---|-3----2~--2-|-----0-|
G|-2----1--1-1---|-2----2~--2-x-x-|-2----1--1-1---|-2----2~--2-|-----0-|
D|-2----2--2-2---|-0----2~--2-x-x-|-2----2--2-2---|-0----2~--2-|-----0-|
A|-0----2----2---|---4--0~--0-x-x-|-0----2----2---|---4--0~--0-|-------|
E|----0-0------0-|----------------|----0-0------0-|------------|-12\---|

Verse part 2
e|---------------------------|---------------|---2--2--2--2------------2---------|
B|-0-0----0-0-0--2-2-2-2-2-2-|-0-0----0-0--0-|-2-3--3--3--3------2-2-x-3--2-x--0-|
G|-1-1----1-1-1--2-2-2-2-2-2-|-1-1----1-1--1-|-2-2--2--2--2------2-2-x-2--2-x--1-|
D|-2-2----2-2-2--2-2-2-2-2-2-|-2-2----2-2--2-|-2-0--0--0--0------2-2-x----2-x--2-|
A|-2-2----2-2-2--0-0-0-0-0-0-|-2-2----2-2--2-|-0------------0-0--0-0-x----0-x--2-|
E|-0-0-0--0-0-0--------------|-0-0-0--0-0--0-|---------------------------------0-|

Interlude 
E|-----------0--|------------------0-----------|
B|-2----3----0--|--2----3---2---3--0-----------|
G|-2----2----1--|--2----2---2---2--1-----------|
D|-2----0----2--|--2----0---2---0--1-----------|
A|-0---------2--|--0--------0------2-----------|
E|-----------0--|------------------0----12\1p0-|

Verse 2 (the rest of the band enter here)
e|---------------------0-0-0-0---|--------------------0--0-0-0-----|
B|-2--2--2--2----3-----0-0-0-0---|-2--2-----3-2-3-----0--0-0-0-----|
G|-2--2--2--2----2-----1-1-1-1---|-2--2-----2-2-2-----1--1-1-1-----|
D|-2--2--2--2----0-----2-2-2-2---|-2--2-----0-2-0-----2--2-2-2-----|
A|-0--0--0--0--0-------2-2-2-2-0-|-0--0--0----0-------2--2-2-2--0--|
E|------------------0--0-0-0-0---|-----------------0--0--0-0-0-----|

Chorus 
e|------------------------------|----------------------------|
B|------------------------------|----------------------------|
G|------------------2-2-2-2-2-2-|-----------------2-2-2-2-2-2|
D|-4-4-4-4--4-4--2--2-2-2-2-2-2-|-4-4-4-4-4-4--2--2-2-2-2-2-2|
A|-4-4-4-4--4-4--2--0-0-0-0-0-0-|-4-4-4-4-4-4--2--0-0-0-0-0-0|
E|-2-2-2-2--2-2--0--------------|-2-2-2-2-2-2--0-------------|

Chorus part 2
e|----------------------|-2-2-2-2-2-2---------|--------------------------|
B|----------------------|-3-3-3-3-3-3--2-2-2-2|---------------0-2-2-2---3|
G|---------------2-2-2-2|-2-2-2-2-2-2--2-2-2-2|-9-9-9-9-9-----0-2-2-2---2|
D|4-4-4-4--4-4-2-2-2-2-2|-0-0-0-0-0-0--2-2-2-2|-9-9-9-9-9-----0-2-2-2---0|
A|4-4-4-4--4-4-2-0-0-0-0|--------------0-0-0-0|-7-7-7-7-7-----0-0-0-0-0--|
E|2-2-2-2--2-2-0--------|---------------------|-0-0-0-0-0—12\------------|

Chorus part 3
e|----------------------|-2-2-2-2-2--2---------|-----------------------|
B|----------------------|-3-3-3-3-3--3--2-2-x-x|-----------------------|
G|---------------2-2-2-2|-2-2-2-2-2--2--2-2-x-x|-9-9-9-9---------------|
D|4-4-4-4--4-4-2-2-2-2-2|-0-0-0-0-0--0--2-2-x-x|-9-9-9-9---------------|
A|4-4-4-4--4-4-2-0-0-0-0|---------------0-0-x-x|-7-7-7-7--x-x-x-x-x-x--|
E|2-2-2-2--2-2-0--------|----------------------|-0-0-0-0-—x-x-x-x-x-x--|

Order

Intro
Verse x3
Verse part 2 
Interlude
Verse 2 x5
Chorus
Chorus part 2
Verse 2 x3
Chorus
Chorus part 3

Lyrics

(Verse)
My heart is beating from me
I am standing all alone 
Please call me only 
If you are coming come                          
Waste another year flies by                     
Waste a night or two 
You taught me how to live                       

(Verse 2)
In the streets of shame
Where you've lost your dreams in the rain       
There's no signs of hope
The stems and seeds of the last of the dope
There's a glow of light
The St. Jimmy is the spark in the night         
Bearing gifts and trust
The fixture in the city of lust

(Chorus)
What the hell's your name
Whats your pleasure what is your pain?          
Do you dream to much?
Do you think what you need is a crutch

(Verse 2)
In the crowd of pain 
St. Jimmy comes without any shame              
He says "We're fucked up," but we're not the same
And mom and dad are the ones you can blame

(Chorus)
Jimmy died today
He blew out his brains into the bay             
In the state of mind 
It's my own private suicide

--------------------------------------------------------------------------------------
II. East 12th street (2.25)
--------------------------------------------------------------------------------------

Intro
e|----------------|---------------|---------------|---------------|---------|
B|----------------|---------------|---------------|---------------|---------|
G|-----7----------|----7----------|----7----------|----7----------|---------|
D|--7--7--7--5--7-|-7--7--7--5--7-|-7--7--7--5--7-|-7--7--7--5--7-|-x-x-x-x-| x3
A|--7--5--7--5--7-|-7--5--7--5--7-|-7--5--7--5--7-|-7--5--7--5--7-|-x-x-x-x-|
E|--5-----5--3--5-|-5-----5--3--5-|-5-----5--3--5-|-5-----5--3--5-|-x-x-x-x-|


Verse

D                G         D         
Jesus filling out paper work now	

G                A      Asus   A
 At the facility on east 12th street

D                 G        D         
He’s not listening to a word now	

G                         A       Asus   A
 He’s in his own world and he’s daydreaming

D                  G             D           
He’d rather be doing somethin else now 

      G                             A   Asus  A
Like cigarettes and coffee with the under belly

    D                   G      D     
His life’s one line with anxiety now 

G                 A     Asus   A
She had enough and he had plenty

Bridge
Acoustic               |Electric
e|-2-2-2-2--3--2--0--2-|---------------------|
B|-3-3-3-3--3--3--3--3-|---------------------|
G|-2-2-2-2--3--2-----2-|-7-7-7-7-----------7-|
D|-0-0-0-0--0--0-----0-|-7-7-7-7--7--5--7--7-|x4
A|---------------------|-5-5-5-5--7--5--7--5-|
E|---------------------|----------5--3--5----|

Chorus
e|----------------------------------|----------------------------------|
B|----------------------------------|----------------------------------|
G|-5-5-5-5-5-5-5-5------------------|-5-5-5-5-5-5-5-5------------------|
D|-5-5-5-5-5-5-5-5--7-7-7-7-7-7-7-7-|-5-5-5-5-5-5-5-5--7-7-7-7-7-7-7-7-| x2
A|-3-3-3-3-3-3-3-3--7-7-7-7-7-7-7-7-|-3-3-3-3-3-3-3-3--7-7-7-7-7-7-7-7-|
E|------------------5-5-5-5-5-5-5-5-|------------------5-5-5-5-5-5-5-5-|

Outro
Guitar 1
e|------------------------------------------------------------------------|
B|------------------------------------------------------------------------|
G|-5-5-5-5-----------5-5-5-5-----------5-5-5-5-----------5-5-5-5----------|
D|-5-5-5-5--7-7-7-7--5-5-5-5--7-7-7-7--5-5-5-5--7-7-7-7--5-5-5-5--7-7-7-7-|
A|-3-3-3-3--7-7-7-7--3-3-3-3--7-7-7-7--3-3-3-3--7-7-7-7--3-3-3-3--7-7-7-7-|
E|----------5-5-5-5-----------5-5-5-5-----------5-5-5-5-----------5-5-5-5-|

Guitar 2
e|--------5--------------9---------------5------------------9--------------|
B|-5--------------5--------------5-----------------5-----------------------|
G|-------------------------------------------------------------------------|
D|-------------------------------------------------------------------------|
A|-------------------------------------------------------------------------|
E|-------------------------------------------------------------------------|

Outro part 2
e|------------------------------|--------------------|
B|------------------------------|------------------7-|
G|-7------5---------------------|--7--7--7---------7-|
D|-7------5------5------7-------|--7--7--7---------7-|
A|-5-/17\-3-/15\-5------7-------|--5--5--5---5--7--5-|
E|---------------3-/15\-5-/17\--|------------3--5----|

Order

Intro
Verse
Bridge
Chorus
Outro

Lyrics:

(Intro)
Well nobody cares
Well nobody cares                               
Does anyone care 
If nobody cares?

Well nobody cares
Well nobody cares                               
Does anyone care 
If nobody cares?


(Verse)
Jesus filling out paperwork now
At the facility on East 12th Street
He's not listenin to a word now
He's in his own world and he's daydreaming
He'd rather be doing something else now
Cigarettes and coffee with the underbelly
His life's on the line with anxiety now
And she had enough and he had plenty 

(Post-Verse)
Somebody get me out of here
Anybody get me out of here                      
Somebody get me out of here
Get me the fuck right out of here


(Chorus)
So far away
I don't wanna’ stay
Get me out of here right now
I just wanna’ be free
Is there a responsibility?
Get me out of here right now

(Outro)
Ahh ohh                               
Ahh ohh                                        
Ahh ohh
Ahh ohh

(Outro part 2)
This life like dream ain't for me    


--------------------------------------------------------------------------------------
III. Nobody likes you (4.02)
--------------------------------------------------------------------------------------
to everyone out there who tabs this wrong –shame on you!!!! I don’t think there are any
decent tabbers out there anymore! Guitar just plays the one D chord throughout the whole
song! And bass plays the root notes that you can hear! All tabbers suck at this song!

Guitar
E|--2--| just repeat this throughout the whole song
B|--3--| soak it in reverb and possibly add a
G|--2--| ‘room reverb’ effect to it
D|--0--|
A|-----|
E|-----|

Bass
Verse 
G|---------------------------------------------------|
D|---------------------------------------------------|
A|-5-5-5-5-5-5---------------------------------------|
E|-------------5-5-5-5-5-5--3-3-3-3-3-3--5-5-5-5-5-5-|
PM *************************************************

Pre Chorus
G|---------------------------------------------------|
D|---------------------------------------------------|
A|-2-2-2-2-2-2---------------------------5-5-5-5-5-5-|
E|--------------5-5-5-5-5-5--3-3-3-3-3-3-------------|
PM *************************************************

G|---------------------------------------------------|
D|---------------------------------------------------|
A|-2-2-2-2-2-2--4-4-4-4-4-4--5-5-5-5-5-5-------------|
E|---------------------------------------5-5-5-5-5-5-|
PM *************************************************

Chorus
G|---------------------------------------------------------------------------|
D|---------------------------------------------------------------------------|
A|-5-5-5-5-5-5---------------------------------------5-5-5-5-5-5-------------|
E|-------------5-5-5-5-5-5--3-3-3-3-3-3--5-5-5-5-5-5-------------5-5-5-5-5-5-|
PM *************************************************************************

G|--------------------------|
D|--------------------------|
A|--------------------------|
E|-3-3-3-3-3-3--5-5-5-5-5-5-|
PM ************************

Order

Verse x4
Pre Chorus
Chorus x2

(Verse 1)
I fell asleep while watching Spike TV
After 10 cups of coffee 
And your still not here
Dreaming of a song
But something went wrong
And you can't tell anyone
Cos no one's here

(Pre-Chorus)
Left me here alone
And I should've stayed home
After 10 cups of coffee
I'm thinking 
Where'd you go?

(Chorus)
Nobody likes you
Everyone left you  (Where'd you go?) 
They're all out without you
Havin' fun (Where'd you go?)
Everyone left you
Nobody likes you  (Where'd you go?)
They're all out without you
Havin' fun 

Where'd you go, go, go, go?

--------------------------------------------------------------------------------------
IV. Rock and Roll girlfriend (5.23)
--------------------------------------------------------------------------------------
Tre wrote and on the recording played the drums for it and lead guitar, and he sings it.
Im not sure who plays the piano on this track but I think its Jason something.

Intro
e|--------------------------------------------|
B|-----------------------------------------0--|
G|--7-7--7~----9-9--9~---------------------0--|
D|--7-7--7~----9-9--9~-----(Drum break)----0--|
A|--5-5--5~----7-7--7~------------------------|
E|-------------0-0--0~------------------------|
Verse
e|------------------------------------------------------------------------------|
B|------------------------------------------------------------------------------|
G|--------------------------7-7-7-7-7-7-7-7-7-7-7-7-7---------------------------|
D|-7-7-7-7-7-7-7-7-7-7-7-7--7-7-7-7-7-7-7-7-7-7-7-7-7--7-7-7-7-7-7-7-7-7-7-7-7-7|
A|-7-7-7-7-7-7-7-7-7-7-7-7--5-5-5-5-5-5-5-5-5-5-5-5-5--7-7-7-7-7-7-7-7-7-7-7-7-7|
E|-5-5-5-5-5-5-5-5-5-5-5-5-----------------------------5-5-5-5-5-5-5-5-5-5-5-5-5|

e|-------------------------|
B|-------------------------|
G|-9-9-9-9-9-9-9-9-9-9-9-9-|
D|-9-9-9-9-9-9-9-9-9-9-9-9-|
A|-7-7-7-7-7-7-7-7-7-7-7-7-|
E|-------------------------|

Solo (this is played on the second repeat of the verse) 
e|----------12-----------12-----------|
B|-------12-----------12--------------| bu means bend up a whole step
G|-14bu---------14bu--------13-14~~~~-|
D|------------------------------------|
A|------------------------------------|
E|------------------------------------|

Outro
e|----------------------------------------------------------|
B|----------------------------------------------------------|
G|----------------------------------------------------------|
D|-5--7--5--7----5--7--5--7----5--7--5--7-----5~--7~--5~--7-|
A|-5--7--5--7----5--7--5--7----5--7--5--7-----5~--7~--5~--7-|
E|-3--5--3--5----3--5--3--5----3--5--3--5-----3~--5~--3~--5-|

Order

Intro
Verse x3
Outro

Lyrics

(Verse 1)
I got a rock and roll band
I got a rock and roll life              
I got a rock and roll girlfriend
And another ex-wife

I got a rock and roll house
I got a rock and roll car               
I play the shit out the drums
And I can play the guitar

I got a kid in New York
I got a kid in the bay                  
I haven't drank or smoked nothing
In over 22 days

(Outro)
So get off my case
Off of my case                          
Off of my case


--------------------------------------------------------------------------------------
V. We're Coming Home Again (6.06)
--------------------------------------------------------------------------------------
Most tabbers overlook the second guitar input here but it sounds so kwl when you do it
so do it guys!!!!

Intro
Guitar 1
e|---------------------------------------|---------------------------------------|
B|---------------------------------------|---------------------------------------|
G|-7-7-x-x-x--7-7-x-x-x----------------7-|-7-7-x-x-x--7-7-x-x-x----------------7-|
D|-7-7-x-x-x--7-7-x-x-x--9-9-9-9--5--7-7-|-7-7-x-x-x--7-7-x-x-x--9-9-9-9--5--7-7-|
A|-5-5-x-x-x--5-5-x-x-x--9-9-9-9--5--7-5-|-5-5-x-x-x--5-5-x-x-x--9-9-9-9--5--7-5-|
E|-----------------------7-7-7-7--3--5---|-----------------------7-7-7-7--3--5---|

Guitar 2
e|---------------------------------------|---------------------------------------|
B|---------------------------------------|---------------------------------------|
G|-------------------------------------7-|-------------------------------------7-|
D|--------------------------------5--7-7-|--------------------------------5--7-7-|
A|--------------------------------5--7-5-|--------------------------------5--7-5-|
E|--------------------------------3--5---|--------------------------------3--5---|

Guitar 1
e|---------------------------------------|---------------------------------------|
B|---------------------------------------|---------------------------------------|
G|-7-7-x-x-x--7-7-x-x-x----------------7-|-7-7-x-x-x--7-7-x-x-x----------------7-|
D|-7-7-x-x-x--7-7-x-x-x--9-9-9-9--5--7-7-|-7-7-x-x-x--7-7-x-x-x--9-9-9-9--5--7-7-|
A|-5-5-x-x-x--5-5-x-x-x--9-9-9-9--5--7-5-|-5-5-x-x-x--5-5-x-x-x--9-9-9-9--5--7-5-|
E|-----------------------7-7-7-7--3--5---|-----------------------7-7-7-7--3--5---|

Guitar 2
e|---------------------------------------|---------------------------------------|
B|---------------------------------------|---------------------------------------|
G|-7-7-x-x-x--7-7-x-x-x----------------7-|-7-7-x-x-x--7-7-x-x-x----------------7-|
D|-7-7-x-x-x--7-7-x-x-x--9-9-9-9--5--7-7-|-7-7-x-x-x--7-7-x-x-x--9-9-9-9--5--7-7-|
A|-5-5-x-x-x--5-5-x-x-x--9-9-9-9--5--7-5-|-5-5-x-x-x--5-5-x-x-x--9-9-9-9--5--7-5-|
E|-----------------------7-7-7-7--3--5---|-----------------------7-7-7-7--3--5---|


Verse
Guitar 1 (clean)
e|-2-2-2-3-----------2-2-2-2-------3---|-2-2-2-3-----------2-2-2-2-------3---|
B|-3-3-3-3--3-3-3-3--3-3-3-3--3-3--0-2-|-3-3-3-3--3-3-3-3--3-3-3-3--3-3--0-2-|
G|-2-2-2-2--4-4-4-4--2-2-2-2--4-4--0-2-|-2-2-2-2--4-4-4-4--2-2-2-2--4-4--0-2-|
D|-0-0-0-0--4-4-4-4--0-0-0-0--4-4--0-2-|-0-0-0-0--4-4-4-4--0-0-0-0--4-4--0-2-|
A|----------2-2-2-2-----------2-2--2-0-|----------2-2-2-2-----------2-2--2-0-|
E|---------------------------------3---|---------------------------------3---|

Guitar 2 (electric)
e|-------------------------------------|-------------------------------------|
B|-------------------------------------|-------------------------------------|
G|-------------------------------------|-----------------------------------2-|
D|-------------------------------------|---------------------------------5-2-|
A|-------------------------------------|---------------------------------5-0-|
E|-------------------------------------|---------------------------------3---|

Guitar 1 (clean)
e|-2-2-2-3-----------2-2-2-2-------3---|-2-2-2-3-----------3-3-3-3--------3---|
B|-3-3-3-3--3-3-3-3--3-3-3-3--3-3--0-2-|-3-3-3-3--3-3-3-3--0-0-0-0--2-2---3-2-|
G|-2-2-2-2--4-4-4-4--2-2-2-2--4-4--0-2-|-2-2-2-2--4-4-4-4--0-0-0-0--2-2---2-2-|
D|-0-0-0-0--4-4-4-4--0-0-0-0--4-4--0-2-|-0-0-0-0--4-4-4-4--0-0-0-0--2-2---0-2-|
A|----------2-2-2-2-----------2-2--2-0-|----------2-2-2-2--2-2-2-2--0-0-----0-|
E|---------------------------------3---|-------------------3-3-3-3------------|

Guitar 2 (electric)
e|-------------------------------------|--------------------------------------|
B|-------------------------------------|--------------------------------------|
G|-------------------------------------|-----------------------------------7--|
D|-------------------------------------|-----------------------------------7-7|
A|-------------------------------------|-----------------------------------5-7|
E|-------------------------------------|-------------------------------10\---5|

Pre Chorus
Guitar 2 (no guitar 1 in this part)
e|-------------------------------------------|-----------------------|
B|---------------------------------------7---|-----------------------|
G|-4--4-4-4---6--6-6-6-6--4--4-4-4--6-6--7-6-|-4--4-4-4---6--6-6-6-6-|
D|-5--5-5-5---7--7-7-7-7--5--5-5-5--7-7--7-7-|-5--5-5-5---7--7-7-7-7-|
A|-5--5-5-5---7--7-7-7-7--5--5-5-5--7-7--5-7-|-5--5-5-5---7--7-7-7-7-|
E|-3--3-3-3---5--5-5-5-5--3--3-3-3--5-5----5-|-3--3-3-3---5--5-5-5-5-|

e|----------------------------------------------------------------------------------|
B|-------------------------------7-7-----------------------7-7----------------------|
G|-9-9-9-9-9-9-------------------7-7-4-4--6-6-6-6-6-6-6-6--7-7-4-4--6-6-6-6-6-6-6-6-|
D|-9-9-9-9-9-9--9-9-9-9-9-9-9-9--7-7-5-5--7-7-7-7-7-7-7-7--7-7-5-5--7-7-7-7-7-7-7-7-|
A|-7-7-7-7-7-7--9-9-9-9-9-9-9-9--5-5-5-5--7-7-7-7-7-7-7-7--5-5-5-5--7-7-7-7-7-7-7-7-|
E|--------------7-7-7-7-7-7-7-7------3-3--5-5-5-5-5-5-5-5------3-3--5-5-5-5-5-5-5-5-|

e|---------------------------------------0~--|
B|---------------------------------------2~--|
G|-4-4-4-4-4-4-4-4-4-4--6-6-6-6--4--6----3~--|
D|-5-5-5-5-5-5-5-5-5-5--7-7-7-7--5--7----2~--|
A|-5-5-5-5-5-5-5-5-5-5--7-7-7-7--5--7----0~--|
E|-3-3-3-3-3-3-3-3-3-3--5-5-5-5--3--5--------|

Chorus (pick slides played a lot in the background as well)
Guitar 1 only till otherwise stated
e|-2-------------|---------------|---------------|--------------|
B|-3-------------|---------------|-2-------------|--------------|
G|-2-------------|---------------|-2-------------|--------------|
D|-0-------------|---------------|-2-------------|--------------| x2 
A|---------------|---------------|-0-------------|--------------|
E|---------------|---------------|---------------|--------------|
  Home__________     we’re coming home_________ a__gain

Chorus continued
e|-3-------------------|-----------------------2----------------------------|
B|-3-------------------|-----------------------3----------------------------|
G|-0-------------------|-----------------------2----------------------------|
D|-0-------------------|-----------------------0----------------------------|
A|-2-------------------|----------------------------------------------------|
E|-3-------------------|----------------------------------------------------|
       I started fuckin running as soon as my feet touched ground_______

e|-3-------------------|--------------------------------------------------------|
B|-3-------------------|-------------------------------2------------------------|
G|-0-------------------|-------------------------------2------------------------|
D|-0-------------------|-------------------------------2------------------------|
A|-2-------------------|-------------------------------0------------------------|
E|-3-------------------|--------------------------------------------------------|
       We’re back in the bar-ri – o____ and to you and me  that’s jingle town that’s

Post Chorus
e|-2-------------|---------------|---------------|--------------|
B|-3-------------|---------------|-2-------------|--------------|
G|-2-------------|---------------|-2-------------|--------------|
D|-0-------------|---------------|-2-------------|--------------|
A|---------------|---------------|-0-------------|--------------|
E|---------------|---------------|---------------|--------------|
  Home__________     we’re coming home_________ a__gain

Interlude
Guitars 1 and 2
e|-2---2-2-2-2---2-2-2--2---2-2-2-2-2-2-2-2-2-------------------------------|
B|-3---3-3-3-3---3-3-3--3---3-3-3-3-3-3-3-3-3--2--2-2-2-2--2-2-2--2---2-2-2-|
G|-2---2-2-2-2---2-2-2--2---2-2-2-2-2-2-2-2-2--2--2-2-2-2--2-2-2--2---2-2-2-|
D|-0---0-0-0-0---0-0-0--0---0-0-0-0-0-0-0-0-0--2--2-2-2-2--2-2-2--2---2-2-2-|
A|---------------------------------------------0--0-0-0-0--0-0-0--0---0-0-0-|
E|--------------------------------------------------------------------------|

e|-3--3--3--3--3--3--|
B|-0--0--0--0--0--0--|
G|-0--0--0--0--0--0--|
D|-0--0--0--0--0--0--|
A|-2--2--2--2--2--2--|
E|-3--3--3--3--3--3--|

Interlude 2
Guitars 1 and 2
e|-2---2-2-2-2---2-2-2--2---2-2-2-2-2-2-2-2-2--------------------|-----------|
B|-3---3-3-3-3---3-3-3--3---3-3-3-3-3-3-3-3-3--2--2-2-2-2--2-2-2-|--3---3--3-|
G|-2---2-2-2-2---2-2-2--2---2-2-2-2-2-2-2-2-2--2--2-2-2-2--2-2-2-|--2---2--2-|
D|-0---0-0-0-0---0-0-0--0---0-0-0-0-0-0-0-0-0--2--2-2-2-2--2-2-2-|--0---0--0-|
A|---------------------------------------------0--0-0-0-0--0-0-0-|--x---x--x-|
E|---------------------------------------------------------------|--3---3--3-|

e|---------------------|
B|-3--3--3--3--3--3--3-|
G|-2--2--2--2--2--2--2-|
D|-0--0--0--0--0--0--0-|
A|-x--x--x--x--x--x--x-|
E|-3--3--3--3--3--3--3-|

Outro
Guitar 1 only
e|-2~--|
B|-3~--|
G|-2~--|
D|-0~--|
A|-----|
E|-----|


Order

Intro
Verse
Pre-Chorus
Chorus
Post Chorus x4
Interlude x3
Interlude 2
Outro


Lyrics

(Verse 1)
Here they come marching down the street
Like a desperation murmur of a heart beat       
Coming back from the edge of town
Underneath their feet

The time has come and it going nowhere
Nobody ever said that life was fair now         
Go-carts and guns are treasures they will bear
In the summer heat

(Pre-Chorus)
The world is spinning
Around and around                               
Out of control again
From the 7-11 to the fear of breaking down
So send my love a Letterbomb
And visit me in hell                           
We're the ones going...

(Chorus)
Home we’re coming home again
Home we’re coming home again
I started fuckin running 
As soon as my feet touched ground
We’re back in the barrio 
And to you and me that’s jingle town, that’s

(Post Chorus)
Home we’re coming home again
Home we’re coming home again
Home we’re coming home again
Home we’re coming home again

(Interlude)
Home we’re coming home again
Home we’re coming home again
Home we’re coming home again

(Interlude 2)
Home we’re coming home again
(Backing vocals ‘no fuck it just go, I don’t care – I don’t
I don’t care - I don’t, just go) 
(‘No fuck it just go, I don’t care – I don’t
I don’t care - I don’t, just go) 


(Outro)
No body likes you
Everyone left you
They're all out without you
Having fun

--------------------------------------------------------------------------------------
13. Whatsersname
--------------------------------------------------------------------------------------
Drop D tuning guys

Intro/Verse
E|------------------------------------------------------------------|
B|------------------------------------------------------------------|
G|------------------------------------------------------------------|
D|-7-7-7-7-7-7-7-7-7-7-7-7-7-7-7-7--4-4-4-4-4-4-4-4-4-4-4-4-4-4-4-4-|
A|-5-5-5-5-5-5-5-5-5-5-5-5-5-5-5-5--2-2-2-2-2-2-2-2-2-2-2-2-2-2-2-2-|
D|------------------------------------------------------------------|
PM ****************************************************************

Chorus
e|--------------------------------------------------------------------|
B|--------------------------------------------------------------------|
G|--------------------------------------------------------------------| x3 then
D|--------------------------------------------------------------------| play that
A|-5-5-5-5-5-5-5-5--0-0-0-0-0-0-0-0-4-4-4-4-4-4-4-4--9-9-9-9--7-7-7-7-| below
D|-5-5-5-5-5-5-5-5--0-0-0-0-0-0-0-0-4-4-4-4-4-4-4-4--9-9-9-9--7-7-7-7-|
PM *******************************************************************

e|----------------------------------|
B|----------------------------------|
G|----------------------------------|
D|----------------------------------|
A|-5-5-5-5-5-5-5-5--7-7-7-7-7-7-7-7-|
D|-5-5-5-5-5-5-5-5--7-7-7-7-7-7-7-7-|
PM ********************************

Fill 1 (with intro/Verse x2 played in the background)
e|--------------------------------|--------------------------------|
B|-3---5/7----3--------2---3---3--|-3---5/7----3--------2---3---3--|
G|-----------------4--------------|----------------4---------------|
D|--------------------------------|--------------------------------|
A|--------------------------------|--------------------------------|
D|--------------------------------|--------------------------------|

Verse 2
Guitar 1
e|------------------------------------------------------------------|
B|------------------------------------------------------------------|
G|------------------------------------------------------------------|
D|-7-7-7-7-7-7-7-7-7-7-7-7-7-7-7-7--4-4-4-4-4-4-4-4-4-4-4-4-4-4-4-4-|
A|-5-5-5-5-5-5-5-5-5-5-5-5-5-5-5-5--2-2-2-2-2-2-2-2-2-2-2-2-2-2-2-2-|
D|------------------------------------------------------------------|
PM ****************************************************************

Guitar 2
e|-10-------------------------------7-------------------------------|
B|-10-------------------------------7-------------------------------|
G|--7-------------------------------7-------------------------------|
D|--0-------------------------------9-------------------------------|
A|------------------------------------------------------------------|
D|------------------------------------------------------------------|

Guitar 1
e|------------------------------------------------------------------|
B|------------------------------------------------------------------|
G|------------------------------------------------------------------|
D|-7-7-7-7-7-7-7-7-7-7-7-7-7-7-7-7--4-4-4-4-4-4-4-4-4-4-4-4-4-4-4-4-|
A|-5-5-5-5-5-5-5-5-5-5-5-5-5-5-5-5--2-2-2-2-2-2-2-2-2-2-2-2-2-2-2-2-|
D|------------------------------------------------------------------|
PM ****************************************************************

Guitar 2
e|------------------------------------------------------------------|
B|--3-------------------------------3-------------------------------|
G|--2-------------------------------4-------------------------------|
D|--0-------------------------------4-------------------------------|
A|--0-------------------------------2-------------------------------|
D|--0---------------------------------------------------------------|

Chorus 2
Guitar 1
e|-----------------------------------------------------------------|
B|-----------------------------------------------------------------|
G|-----------------------------------------------------------------|
D|-----------------------------------------------------------------|
A|-5-5-5-5-5-5-5-5-0-0-0-0-0-0-0-0-4-4-4-4-4-4-4-4-9-9-9-9-7-7-7-7-|
D|-5-5-5-5-5-5-5-5-0-0-0-0-0-0-0-0-4-4-4-4-4-4-4-4-9-9-9-9-7-7-7-7-|\
PM ***************************************************************   \ 
									   x3 then
Guitar 2  								  /   play 
e|-----------------------------------------------------------------|/  that below  
B|-3---------------3-------------------------------3-------2-------|
G|-0---------------2-------------------------------4-------2-------|
D|-0---------------0---------------4---------------4-------2-------|
A|-x---------------0---------------4---------------2-------0-------|
D|-5---------------0---------------4-------------------------------|

Guitar 1
e|----------------------------------|
B|----------------------------------|
G|----------------------------------|
D|----------------------------------|
A|-5-5-5-5-5-5-5-5--7-7-7-7-7-7-7-7-|
D|-5-5-5-5-5-5-5-5--7-7-7-7-7-7-7-7-|
PM ********************************

Guitar 2
e|----------------------------------|
B|-3----------------2---------------|
G|-0----------------2---------------|
D|-0----------------2---------------|
A|-x----------------0---------------|
D|-5--------------------------------|

Fill 2 
e|--------------------------------------|----------------------------------|
B|--------------------------------------|----------------------------------|
G|-----6h7-----7-----6h7-----7------6h7-|-4-4-4-4-4-4-4-4-4-4-4-4-4-4-4-4--|
D|---7-----------7-------------7--------|-4-4-4-4-4-4-4-4-4-4-4-4-4-4-4-4--|
A|-5--------5------5------5------5------|-2-2-2-2-2-2-2-2-2-2-2-2-2-2-2-2--|
D|--------------------------------------|----------------------------------|

Solo (Rhythm)
e|-----------------------|---------------------|-----------------|-----------------|
B|-----------------------|---------------------|-----------------|-----------------|
G|-----------------------|---------------------|-----------------|-----------------|
D|-----------------------|---------------------|-----------------|-----------------|
A|-5--5--5--5--5--5--5--5|-0--0--0--0--0-0-0-0-|-4-4-4-4-4-4-4-4-|-9-9-9-9-7-7-7-7-|
D|-5--5--5--5--5--5--5--5|-0--0--0--0--0-0-0-0-|-4-4-4-4-4-4-4-4-|-9-9-9-9-7-7-7-7-|

Solo (Lead)
e|-10-10-10-9-9-10-10-10-|-10-10-10-9-9-10-9-5-|-6-6-6-6-6-9-6-6-|-7-7-7-7-9-7-9-10-|
B|--x--x--x-x-x--x--x--x-|--x--x--x-x-x--x-x-x-|-x-x-x-x-x-x-x-x-|-x-x-x-x-x-x-x--x-|
G|--7--7--7-6-6--7--7--7-|--7--7--7-6-6--7-6-2-|-3-3-3-3-3-6-3-3-|-4-4-4-4-6-4-6--7-|
D|-----------------------|---------------------|-----------------|------------------|
A|-----------------------|---------------------|-----------------|------------------|
D|-----------------------|---------------------|-----------------|------------------|

Bridge 1
e|--------------------------------------------------------------------|
B|--------------------------------------------------------------------|
G|--------------------------------------------------------------------|
D|--------------------------------------------------------------------|
A|-5-5-5-5-5-5-5-5--0-0-0-0-0-0-0-0--7-7-7-7-7-7-7-7--0-0-0-0-0-0-0-0-|
D|-5-5-5-5-5-5-5-5--0-0-0-0-0-0-0-0--7-7-7-7-7-7-7-7--0-0-0-0-0-0-0-0-|

Bridge 2
Guitar 1
e|-----------------|-----------------|-----------------|-----------------|
B|-----------------|-----------------|-----------------|-----------------|
G|-----------------|-----------------|-----------------|-----------------|
D|-----------------|-----------------|-----------------|-----------------|
A|-5-5-5-5-5-5-5-5-|-0-0-0-0-0-0-0-0-|-4-4-4-4-4-4-4-4-|-9-9-9-9-7-7-7-7-|
D|-5-5-5-5-5-5-5-5-|-0-0-0-0-0-0-0-0-|-4-4-4-4-4-4-4-4-|-9-9-9-9-7-7-7-7-|

Guitar 2
e|--10--10--10--10-|--10--10--10--10-|--10--10--10--10-|--10--10--10--10-|
B|---x---x---x---x-|---x---x---x---x-|---x---x---x---x-|---x---x---x---x-|
G|---7---7---7---7-|---7---7---7---7-|---7---7---7---7-|---7---7---7---7-|
D|-----------------|-----------------|-----------------|-----------------|
A|-----------------|-----------------|-----------------|-----------------|
D|-----------------|-----------------|-----------------|-----------------|

Interlude
Guitar 1
e|-----------------|-----------------|-----------------|-----------------|
B|-----------------|-----------------|-----------------|-----------------|
G|-----------------|-----------------|-----------------|-----------------|
D|-----------------|-----------------|-----------------|-----------------|
A|-----5-5-5-5-----|-----0-0-0-0-----|-----4-4-4-4-----|-9-9-9-9-7-7-7-7-|
D|-----5-5-5-5-----|-----0-0-0-0-----|-----4-4-4-4-----|-9-9-9-9-7-7-7-7-|

Guitar 2
e|-----------------|-----------------|-----------------|-----------------|
B|-----------------|-----------------|-----------------|-----------------|
G|----6h7----7-----|-6h7---7-----6h7-|----6h7----7-----|-----------------|
D|--7----------7---|---------7-------|--7----------7---|-----------------|
A|-5------5-----5--|----5-----5------|-5------5-----5--|-----------------|
D|-----------------|-----------------|-----------------|-----------------|

Pre outro
Guitar 1
e|-----------------|---------------------|   |----------------|------------|
B|-----------------|---------------------|   |----------------|------------|
G|-----------------|---------------------|   |----------------|------------|
D|-----------------|---------------------|x3 |----------------|------------|
A|-5-5-5-5-5-5-5-5-|-7-7-7-7-7-7-0-0-0-0-|   |-5-5-5-5-5-5-5-5|-7-7-7-7-7-7|
D|-5-5-5-5-5-5-5-5-|-7-7-7-7-7-7-0-0-0-0-|   |-5-5-5-5-5-5-5-5|-7-7-7-7-7-7|

Guitar 2
e|--10--10--10--10-|--10--10----10—------|   |--10--10--10--10|--10--10-10-|
B|---x---x---x---x-|---x---x-----x-------|   |---x---x---x---x|---x---x--x-|
G|---7---7---7---7-|---7---7-----7-------|   |---7---7---7---7|---7---7--7-|
D|-----------------|---------------------| x3|----------------|------------|
A|-----------------|---------------------|   |----------------|------------|
D|-----------------|---------------------|   |----------------|------------|

Outro
Guitar 1
e|------------------------------------------------------------------|
B|------------------------------------------------------------------|
G|------------------------------------------------------------------|
D|-7-7-7-7-7-7-7-7-7-7-7-7-7-7-7-7--4-4-4-4-4-4-4-4-4-4-4-4-4-4-4-4-|
A|-5-5-5-5-5-5-5-5-5-5-5-5-5-5-5-5--2-2-2-2-2-2-2-2-2-2-2-2-2-2-2-2-|
D|------------------------------------------------------------------|
PM ****************************************************************


Guitar 2 (plays nothing)

Guitar 1
e|---------------------------------------------------------------------|
B|---------------------------------------------------------------------|
G|---------------------------------------------------------------------|
D|-7-7-7-7-7-7-7-7-7-7-7-7-7-7-7-7--4-4-4-4-4-4-4-4-4-4-4-4-4-4-4-4----|
A|-5-5-5-5-5-5-5-5-5-5-5-5-5-5-5-5--2-2-2-2-2-2-2-2-2-2-2-2-2-2-2-2--0~|
D|-------------------------------------------------------------------0~|
PM ****************************************************************

Guitar 2
e|-----------------------------------------------------------------|
B|-3--------------5/7-------3---------------2------------3---------|
G|----------------------------------4------------------------------|
D|-----------------------------------------------------------------|
A|-----------------------------------------------------------------|
D|-----------------------------------------------------------------|


Order

Intro/ Verse x4
Chorus
Fill 1 (with intro/Verse x2 played in the background)
Verse 2
Chorus 2
Fill 2 x2
Solo (Rhythm) & (lead) x2
Bridge 1 x2
Bridge 2 x2
Interlude x2
Pre outro
Outro
Play intro (x2 and 2nd guitar comes in and plays fill 1 on part of it)

Lyrics:

(Intro/Verse)
Thought I ran onto you down on the street               
Then it turned out only to be a dream

(Chorus)
I made a point to burn all of the photographs
She went away and then I took a different path
I remember the face                                     
But I can’t recall the name
Now I wonder how whatsername has been

(Verse 2)
Seems that she disappeared with out a trace             
Did she ever marry old what's his face?

(Chorus 2)
I made a point to burn all of the photographs
She went away and took a different path
I remember the face                                     
But I can’t recall the name
Now I wonder how whatsername has been

(Fill 2))

(Bridge 1)
Remember, whatever
It seems like forever ago                               
Remember, whatever
It seems like forever ago
                                                        
(Bridge 2))
The regrets are useless   
In my mind
She's in my head                                        
The regrets are useless
In my mind
She's in my head

(Interlude)
Go... go... go...                                       
Go... go... go...               

(Pre-Outro)
And in the darkest night
If my memory serves me right                            
I'll never turn back time
Forgetting you, but not the time


There you go guys, hope its well liked? –Personally im very proud of myself! Just wish there
was someone here to congratulate me!! jus jokin Ah well. Comments so very welcome here and
please please rate this. Also finally i would like to say I feel very strongly in the accuracy
on these tabs, please comment on whether you agree or not.

Final completion date
28/10/05
 
37 comments total. Showing first comments.
0 reply
offspring_punk wrote on November 29 2004, 12:00 am

not bad but definately needs some work. for one thing on Boulevard of Broken Dreams the solo is in Octaves and you forgot the 2nd part to the outro where the 2nd guitar uses a wah effect. but ok tab other than that. and also remember...there are power chords on the a, d and g string :P

0 reply
Wasted-Youth wrote on December 5 2004, 12:00 am

its ok but nowhere near your dookie tab

0 reply
wEiRdDeHi wrote on December 13 2004, 12:00 am

it's great that u have all the tech-specs of the song and stuff but still needs some work; but i know your gonna work on it more soon. keep it up! ;)

I want to post or [tab]
guest
You may want to rate the tab now too:
select rating
Please do not post tabs as comments. Select "correction" instead!