Oops, an error
Loading. Please wait.

Bullet In A Bible Tab

ver1
ver1

Album

More versions @911Tabs.com
19,046 views 27 this week
12 commentsread comments
1 2 3 4 5
excellent!
x 7
Autoscroll
+/-
esc
set tempo
stop
Contributor
Hey! There's an official Ultimate Guitar app which is ideal
for learning songs when you're away from computer. Get the app
WARNING: You are trying to view
                                    content from Ultimate-Guitar.com
                                    in an unauthorized application,
                                    which is prohibited.

                                    Please use an official Ultimate
                                    Guitar Tabs application for iPhone,
                                    iPad or Android to access legitimate
                                    chords, guitar, bass, and drum tabs
                                    from Ultimate-Guitar.com database.

                                    Type "ultimate guitar tabs" in Apple
                                    App Store's or Android Market's
                                    search to find the application.
----------------------------------------------------------------------------------
Green Day
Bullet In A Bible
Guitar Tablature For The Entire Album
Tabbed By: guitar_player5
Tuning: Check Each Individual Song
E-mail Address: noodleman5@msn.com
----------------------------------------------------------------------------------|
----------------------------------------------------------------------------------|
This is the guitar tablature for all of the songs on 'Bullet in a Bible.'  I have
all of the additional stuff that the band through into the songs that night in Milton 
England.

I tabbed all of these songs while I was listening to the movie and not the Audio CD.
you can watch the movie and play along with the guys at the same time.  It sort of feels
you are playing in front of the 65,000 people that were in attendance that night.

If you plan on playing these songs along with the Audio CD, you will have some
 The Audio CD slightly differs from the DVD.  The Audio CD cuts out some of the parts 
are
on the DVD.  If you want me to fix the songs so that you can play with the CD, simply 
me and let me know.  I will get it to you as soon as possible.
----------------------------------------------------------------------------------|
----------------------------------------------------------------------------------|
Songs:
Track 1   American Idiot
Track 2   Jesus of Suburbia
	       I.   Jesus of Suburbia
	       II.  City of the Damned
	       III. I Don't Care
	       IV.  Dearly Beloved
	       V.   Tales of Another Broken Home
Track 3   Holiday
Track 4   Are We The Waiting
Track 5   St. Jimmy
Track 6   Longview
Track 7   Hitchin' A Ride
Track 8   Brain Stew
Track 9   Basket Case
Track 10  King For A Day/ Shout
Track 11  Wake Me Up When September Ends
Track 12  Minority
Track 13  Boulevard of Broken Dreams
Track 14  Good Riddance (Time of Your Life)
----------------------------------------------------------------------------------|
----------------------------------------------------------------------------------|
Green Day
American Idiot
----------------------------------------------------------------------------------
Guitar 1 - Billie Joe Armstrong (Standard Tuning)
Guitar 2 - Jason White          (Standard Tuning)

Intro: (Guitar 1 w/ EQ Filter Effect)
E|---------------------|
B|---------------------|
G|---------------------|
D|----xxxxxxxxxxxxxxx--|
A|----xxxxxxxxxxxxxxx--|
E|-0--xxxxxxxxxxxxxxx--|

E|----------------------------------------|
B|----------------------------------------|
G|----------6-6-6-----------6-------------|
D|-6-6-6----6-6-6----4-4----6----6----4---|
A|-6-6-6----4-4-4----4-4----4----6----4---|
E|-4-4-4-------------2-2---------4----2---|

Verse: (Guitar 1 & 2 w/ distortion)
E|------------------------------------0---|
B|------------------------------------0---|
G|----------6-6-6-----------6---------0---|
D|-6-6-6----6-6-6----4-4----6----6--------|
A|-6-6-6----4-4-4----4-4----4----6--------|
E|-4-4-4-------------2-2---------4--------|

E|----------------------------------------|
B|----------------------------------------|
G|----------6-6-6-----------6-------------|
D|-6-6-6----6-6-6----4-4----6----6----4---|
A|-6-6-6----4-4-4----4-4----4----6----4---|
E|-4-4-4-------------2-2---------4----2---|

E|------------------------------------0---|
B|------------------------------------0---|
G|----------6-6-6-----------6---------0---|
D|-6-6-6----6-6-6----4-4----6----6--------|
A|-6-6-6----4-4-4----4-4----4----6--------|
E|-4-4-4-------------2-2---------4--------|
(Pause For Lyrics)

E|----------------------------------------|
B|----------------------------------------|
G|----------6-6-6-----------6-------------|
D|-6-6-6----6-6-6----4-4----6----6----4---|
A|-6-6-6----4-4-4----4-4----4----6----4---|
E|-4-4-4-------------2-2---------4----2---|
(Pause For Lyrics)

E|------------------------------------0---|
B|------------------------------------0---|
G|----------6-6-6-----------6---------0---|
D|-6-6-6----6-6-6----4-4----6----6--------|
A|-6-6-6----4-4-4----4-4----4----6--------|
E|-4-4-4-------------2-2---------4--------|
(Pause For Lyrics)

E|----------------------------------------|
B|----------------------------------------|
G|----------6-6-6-----------6-------------|
D|-6-6-6----6-6-6----4-4----6----6----4---|
A|-6-6-6----4-4-4----4-4----4----6----4---|
E|-4-4-4-------------2-2---------4----2---|
(Pause For Lyrics)

E|----------------------------------------|
B|----------------------------------------|
G|----------6-6-6-----------6-------------|
D|-6-6-6----6-6-6----4-4----6----6----4---|
A|-6-6-6----4-4-4----4-4----4----6----4---|
E|-4-4-4-------------2-2---------4----2---|

Chorus: (Guitar 1 & 2 w/ distortion)
E|-----------------------------------------------------------------------|
B|-----------------------------------------------------------------------|
G|-66666666------------88888888------------66666666------------88888888--|
D|-66666666--66666666--88888888--66666666--66666666--66666666--88888888--|
A|-44444444--66666666--66666666--66666666--44444444--66666666--66666666--|
E|-----------44444444------------44444444------------44444444------------|

Verse: (Guitar 1 & 2 w/ distortion)
E|----------------------------------------|
B|----------------------------------------|
G|----------6-6-6-----------6-------------|
D|-6-6-6----6-6-6----4-4----6----6----4---|
A|-6-6-6----4-4-4----4-4----4----6----4---|
E|-4-4-4-------------2-2---------4----2---|

E|------------------------------------0---|
B|------------------------------------0---|
G|----------6-6-6-----------6---------0---|
D|-6-6-6----6-6-6----4-4----6----6--------|
A|-6-6-6----4-4-4----4-4----4----6--------|
E|-4-4-4-------------2-2---------4--------|
(Pause For Lyrics)

E|----------------------------------------|
B|----------------------------------------|
G|----------6-6-6-----------6-------------|
D|-6-6-6----6-6-6----4-4----6----6----4---|
A|-6-6-6----4-4-4----4-4----4----6----4---|
E|-4-4-4-------------2-2---------4----2---|
(Pause For Lyrics)

E|------------------------------------0---|
B|------------------------------------0---|
G|----------6-6-6-----------6---------0---|
D|-6-6-6----6-6-6----4-4----6----6--------|
A|-6-6-6----4-4-4----4-4----4----6--------|
E|-4-4-4-------------2-2---------4--------|
(Pause For Lyrics)

E|----------------------------------------|
B|----------------------------------------|
G|----------6-6-6-----------6-------------|
D|-6-6-6----6-6-6----4-4----6----6----4---|
A|-6-6-6----4-4-4----4-4----4----6----4---|
E|-4-4-4-------------2-2---------4----2---|
(Pause For Lyrics)

E|----------------------------------------|
B|----------------------------------------|
G|----------6-6-6-----------6-------------|
D|-6-6-6----6-6-6----4-4----6----6----4---|
A|-6-6-6----4-4-4----4-4----4----6----4---|
E|-4-4-4-------------2-2---------4----2---|

Chorus: (Guitar 1 & 2 w/ distortion)
E|-----------------------------------------------------------------------|
B|-----------------------------------------------------------------------|
G|-66666666------------88888888------------66666666------------88888888--|
D|-66666666--66666666--88888888--66666666--66666666--66666666--88888888--|
A|-44444444--66666666--66666666--66666666--44444444--66666666--66666666--|
E|-----------44444444------------44444444------------44444444------------|

Instrumental: (Guitars 1 & 2 w/ Distortion)
E|----------------------------------------|
B|----------------------------------------|
G|----------6-6-6-----------6-------------|
D|-6-6-6----6-6-6----4-4----6----6----4---|
A|-6-6-6----4-4-4----4-4----4----6----4---|
E|-4-4-4-------------2-2---------4----2---|

E|------------------------------------0---|
B|------------------------------------0---|
G|----------6-6-6-----------6---------0---|
D|-6-6-6----6-6-6----4-4----6----6--------|
A|-6-6-6----4-4-4----4-4----4----6--------|
E|-4-4-4-------------2-2---------4--------|

E|----------------------------------------|
B|----------------------------------------|
G|----------6-6-6-----------6-------------|
D|-6-6-6----6-6-6----4-4----6----6----4---|
A|-6-6-6----4-4-4----4-4----4----6----4---|
E|-4-4-4-------------2-2---------4----2---|

E|----------------------------------------|
B|----------------------------------------|
G|----------6-6-6-----------6-------------|
D|-6-6-6----6-6-6----4-4----6----6----4---|
A|-6-6-6----4-4-4----4-4----4----6----4---|
E|-4-4-4-------------2-2---------4----2---|

Guitar Solo: (Guitar 1 w/ Distortion (Rhythm Guitar))
E|-----------------------------------------------------------------------|
B|-----------------------------------------------------------------------|
G|-66666666------------88888888------------66666666------------88888888--|
D|-66666666--66666666--88888888--66666666--66666666--66666666--88888888--|
A|-44444444--66666666--66666666--66666666--44444444--66666666--66666666--|
E|-----------44444444------------44444444------------44444444------------|

(Guitar 2 w/ Distortion (Lead Guitar))
E|-----------------------------------------------------------------------------|
B|-----------------------------------------------------------------------------|
G|------------------------------33333-5-6-(6)-5-33333/8------------------------|
D|-----------------------------------------------------------------------------|
A|-8888888-66-4--66666-8-6-4-3-------------------------------------------------|
E|-----------------------------------------------------------------------------|

E|-----------------------8-----------------------------------------------------|
B|------9-------11---------------11-----9--(9)---------------------------------|
G|-8-8-----8-8------8-8-----8-8------8-----------------------------------------|
D|-----------------------------------------------------------------------------|
A|----------------------------------------------8888888-66-4--66666-8-6-4-3----|
E|-----------------------------------------------------------------------------|

E|-----------------------------|
B|--------------------------9--|
G|-33333-5-6-(6)-5--3-(3)/8----|
D|-----------------------------|
A|-----------------------------|
E|-----------------------------|

Interlude: (Guitar 2 w/ Distortion (Rhythm Guitar))
E|----------------------------------------|
B|----------------------------------------|
G|----------6-6-6-----------6-------------| (x4)
D|-6-6-6----6-6-6----4-4----6----6----4---|
A|-6-6-6----4-4-4----4-4----4----6----4---|
E|-4-4-4-------------2-2---------4----2---|

 (Guitar 1 w/ Distortion (Lead Guitar))
E|---------------|---------------|---------------|-----------------------------|
B|-9---9---9---9-|-9---9---9---9-|-9---9---9---9-|-9---9---9---9---------------|
G|---8---8---8---|---8---8---8---|---8---8---8---|---8---8---8-----------------|
D|---------------|---------------|---------------|-----------------------------|
A|---------------|---------------|---------------|-----------------------------|
E|---------------|---------------|---------------|---------------(Let-It-Ring)-|

Bridge: (Guitar 2 w/ Distortion)
E|----------------------------------------|
B|----------------------------------------|
G|----------6-6-6-----------6-------------| (x21)
D|-6-6-6----6-6-6----4-4----6----6----4---|
A|-6-6-6----4-4-4----4-4----4----6----4---|
E|-4-4-4-------------2-2---------4----2---|

E|----------------------------------------|
B|----------------------------------------|
G|----------6-6-6-----------6-------------|
D|-6-6-6----6-6-6----4-4----6----6----4---|
A|-6-6-6----4-4-4----4-4----4----6----4---|
E|-4-4-4-------------2-2---------4----2---|

E|----------------------------------------|
B|----------------------------------------|
G|----------6-6-6-----------6-------------|
D|-6-6-6----6-6-6----4-4----6----6----4---|
A|-6-6-6----4-4-4----4-4----4----6----4---|
E|-4-4-4-------------2-2---------4----2---|

E|----------------------------------------|
B|----------------------------------------|
G|----------6-6-6-----------6-------------|
D|-6-6-6----6-6-6----4-4----6----6----4---|
A|-6-6-6----4-4-4----4-4----4----6----4---|
E|-4-4-4-------------2-2---------4----2---|

E|----------------------------------------|
B|----------------------------------------|
G|--"It's-Calling-Out-To-Idiot-America."--|
D|----------------------------------------|
A|----------------------------------------|
E|----------------------------------------|

Chorus: (Guitar 1 & 2 w/ distortion)
E|------------------------------------------------------------------------|
B|------------------------------------------------------------------------|
G|-66666666------------88888888------------66666666------------88888888---|
D|-66666666--66666666--88888888--66666666--66666666--66666666--88888888---|
A|-44444444--66666666--66666666--66666666--44444444--66666666--66666666---|
E|-----------44444444------------44444444------------44444444-------------|

Instrumental: (Guitar 2 w/ Distortion)(Drums)
E|----------------------------------------|
B|----------------------------------------|
G|----------6-6-6-----------6-------------|
D|-6-6-6----6-6-6----4-4----6----6----4---|
A|-6-6-6----4-4-4----4-4----4----6----4---|
E|-4-4-4-------------2-2---------4----2---|

Instrumental: (Guitars 1 & 2 w/ Distortion)
E|----------------------------------------|
B|----------------------------------------|
G|----------6-6-6-----------6-------------|
D|-6-6-6----6-6-6----4-4----6----6----4---|
A|-6-6-6----4-4-4----4-4----4----6----4---|
E|-4-4-4-------------2-2---------4----2---|

E|------------------------------------0---|
B|------------------------------------0---|
G|----------6-6-6-----------6---------0---|
D|-6-6-6----6-6-6----4-4----6----6--------|
A|-6-6-6----4-4-4----4-4----4----6--------|
E|-4-4-4-------------2-2---------4--------|

E|----------------------------------------|
B|----------------------------------------|
G|----------6-6-6-----------6-------------|
D|-6-6-6----6-6-6----4-4----6----6----4---|
A|-6-6-6----4-4-4----4-4----4----6----4---|
E|-4-4-4-------------2-2---------4----2---|

Ending: (Guitar 2 w/ EQ Filter Effect)
E|-------------------------------------|
B|-------------------------------------|
G|----------6-6-6-----------6-6--------|
D|-6-6-6----6-6-6----4-4----6-6----4---|
A|-6-6-6----4-4-4----4-4----4-4----4---|
E|-4-4-4-------------2-2-----------2---|

Lyrics:
(Verse)
Don’t Want To Be An American Idiot
Don’t Want A Nation Under The New Mania
Can You Hear The Sound Of Hysteria
The Subliminal Mind Fuck America

Alright!

(Chorus)
Welcome To A New Kind Of Tension
All Across The Alien Nation
Where Everything Isn’t Meant To Be Okay
Television Dreams Of Tomorrow
We’re Not The Ones Meant To Follow
For That’s Enough To Argue

England!

(Verse)
Well Maybe I’m The Faggot America
I’m Not Apart Of A Redneck Agenda
Now Everybody Do The Propaganda
And Sing Along To The Age Of Paranoia

Alright!

(Chorus)
Welcome To A New Kind Of Tension
All Across The Alien Nation
Where Everything Isn’t Meant To Be Okay
Television Dreams Of Tomorrow
We’re Not The Ones Meant To Follow
For That’s Enough To Argue

Alright England!
Are you guys ready to sing along?
I want you to sing so loud that every fucking redneck in America hears you tonight, Alright?

(Bridge)
Don’t Want To Be An American Idiot
One Nation Controlled By The Media
Information Age Of Hysteria
Go!
It’s Calling Out To Idiot America

(Chorus)
Welcome To A New Kind Of Tension
All Across The Alien Nation
Where Everything Isn’t Meant To Be Okay
Television Dreams Of Tomorrow
We’re Not The Ones Meant To Follow
For That’s Enough To Argue

----------------------------------------------------------------------------------
Green Day
Jesus of Suburbia
----------------------------------------------------------------------------------
Guitar 1 - Billie Joe Armstrong (Standard Tuning)
Guitar 2 - Jason White          (Standard Tuning)

----------------------------------------------------------------------------------
I. Jesus of Suburbia
----------------------------------------------------------------------------------
Verse: (Guitar 1 & 2 w/ Distortion)
E|---------------------------------------------------------|
B|---------------------------------------------------------|
G|-6-6-6-6-------------------------------------------------|
D|-6-6-6-6----8-8-8-8----444444444444444--666666666666666--|
A|-4-4-4-4----8-8-8-8----444444444444444--666666666666666--|
E|------------6-6-6-6----222222222222222--444444444444444--|

E|---------------------------------------------------------|
B|---------------------------------------------------------|
G|-6-6-6-6-------------------------------------------------|
D|-6-6-6-6----8-8-8-8----444444444444444--666666666666666--|
A|-4-4-4-4----8-8-8-8----444444444444444--666666666666666--|
E|------------6-6-6-6----222222222222222--444444444444444--|

Chorus: (Guitar 1 & 2 w/ Distortion)
E|------------------------------------------------|
B|------------------------------------------------|
G|------------------------------------------------|
D|-444444--666666--444444--666666--444444--66666--|
A|-444444--666666--444444--666666--444444--66666--|
E|-222222--444444--222222--444444--222222--44444--|

Bridge: (Guitar 1 & 2 w/ Distortion)
e|---------------------------------------------|
B|---------------------------------------------|
G|-6-6--------------------6-6------------------|
D|-6-6--6-6--4-4444444----6-6--6-6--4-4444444--|
A|-4-4--6-6--4-4444444----4-4--6-6--4-4444444--|
E|------4-4--2-2222222---------4-4--2-2222222--|

Verse: (Guitar 1 & 2 w/ Distortion)
e|---------------------------------------------------------|
B|---------------------------------------------------------|
G|-6-6-6-6-------------------------------------------------|
D|-6-6-6-6----8-8-8-8----444444444444444--666666666666666--|
A|-4-4-4-4----8-8-8-8----444444444444444--666666666666666--|
E|------------6-6-6-6----222222222222222--444444444444444--|

e|---------------------------------------------------------|
B|---------------------------------------------------------|
G|-6-6-6-6-------------------------------------------------|
D|-6-6-6-6----8-8-8-8----444444444444444--666666666666666--|
A|-4-4-4-4----8-8-8-8----444444444444444--666666666666666--|
E|------------6-6-6-6----222222222222222--444444444444444--|

Chorus: (Guitar 1 & 2 w/ Distortion)
e|------------------------------------------------|
B|------------------------------------------------|
G|------------------------------------------------|
D|-444444--666666--444444--666666--444444--66666--|
A|-444444--666666--444444--666666--444444--66666--|
E|-222222--444444--222222--444444--222222--44444--|

Bridge: (Guitar 1 & 2 w/ Distortion)
e|---------------------------------------------|
B|---------------------------------------------|
G|-6-6--------------------6-6------------------|
D|-6-6--6-6--4-4444444----6-6--6-6--4-4444444--|
A|-4-4--6-6--4-4444444----4-4--6-6--4-4444444--|
E|------4-4--2-2222222---------4-4--2-2222222--|
“Ladies and Gentlemen, Tre Cool!”

Instrumental: (Guitar 1 & 2 w/ Distortion)
e|---------------------------------------------------------|
B|---------------------------------------------------------|
G|-6-6-6-6-------------------------------------------------|
D|-6-6-6-6----8-8-8-8----444444444444444--666666666666666--|
A|-4-4-4-4----8-8-8-8----444444444444444--666666666666666--|
E|------------6-6-6-6----222222222222222--444444444444444--|

e|--------------------------------------|
B|--------------------------------------|
G|-6-6-6-6------------------------------|
D|-6-6-6-6----3-3-3-3----8-8-8--6-6-6---|
A|-4-4-4-4----3-3-3-3----8-8-8--6-6-6---|
E|------------1-1-1-1----6-6-6--4-4-4---|

Lyrics:
(Introduction)
This song is dedicated to everyone who took the train to get here tonight.
Alright!  This song is called 'Jesus of Suburbia.'

(Verse)
I’m the son of rage and love
The Jesus of Suburbia
From the bible of none of the above
On a steady diet of

Soda pop and Ritalin
No one ever died for my sins in hell
As far as I can tell
At least the ones I’ve gotten away with

(Chorus)
And there’s nothing wrong with me
This is how I’m suppose to be
In the land of...
Everyone!
That don’t believe in me

(Verse)
Get my television fixed
Sitting on my crucifix
The living room on my private womb
While the moms and brats are away

To fall in love and fall in debt
To alcohol and cigarettes
And Mary Jane to keep me insane
Doing someone else’s cocaine

(Chorus)
And there’s nothing wrong with me
This is how I’m suppose to be
In the land of...
Everyone!
That don’t believe in me

Ladies and Gentlemen, Tre Cool!

----------------------------------------------------------------------------------
II. City of the Damned
----------------------------------------------------------------------------------
Intro: (Guitar 2 w/ Distortion)
e|-------------------------|
B|-------------------------|
G|-------------------------|
D|-4-------------------6---|
A|-4-------------------6---|
E|-2--(Let-It-Ring)----4---|

Verse: (Guitar 1 & 2 w/ Distortion)
e|----------------------------------------|
B|----------------------------------------|
G|----------------------------------------|
D|--------------------44444444--66666666--|
A|-4---3---1----------44444444--66666666--|
E|-------------4------22222222--44444444--|

e|----------------------------------------------|
B|----------------------------------------------|
G|----------------------------------------------|
D|--------------------------44444444--66666666--|
A|-4---6p-3----1---3p-------44444444--66666666--|
E|--------------------4-----22222222--44444444--|

Chorus: (Guitar 1 & 2 w/ Distortion)
e|-------------------------------------------------------|
B|-------------------------------------------------------|
G|---------------66666-----------------------------------|
D|-88888--66666--66666--44444----88888--66666--44444444--|
A|-88888--66666--44444--44444----88888--66666--44444444--|
E|-66666--44444---------22222----66666--44444--22222222--|

e|--------------------------------------------------------------|
B|--------------------------------------------------------------|
G|---------------66666------------------------------------------|
D|-88888--66666--66666--44444----88888--66666--4----------------|
A|-88888--66666--44444--44444----88888--66666--4----------------|
E|-66666--44444---------22222----66666--44444--2-(Let-It-Ring)--|

Verse: (Guitar 1 & 2 w/ Distortion)
e|--------------------------------------|
B|--------------------------------------|
G|-6---5---3----------------------------|
D|-6---5---3---6----44444444--66666666--|
A|-4---3---1---6----44444444--66666666--|
E|-------------4----22222222--44444444--|

e|----------------------------------------------|
B|----------------------------------------------|
G|----------------------------------------------|
D|--------------------------44444444--66666666--|
A|-4---6p-3----1---3p-------44444444--66666666--|
E|--------------------4-----22222222--44444444--|

Chorus: (Guitar 1 & 2 w/ Distortion)
e|-------------------------------------------------------|
B|-------------------------------------------------------|
G|---------------66666-----------------------------------|
D|-88888--66666--66666--44444----88888--66666--44444444--|
A|-88888--66666--44444--44444----88888--66666--44444444--|
E|-66666--44444---------22222----66666--44444--22222222--|

e|-------------------------------------------------------|
B|-------------------------------------------------------|
G|---------------66666-----------------------------------|
D|-88888--66666--66666--44444----88888--66666--44444444--|
A|-88888--66666--44444--44444----88888--66666--44444444--|
E|-66666--44444---------22222----66666--44444--22222222--|

Lyrics:
(Verse)
At the center of the earth
In the parking lot
Of the Seven-Eleven where I was taught
The motto was just a lie

It says home is where the heart is
But what a shame
Cause everyone’s heart doesn’t beat the same
We’re beating out of time

Get those fists in the air!

(Chorus)
City of the dead
At the end of another lost highway
Signs misleading to nowhere

Alright!

City of the damned
Lost children with their dirty faces today
No one really seems to care

Get those hands up!

(Verse)
I read the graffiti
In the bathroom stall
Like the holy scriptures of the shopping mall
And so it seemed to confess

It didn’t say much
But it confirmed that
The center of the earth is the end of the world
And I could really care less

Get those fists in the air!

(Chorus)
City of the dead
At the end of another lost highway
Signs misleading to nowhere

One more time!

City of the damned
Lost children with their dirty faces today
No one really seems to care

----------------------------------------------------------------------------------
III. I Don't Care
----------------------------------------------------------------------------------
Intro: (Guitar 1 w/ Distortion)
e|--------------------------------------------|
B|--------------------------------------------|
G|-------666--------666--------666------------|
D|-6666--666--6666--666--4444--666--66666666--|
A|-6666--444--6666--444--4444--444--66666666--|
E|-4444-------4444-------2222-------44444444--|

Intro lead: (Guitar 2 w/ Distortion)
e|-----------------------------------------------------------------|
B|----------------------------------/7-7--77-------------------9v--|
G|----------6-6-6-----------10-8-6------------10-8-6--8-8--88------|
D|-6-6--66---------6-6--66-----------------------------------------|
A|-----------------------------------------------------------------|
E|-----------------------------------------------------------------|

Verse: (Guitar 1 & 2 w/ Distortion)
e|--------------------------------------------|
B|--------------------------------------------|
G|-------666--------666--------666------------|
D|-6666--666--6666--666--4444--666--66666666--|
A|-6666--444--6666--444--4444--444--66666666--|
E|-4444-------4444-------2222-------44444444--|

e|--------------------------------------------|
B|--------------------------------------------|
G|-------666--------666--------666------------|
D|-6666--666--6666--666--4444--666--66666666--|
A|-6666--444--6666--444--4444--444--66666666--|
E|-4444-------4444-------2222-------44444444--|

e|--------------------------------------------|
B|--------------------------------------------|
G|-------666--------666--------666------------|
D|-6666--666--6666--666--4444--666--66666666--|
A|-6666--444--6666--444--4444--444--66666666--|
E|-4444-------4444-------2222-------44444444--|

e|--------------------------------------------|
B|--------------------------------------------|
G|-------666--------666--------666------------|
D|-6666--666--6666--666--4444--666--66666666--|
A|-6666--444--6666--444--4444--444--66666666--|
E|-4444-------4444-------2222-------44444444--|

Instrumental: (Guitar 1 & 2 w/ Distortion)
e|----------------------------------------------------------|
B|----------------------------------------------------------|
G|------666666-------666666-------666666-------666666-------|
D|-4-6--666666--7-6--666666--7-6--666666--7-6--666666--7-6--|
A|-4-6--444444--7-6--444444--7-6--444444--7-6--444444--7-6--|
E|-2-4----------5-4----------5-4----------5-4----------5-4--|

Verse: (Guitar 1 & 2 w/ Distortion)
e|---------------------|
B|---------------------|
G|---(bass)------------|
D|--------------7-6----|
A|-4-4-4-4-4-4--7-6----|
E|--------------5-4----|

e|---------------------|
B|---------------------|
G|---(bass)------------|
D|--------------7-6----|
A|-4-4-4-4-4-4--7-6----|
E|--------------5-4----|

e|---------------------|
B|---------------------|
G|---(bass)------------|
D|--------------7-6----|
A|-4-4-4-4-4-4--7-6----|
E|--------------5-4----|

e|---------------------|
B|---------------------|
G|---(bass)------------|
D|--------------7-6----|
A|-4-4-4-4-4-4--7-6----|
E|--------------5-4----|

e|---------------------|
B|---------------------|
G|---(bass)------------|
D|--------------7-6----|
A|-4-4-4-4-4-4--7-6----|
E|--------------5-4----|

e|---------------------|
B|---------------------|
G|---(bass)------------|
D|--------------7-6----|
A|-4-4-4-4-4-4--7-6----|
E|--------------5-4----|

e|---------------------|
B|---------------------|
G|---(bass)------------|
D|--------------7-6----|
A|-4-4-4-4-4-4--7-6----|
E|--------------5-4----|

e|---------------------|
B|---------------------|
G|---(bass)------------|
D|--------------7-6----|
A|-4-4-4-4-4-4--7-6----|
E|--------------5-4----|

Chorus: (Guitar 1 & 2 w/ Distortion)
e|----------------|
B|----------------|
G|-----------6----|
D|-4444--66--6-6--|
A|-4444--66--4-6--|
E|-2222--44----4--|

e|----------------|
B|----------------|
G|-----------6----|
D|-4444--66--6-6--|
A|-4444--66--4-6--|
E|-2222--44----4--|

e|----------------|
B|----------------|
G|-----------6----|
D|-4444--66--6-6--|
A|-4444--66--4-6--|
E|-2222--44----4--|

e|-----------|
B|-----------|
G|-----------|
D|-4444--66--|
A|-4444--66--|
E|-2222--44--|

e|--------------|
B|--------------|
G|------666666--|
D|-4-6--666666--|
A|-4-6--444444--|
E|-2-4----------|

e|--------------|
B|--------------|
G|------666666--|
D|-4-6--666666--|
A|-4-6--444444--|
E|-2-4----------|

e|--------------|
B|--------------|
G|------666666--|
D|-4-6--666666--|
A|-4-6--444444--|
E|-2-4----------|

e|--------------|
B|--------------|
G|------666666--|
D|-4-6--666666--|
A|-4-6--444444--|
E|-2-4----------|

Outro: (Guitar 1 & 2 w/ Distortion)
e|------------------------------|
B|------------------------------|
G|------6-6-6-66----------------|
D|-4-6--6-6-6-66-6--------------|
A|-4-6--4-4-4-44-6--------------|
E|-2-4-----------4--(Let-ring)--|

Lyrics:
(Verse)
I don’t care if you don’t
I don’t care if you don’t
I don’t care if you don’t care

I don’t care if you don’t
I don’t care if you don’t
I don’t care if you don’t care

I don’t care if you don’t
I don’t care if you don’t
I don’t care if you don’t care

I don’t care if you don’t
I don’t care if you don’t
I don’t care if you don’t care

I Don’t Care!

(Verse)
Everyone is so full of shit
Born and raised by hypocrites
Hearts recycled but never saved
From the cradle to the grave
We are the kids of war and peace
From Anaheim to the Middle East
We are the stories and disciples
Of the Jesus of Suburbia

(Chorus)
Land of make believe
Heaven don’t believe in me
Heaven make believe
Heaven don’t believe

(Verse)
I Don’t Care
I Don’t Care
I Don’t Care
I Don’t Care
I Don’t Care!

----------------------------------------------------------------------------------
IV. Dearly Beloved
----------------------------------------------------------------------------------
Bass Interlude:
e|-----------------------|
B|-----------------------|
G|-----------------------| (x6)
D|-----------------------|
A|-----------------------|
E|-4-4-4-4-4-4-4-4\3/4---|

Verse: (Guitar 2 w/ Distortion)
e|-----------------------------|
B|-----------------------------|
G|-------55----66----------88--|
D|-66----55----66----66----88--|
A|-66----33----44----66----66--|
E|-44----------------44--------|

Verse: (Guitar 2 w/ No Effects)
e|--------------------------------------------------------------------------------|
B|--------------------------------------------------------------------------------|
G|----------------------5---5---5---5------6---6---6---6-----------------8---8----|
D|---6---6---6---6----5-5-5-5-5-5-5-5-5--6-6-6-6-6-6-6-6-6----6---6----8-8-8-8-8--|
A|-6-6-6-6-6-6-6-6-6--3-3-3-3-3-3-3-3-3--4-4-4-4-4-4-4-4-4--6-6-6-6-6--6-6-6-6-6--|
E|-4-4-4-4-4-4-4-4-4----------------------------------------4-4-4-4-4-------------|

Instrumental: (Guitar 2 w/ No Effects)
e|--------------------------------------------------------------------------------|
B|--------------------------------------------------------------------------------|
G|----------------------5---5---5---5------6---6---6---6-----------------8---8----|
D|---6---6---6---6----5-5-5-5-5-5-5-5-5--6-6-6-6-6-6-6-6-6----6---6----8-8-8-8-8--|
A|-6-6-6-6-6-6-6-6-6--3-3-3-3-3-3-3-3-3--4-4-4-4-4-4-4-4-4--6-6-6-6-6--6-6-6-6-6--|
E|-4-4-4-4-4-4-4-4-4----------------------------------------4-4-4-4-4-------------|

Verse: (Guitar 2 w/ No Effects)
e|--------------------------------------------------------------------------------|
B|--------------------------------------------------------------------------------|
G|----------------------5---5---5---5------6---6---6---6-----------------8---8----|
D|---6---6---6---6----5-5-5-5-5-5-5-5-5--6-6-6-6-6-6-6-6-6----6---6----8-8-8-8-8--|
A|-6-6-6-6-6-6-6-6-6--3-3-3-3-3-3-3-3-3--4-4-4-4-4-4-4-4-4--6-6-6-6-6--6-6-6-6-6--|
E|-4-4-4-4-4-4-4-4-4----------------------------------------4-4-4-4-4-------------|

e|--------------------------------------------------------------------------------|
B|--------------------------------------------------------------------------------|
G|----------------------5---5---5---5------6---6---6---6-----------------8---8----|
D|---6---6---6---6----5-5-5-5-5-5-5-5-5--6-6-6-6-6-6-6-6-6----6---6----8-8-8-8-8--|
A|-6-6-6-6-6-6-6-6-6--3-3-3-3-3-3-3-3-3--4-4-4-4-4-4-4-4-4--6-6-6-6-6--6-6-6-6-6--|
E|-4-4-4-4-4-4-4-4-4----------------------------------------4-4-4-4-4-------------|

Instrumental: (Guitar 2 w/ No Effects)
e|--------------------------------------------------------------------------------|
B|--------------------------------------------------------------------------------|
G|----------------------5---5---5---5------6---6---6---6-----------------8---8----|
D|---6---6---6---6----5-5-5-5-5-5-5-5-5--6-6-6-6-6-6-6-6-6----6---6----8-8-8-8-8--|
A|-6-6-6-6-6-6-6-6-6--3-3-3-3-3-3-3-3-3--4-4-4-4-4-4-4-4-4--6-6-6-6-6--6-6-6-6-6--|
E|-4-4-4-4-4-4-4-4-4----------------------------------------4-4-4-4-4-------------|

Lyrics:
(Verse)
Dearly beloved
Are you listening
I can’t remember a word
That you were saying

Are we demented
Or am I disturbed
The space that’s in between
Insane and insecure

Brothers and sisters, get those hands in the air!

(Verse)
Oh therapy
Can you please fill the void
Am I retarded
Or am I just overjoyed

Nobody’s perfect
And I stand accused
For lack of a better word
And that’s my best excuse

England!

Ladies and Gentlemen, Mike Dirnt!

----------------------------------------------------------------------------------
 V. Tales of Another Broken Home
----------------------------------------------------------------------------------
Intro: (Guitar 1 & 2 w/ Distortion)
e|-------------------------------------------------------------------------------------|
B|-------------------------------------------------------------------------------------|
G|-------------------6--------------------6--------------------6--------------------6--|
D|-6----(bass)----4--6--6----(bass)----4--6--6----(bass)----4--6--6----(bass)----4--6--|
A|-6--------------4--4--6--------------4--4--6--------------4--4--6--------------4--4--|
E|-4--4-44-44-44--2-----4--4-44-44-44--2-----4--4-44-44-44--2-----4--4-44-44-44--2-----|

Verse: (Guitar 1 & 2 w/ Distortion)
e|-------------------------------|
B|-------------------------------|
G|--------------------------6----|
D|-6-6-6-6-6-6-6-6-6----4---6----|
A|-6-6-6-6-6-6-6-6-6----4---4----|
E|-4-4-4-4-4-4-4-4-4----2--------|

e|-------------------------------|
B|-------------------------------|
G|--------------------------6----|
D|-6-6-6-6-6-6-6-6-6----4---6----|
A|-6-6-6-6-6-6-6-6-6----4---4----|
E|-4-4-4-4-4-4-4-4-4----2--------|

e|-------------------------------|
B|-------------------------------|
G|--------------------------6----|
D|-6-6-6-6-6-6-6-6-6----4---6----|
A|-6-6-6-6-6-6-6-6-6----4---4----|
E|-4-4-4-4-4-4-4-4-4----2--------|

e|-------------------------------|
B|-------------------------------|
G|--------------------------6----|
D|-6-6-6-6-6-6-6-6-6----4---6----|
A|-6-6-6-6-6-6-6-6-6----4---4----|
E|-4-4-4-4-4-4-4-4-4----2--------|

e|-------------------------------|
B|-------------------------------|
G|--------------------------6----|
D|-6-6-6-6-6-6-6-6-6----4---6----|
A|-6-6-6-6-6-6-6-6-6----4---4----|
E|-4-4-4-4-4-4-4-4-4----2--------|

e|-------------------------------|
B|-------------------------------|
G|--------------------------6----|
D|-6-6-6-6-6-6-6-6-6----4---6----|
A|-6-6-6-6-6-6-6-6-6----4---4----|
E|-4-4-4-4-4-4-4-4-4----2--------|

e|-------------------------------|
B|-------------------------------|
G|--------------------------6----|
D|-6-6-6-6-6-6-6-6-6----4---6----|
A|-6-6-6-6-6-6-6-6-6----4---4----|
E|-4-4-4-4-4-4-4-4-4----2--------|

e|-------------------------------|
B|-------------------------------|
G|--------------------------6----|
D|-6-6-6-6-6-6-6-6-6----4---6----|
A|-6-6-6-6-6-6-6-6-6----4---4----|
E|-4-4-4-4-4-4-4-4-4----2--------|

Chorus: (Guitar 1 & 2 w/ Distortion)
e|-----------------------------------|
B|-----------------------------------|
G|-6-----6-----6----8-----8-----8----|
D|-6--6--6--6--66---8--6--8--6--86---|
A|-4--6--4--6--46---6--6--6--6--66---|
E|----4-----4---4------4-----4---4---|

e|-----------------------------------|
B|-----------------------------------|
G|-6-----6-----6----8-----8-----8----|
D|-6--6--6--6--66---8--6--8--6--86---|
A|-4--6--4--6--46---6--6--6--6--66---|
E|----4-----4---4------4-----4---4---|

Verse: (Guitar 1 & 2 w/ Distortion)
e|-------------------------------|
B|-------------------------------|
G|--------------------------6----|
D|-6-6-6-6-6-6-6-6-6----4---6----|
A|-6-6-6-6-6-6-6-6-6----4---4----|
E|-4-4-4-4-4-4-4-4-4----2--------|

e|-------------------------------|
B|-------------------------------|
G|--------------------------6----|
D|-6-6-6-6-6-6-6-6-6----4---6----|
A|-6-6-6-6-6-6-6-6-6----4---4----|
E|-4-4-4-4-4-4-4-4-4----2--------|

e|-------------------------------|
B|-------------------------------|
G|--------------------------6----|
D|-6-6-6-6-6-6-6-6-6----4---6----|
A|-6-6-6-6-6-6-6-6-6----4---4----|
E|-4-4-4-4-4-4-4-4-4----2--------|

e|-------------------------------|
B|-------------------------------|
G|--------------------------6----|
D|-6-6-6-6-6-6-6-6-6----4---6----|
A|-6-6-6-6-6-6-6-6-6----4---4----|
E|-4-4-4-4-4-4-4-4-4----2--------|

e|-------------------------------|
B|-------------------------------|
G|--------------------------6----|
D|-6-6-6-6-6-6-6-6-6----4---6----|
A|-6-6-6-6-6-6-6-6-6----4---4----|
E|-4-4-4-4-4-4-4-4-4----2--------|

e|-------------------------------|
B|-------------------------------|
G|--------------------------6----|
D|-6-6-6-6-6-6-6-6-6----4---6----|
A|-6-6-6-6-6-6-6-6-6----4---4----|
E|-4-4-4-4-4-4-4-4-4----2--------|

e|-------------------------------|
B|-------------------------------|
G|--------------------------6----|
D|-6-6-6-6-6-6-6-6-6----4---6----|
A|-6-6-6-6-6-6-6-6-6----4---4----|
E|-4-4-4-4-4-4-4-4-4----2--------|

e|-------------------------------|
B|-------------------------------|
G|--------------------------6----|
D|-6-6-6-6-6-6-6-6-6----4---6----|
A|-6-6-6-6-6-6-6-6-6----4---4----|
E|-4-4-4-4-4-4-4-4-4----2--------|

Chorus: (Guitar 1 & 2 w/ Distortion)
e|-----------------------------------|
B|-----------------------------------|
G|-6-----6-----6----8-----8-----8----|
D|-6--6--6--6--66---8--6--8--6--86---|
A|-4--6--4--6--46---6--6--6--6--66---|
E|----4-----4---4------4-----4---4---|

e|-----------------------------------|
B|-----------------------------------|
G|-6-----6-----6----8-----8-----8----|
D|-6--6--6--6--66---8--6--8--6--86---|
A|-4--6--4--6--46---6--6--6--6--66---|
E|----4-----4---4------4-----4---4---|

e|-----------------------------------|
B|-----------------------------------|
G|-6-----6-----6----8-----8-----8----|
D|-6--6--6--6--66---8--6--8--6--86---|
A|-4--6--4--6--46---6--6--6--6--66---|
E|----4-----4---4------4-----4---4---|

e|-----------------------------------|
B|-----------------------------------|
G|-6-----6-----6----8-----8-----8----|
D|-6--6--6--6--66---8--6--8--6--86---|
A|-4--6--4--6--46---6--6--6--6--66---|
E|----4-----4---4------4-----4---4---|

e|----------|
B|----------|
G|----6-----|
D|-4--6--6--|
A|-4--4--6--|
E|-2-----4--|

Instrumental: (Guitar 1 w/ Distortion)
e|------------------|
B|------------------|
G|----6----------6--|
D|-4--6--6----4--6--|
A|-4--4--6----4--4--|
E|-2-----4----2-----|

Guitar Solo: (Guitar 1 w/ Distortion (Rhythm Guitar))
e|-------------------------------|
B|-------------------------------|
G|--------------------------6----| (x8)
D|-6-6-6-6-6-6-6-6-6----4---6----|
A|-6-6-6-6-6-6-6-6-6----4---4----|
E|-4-4-4-4-4-4-4-4-4----2--------|

e|-----------------------------------|
B|-----------------------------------|
G|-6-----6-----6----8-----8-----8----|
D|-6--6--6--6--66---8--6--8--6--86---|
A|-4--6--4--6--46---6--6--6--6--66---|
E|----4-----4---4------4-----4---4---|

e|-----------------------------------|
B|-----------------------------------|
G|-6-----6-----6----8-----8-----8----|
D|-6--6--6--6--66---8--6--8--6--86---|
A|-4--6--4--6--46---6--6--6--6--66---|
E|----4-----4---4------4-----4---4---|

Guitar Solo: (Guitar 2 w/ Distortion (Lead Guitar))
e|----------------------------------------------|
B|----------------------------------------------|
G|-5/8----6-10-6-8----6\5----3-6-3-5------------| (x2)
D|-x-x----x-x--x-x----x-x----x-x-x-x------------|
A|-3/6----4-8--4-6----4\3----1-4-1-3------------|
E|----------------------------------------------|

e|-------------------------------------------------------------------|
B|-7p6---9p6---7p6---9p6---7p6------9p8---11p8---9p8---11p8---9p8----|
G|-----6-----6-----6-----6-----6--------8------8-----8------8-----8--| (x2)
D|-------------------------------------------------------------------|
A|-------------------------------------------------------------------|
E|-------------------------------------------------------------------|

Interlude: (Piano notes converted for Guitar 2 w/ No Effects)
e|-------------------------------------------------------|
B|-------------------------------------------------------|
G|-6--8-----6--6--8-----6--8-----6--6--8-----------------|
D|-6--8--6--6--6--8--6--6--8--6--6--6--8-----------------|
A|-4--6--6--4--4--6--6--4--6--6--4--4--6-----------------|
E|-------4-----------4--------4-----------(Let-It-Ring)--|

Ending: (Guitar 1 & 2 w/ Distortion)
e|-------------------------------|
B|-------------------------------|
G|--------------------------6----|
D|-6-6-6-6-6-6-6-6-6----4---6----|
A|-6-6-6-6-6-6-6-6-6----4---4----|
E|-4-4-4-4-4-4-4-4-4----2--------|

e|-------------------------------|
B|-------------------------------|
G|--------------------------6----|
D|-6-6-6-6-6-6-6-6-6----4---6----|
A|-6-6-6-6-6-6-6-6-6----4---4----|
E|-4-4-4-4-4-4-4-4-4----2--------|

e|-------------------------------|
B|-------------------------------|
G|--------------------------6----|
D|-6-6-6-6-6-6-6-6-6----4---6----|
A|-6-6-6-6-6-6-6-6-6----4---4----|
E|-4-4-4-4-4-4-4-4-4----2--------|

e|-------------------------------|
B|-------------------------------|
G|--------------------------6----|
D|-6-6-6-6-6-6-6-6-6----4---6----|
A|-6-6-6-6-6-6-6-6-6----4---4----|
E|-4-4-4-4-4-4-4-4-4----2--------|

[Instrumental from here on out.]

e|-------------------------------|
B|-------------------------------|
G|--------------------------6----|
D|-6-6-6-6-6-6-6-6-6----4---6----|
A|-6-6-6-6-6-6-6-6-6----4---4----|
E|-4-4-4-4-4-4-4-4-4----2--------|

e|-----------------------------------|
B|-----------------------------------|
G|--------------------------6--------|
D|-6-6-6-6-6-6-6-6-6----4---6---6----|
A|-6-6-6-6-6-6-6-6-6----4---4---6----|
E|-4-4-4-4-4-4-4-4-4----2-------4----|

Lyrics:
(Verse)
To live and not to breathe
Is to die in tragedy
To run, to run away
To find what you believe

Boom!

(Chorus)
And I
Leave behind
This hurricane of fucking lies

(Verse)
I lost my faith to list
This town that don’t exist
So I run, I run away
The lights of masochists

Boom!

(Chorus)
And I
Leave behind
This hurricane of fucking lies
And I
Walked this line
A million and one fucking times
But not this time

Here we go!

(Interlude)
I don’t feel any shame
I won’t apologize
When there ain’t nowhere we can go
Running away from pain
When we’ve been victimized
Tales from another broken...

Home!

(Ending)
We’re leavin’
We’re leavin’
We’re leavin’
We’re leavin home!

----------------------------------------------------------------------------------
Green Day
Holiday
----------------------------------------------------------------------------------
Guitar 1 - Billie Joe Armstrong (Standard Tuning)
Guitar 2 - Jason White          (Standard Tuning)

Intro: (Guitar 2 w/ Distortion)
e|-----------------------------|
B|-----------------------------|
G|-10-10---6-6----13-13----8-8-| (x2)
D|-10-10---6-6----13-13----8-8-|
A|-8--8----4-4----11-11----6-6-|
E|-----------------------------|

e|-----------------------------|
B|-----------------------------|
G|-10-10---6-6----13-13----8-8-| (x2)
D|-10-10---6-6----13-13----8-8-|
A|-8--8----4-4----11-11----6-6-|
E|-----------------------------|

Instrumental: (Guitar 1 & 2 w/ Distortion)
e|-----------------------------|
B|-----------------------------|
G|-10-10----6-6-----------8-8--|
D|-10-10----6-6----6-6----8-8--|
A|-8--8-----4-4----6-6----6-6--|
E|-----------------4-4---------|

e|---------------------------------|
B|---------------------------------|
G|-10-10----6-6-----------8-8-8-8--|
D|-10-10----6-6----6-6----8-8-8-8--|
A|-8--8-----4-4----6-6----6-6-6-6--|
E|-----------------4-4-------------|

Verse: (Guitar 2 w/ Distortion)
e|-----------------------------|
B|-----------------------------|
G|-10-10----6-6-----------8-8--|
D|-10-10----6-6----6-6----8-8--|
A|-8--8-----4-4----6-6----6-6--|
E|-----------------4-4---------|

e|---------------------------------|
B|---------------------------------|
G|-10-10----6-6-----------8-8-8-8--|
D|-10-10----6-6----6-6----8-8-8-8--|
A|-8--8-----4-4----6-6----6-6-6-6--|
E|-----------------4-4-------------|

e|-----------------------------------------------|
B|-----------------------------------------------|
G|-10-10----6-6-----------8-8---5-5-5-5-5-5-5-5--|
D|-10-10----6-6----6-6----8-8---5-5-5-5-5-5-5-5--|
A|-8--8-----4-4----6-6----6-6---3-3-3-3-3-3-3-3--|
E|-----------------4-4---------------------------|

e|-----------------------------|
B|-----------------------------|
G|-10-10----6-6-----------8-8--|
D|-10-10----6-6----6-6----8-8--|
A|-8--8-----4-4----6-6----6-6--|
E|-----------------4-4---------|

e|---------------------------------|
B|---------------------------------|
G|-10-10----6-6-----------8-8-8-8--|
D|-10-10----6-6----6-6----8-8-8-8--|
A|-8--8-----4-4----6-6----6-6-6-6--|
E|-----------------4-4-------------|

e|-----------------------------------------------|
B|-----------------------------------------------|
G|-10-10----6-6-----------8-8---5-5-5-5-5-5-5-5--|
D|-10-10----6-6----6-6----8-8---5-5-5-5-5-5-5-5--|
A|-8--8-----4-4----6-6----6-6---3-3-3-3-3-3-3-3--|
E|-----------------4-4---------------------------|

Chorus: (Guitar 1 & 2 w/ Distortion)
e|-----------------------------------------------------------------------------|
B|-----------------------------------------------------------------------------|
G|----------6-6-6-6-----------8-8-8-8-------------6-6-6-6-----------5-5-5-5-5--|
D|-3-3-3-3--6-6-6-6--6-6-6-6--8-8-8-8----3-3-3-3--6-6-6-6--6-6-6-6--5-5-5-5-5--|
A|-3-3-3-3--4-4-4-4--6-6-6-6--6-6-6-6----3-3-3-3--4-4-4-4--6-6-6-6--3-3-3-3-3--|
E|-1-1-1-1-----------4-4-4-4-------------1-1-1-1-----------4-4-4-4-------------|

Intro: (Guitar 2 w/ Distortion)
e|-----------------------------|
B|-----------------------------|
G|-10-10---6-6----13-13----8-8-| (x2)
D|-10-10---6-6----13-13----8-8-|
A|-8--8----4-4----11-11----6-6-|
E|-----------------------------|

Verse: (Guitar 2 w/ Distortion)
e|-----------------------------|
B|-----------------------------|
G|-10-10----6-6-----------8-8--|
D|-10-10----6-6----6-6----8-8--|
A|-8--8-----4-4----6-6----6-6--|
E|-----------------4-4---------|

e|---------------------------------|
B|---------------------------------|
G|-10-10----6-6-----------8-8-8-8--|
D|-10-10----6-6----6-6----8-8-8-8--|
A|-8--8-----4-4----6-6----6-6-6-6--|
E|-----------------4-4-------------|

e|-----------------------------------------------|
B|-----------------------------------------------|
G|-10-10----6-6-----------8-8---5-5-5-5-5-5-5-5--|
D|-10-10----6-6----6-6----8-8---5-5-5-5-5-5-5-5--|
A|-8--8-----4-4----6-6----6-6---3-3-3-3-3-3-3-3--|
E|-----------------4-4---------------------------|

e|-----------------------------|
B|-----------------------------|
G|-10-10----6-6-----------8-8--|
D|-10-10----6-6----6-6----8-8--|
A|-8--8-----4-4----6-6----6-6--|
E|-----------------4-4---------|

e|---------------------------------|
B|---------------------------------|
G|-10-10----6-6-----------8-8-8-8--|
D|-10-10----6-6----6-6----8-8-8-8--|
A|-8--8-----4-4----6-6----6-6-6-6--|
E|-----------------4-4-------------|

e|-----------------------------------------------|
B|-----------------------------------------------|
G|-10-10----6-6-----------8-8---5-5-5-5-5-5-5-5--|
D|-10-10----6-6----6-6----8-8---5-5-5-5-5-5-5-5--|
A|-8--8-----4-4----6-6----6-6---3-3-3-3-3-3-3-3--|
E|-----------------4-4---------------------------|

Chorus: (Guitar 1 & 2 w/ Distortion)
e|-----------------------------------------------------------------------------|
B|-----------------------------------------------------------------------------|
G|----------6-6-6-6-----------8-8-8-8-------------6-6-6-6-----------5-5-5-5-5--|
D|-3-3-3-3--6-6-6-6--6-6-6-6--8-8-8-8----3-3-3-3--6-6-6-6--6-6-6-6--5-5-5-5-5--|
A|-3-3-3-3--4-4-4-4--6-6-6-6--6-6-6-6----3-3-3-3--4-4-4-4--6-6-6-6--3-3-3-3-3--|
E|-1-1-1-1-----------4-4-4-4-------------1-1-1-1-----------4-4-4-4-------------|

Bridge: (Guitar 1 & 2 w/ Distortion)
e|-----------------------------------------------------|
B|-----------------------------------------------------|
G|---------------6--3--8---------------------6--5--10--| (x2)
D|-3-3----6-6----6--3--8--8----3-3----6-6----6--5--10--|
A|-3-3----6-6----4--1--6--8----3-3----6-6----4--3--8---|
E|-1-1----4-4-------------6----1-1----4-4--------------|

Guitar Solo: (Guitar 1 w/ Distortion (Rhythm Guitar))
e|--------------------------------------------------------------------------|
B|--------------------------------------------------------------------------|
G|-6-6-6-6-------------5-5-5-5---10-10-10-10---6-6-6-6-------------5-5-5-5--|
D|-6-6-6-6---6-6-6-6---5-5-5-5---10-10-10-10---6-6-6-6---6-6-6-6---5-5-5-5--|
A|-4-4-4-4---6-6-6-6---3-3-3-3---8--8--8--8----4-4-4-4---6-6-6-6---3-3-3-3--|
E|-----------4-4-4-4-------------------------------------4-4-4-4------------|

 (Guitar 2 w/ Distortion (Lead Guitar))
e|-------------------------------8---8---------------------|
B|-6-6-6-8-9----------8-5------6---6---6-6-6-8-9-----------|
G|-----------8-6-5-55-----5-55-------------------8-6-5-55--|
D|---------------------------------------------------------|
A|---------------------------------------------------------|
E|---------------------------------------------------------|

e|--------------------------------------------------------------|
B|-8-8--8--13-13--13--17-17-17-17-17-17-17-17-17-17-17-17--18v--|
G|--------------------------------------------------------------|
D|--------------------------------------------------------------|
A|--------------------------------------------------------------|
E|--------------------------------------------------------------|

Bridge: (Bass Guitar)
e|-------------------------------------------------------------------|
B|-------------------------------------------------------------------|
G|-------------------------------------------------------------------| (x10)
D|-------------------------------------------------------------------|
A|---------------4----1----6---------------------------4----3----8---|
E|-1-1----4-4-------------------6--------1-1----4-4------------------|

(Start Singing Now...)

e|-------------------------------------------------------------------|
B|-------------------------------------------------------------------|
G|-------------------------------------------------------------------|
D|-------------------------------------------------------------------|
A|---------------4----1----6---------------------------4----3----8---|
E|-1-1----4-4-------------------6--------1-1----4-4------------------|

e|-------------------------------------------------------------------|
B|-------------------------------------------------------------------|
G|-------------------------------------------------------------------|
D|-------------------------------------------------------------------|
A|---------------4----1----6---------------------------4----3----8---|
E|-1-1----4-4-------------------6--------1-1----4-4------------------|

e|-------------------------------------------------------------------|
B|-------------------------------------------------------------------|
G|-------------------------------------------------------------------|
D|-------------------------------------------------------------------|
A|---------------4----1----6---------------------------4----3----8---|
E|-1-1----4-4-------------------6--------1-1----4-4------------------|

e|-------------------------------------------------------------------|
B|-------------------------------------------------------------------|
G|-------------------------------------------------------------------|
D|-------------------------------------------------------------------|
A|---------------4----1----6---------------------------4----3----8---|
E|-1-1----4-4-------------------6--------1-1----4-4------------------|

e|----------------------------------------------------|
B|----------------------------------------------------|
G|----------------------------------------------------|
D|----------------------------------------------------|
A|---------------4----1----6--------------------------|
E|-1-1----4-4-------------------6--------1-1----4-4---|

(Guitar 1 & 2 w/ Distortion)
e|------------------------------------------------------------------|
B|------------------------------------------------------------------|
G|-6----5----10-----------------------------------------------------|
D|-6----5----10-------10-10-10-10-10-10-10-10-10-10-10-10-10-10-10--|
A|-4----3----8--------10-10-10-10-10-10-10-10-10-10-10-10-10-10-10--|
E|--------------------8--8--8--8--8--8--8--8--8--8--8--8--8--8--8---|

Chorus: (Guitar 1 & 2 w/ Distortion)
e|---------------------------------------------------------------------------|
B|---------------------------------------------------------------------------|
G|----------6-6-6-6-----------8-8-8-8-------------6-6-6-6-----------5-5-5-5--|
D|-3-3-3-3--6-6-6-6--6-6-6-6--8-8-8-8----3-3-3-3--6-6-6-6--6-6-6-6--5-5-5-5--|
A|-3-3-3-3--4-4-4-4--6-6-6-6--6-6-6-6----3-3-3-3--4-4-4-4--6-6-6-6--3-3-3-3--|
E|-1-1-1-1-----------4-4-4-4-------------1-1-1-1-----------4-4-4-4-----------|

Chorus: (Guitar 1 & 2 w/ Distortion)
e|--------------------------------------------------------------------------------------|
B|--------------------------------------------------------------------------------------|
G|----------6-6-6-6-----------8-8-8-8-------------6-6-6-6-----------5-5-5-5-5-5-5-5-5---|
D|-3-3-3-3--6-6-6-6--6-6-6-6--8-8-8-8----3-3-3-3--6-6-6-6--6-6-6-6--5-5-5-5-5-5-5-5-5---|
A|-3-3-3-3--4-4-4-4--6-6-6-6--6-6-6-6----3-3-3-3--4-4-4-4--6-6-6-6--3-3-3-3-3-3-3-3-3---|
E|-1-1-1-1-----------4-4-4-4-------------1-1-1-1-----------4-4-4-4----------------------|

Ending: (Guitar 2 w/ Distortion)
e|--------------------------------------------------------------------|
B|--------------------------------------------------------------------|
G|-10-10----6-6-----------8888--(x3)----10-10----6-6----8------10-----|
D|-10-10----6-6----6-6----8888----------10-10----6-6----8--10--10--3--|
A|-8--8-----4-4----6-6----6666----------8--8-----4-4----6--10--8---3--|
E|-----------------4-4-------------------------------------8-------1--|

Lyrics:
(Verse)
Here The Sound Of The Falling Rain
Coming Down Like An Armageddon Flame [Hey!]
The Shame
The Ones Who Died Without A Name

Here The Dogs Howling Out Of Key
To A Hymn Called Faith And Misery [Hey!]
And Bleed
The Company Lost The War Today

(Chorus)
I Beg To Dream And Differ From The Hollow Lies
This Is The Dawning Of The Rest Of Our Lives
On Holiday

(Verse)
Hear The Drum Pounding Out Of Time
Another Protestor Has Crossed The Line [Hey!]
To Find
The Money’s On The Other Side

Can I Get Another Amen [Amen!]
There’s A Flag Rapped Around A Score Of Men [Hey!]
A Gag
A Plastic Bag On A Monument

(Chorus)
I Beg To Dream And Differ From The Hollow Lies
This Is The Dawning Of The Rest Of Our Lives
On Holiday

Lights Out!
Ready?

(Bridge)
The Representative From The United Kingdom Now Has The Floor

Zeig Heil To The President Gasman
Bombs Away Is Your Punishment

Pulverize The Eiffel Towers
Who Criticize Your Government

Bang, Bang Goes The Broken Glass Man
Kill All The Fags That Don’t Agree

Trials By Fire Setting Fire
Is Not The Way Meant For Me

Just Cause
Just Cause, Because We’re Outlaws
Yeah!

(Ending)
I Beg To Dream And Differ From The Hollow Lies
This Is The Dawning Of The Rest Of Our Lives

I Beg To Dream And Differ From The Hollow Lies
This Is The Dawning Of The Rest Of Our Lives
This Is Our Lives On Holiday!

----------------------------------------------------------------------------------
Green Day
Are We The Waiting
----------------------------------------------------------------------------------
Guitar 2 - Jason White (Standard Tuning)

Verse: (Guitar 2 w/ Distortion)
E|-------------------------------------------------------|
B|-------2------------2------------7-------------7-------|
G|-----2---2--------2---2--------7---7---------7---7-----|
D|---2-------2----2-------2----7-------7-----7-------7---|
A|-0------------0------------5------------5--------------|
E|-------------------------------------------------------|

E|-------------------------------------------------------|
B|-------2------------2------------7-------------7-------|
G|-----2---2--------2---2--------7---7---------7---7-----|
D|---2-------2----2-------2----7-------7-----7-------7---|
A|-0------------0------------5------------5--------------|
E|-------------------------------------------------------|

E|-------------------------------------------------------|
B|-------2------------2------------7-------------7-------|
G|-----2---2--------2---2--------7---7---------7---7-----|
D|---2-------2----2-------2----7-------7-----7-------7---|
A|-0------------0------------5------------5--------------|
E|-------------------------------------------------------|

E|-------------------------------------------------------|
B|-------2------------2------------7-------------7-------|
G|-----2---2--------2---2--------7---7---------7---7-----|
D|---2-------2----2-------2----7-------7-----7-------7---|
A|-0------------0------------5------------5--------------|
E|-------------------------------------------------------|

Chorus: (Guitar 2 w/ Distortion)
E|-----------------------------------------------------------------|
B|---------12----------------9--------------7--------------7-------|
G|------11----11-----------9---9----------7---7----------7---7-----|
D|---11----------11------9-------9------7-------7------7-------7---|
A|-9-------------------7--------------5--------------5-------------|
E|-----------------------------------------------------------------|

E|-----------------------------------------------------------------|
B|---------12----------------9--------------7--------------7-------|
G|------11----11-----------9---9----------7---7----------7---7-----|
D|---11----------11------9-------9------7-------7------7-------7---|
A|-9-------------------7--------------5--------------5-------------|
E|-----------------------------------------------------------------|

Verse: (Guitar 2 w/ Distortion)
E|-------------------------------------------------------|
B|-------2------------2------------7-------------7-------|
G|-----2---2--------2---2--------7---7---------7---7-----|
D|---2-------2----2-------2----7-------7-----7-------7---|
A|-0------------0------------5------------5--------------|
E|-------------------------------------------------------|

E|-------------------------------------------------------|
B|-------2------------2------------7-------------7-------|
G|-----2---2--------2---2--------7---7---------7---7-----|
D|---2-------2----2-------2----7-------7-----7-------7---|
A|-0------------0------------5------------5--------------|
E|-------------------------------------------------------|

Verse: (Guitar 2 w/ Distortion)
E|------------------------------------------------------|
B|-------2------------2------------7------------7-------|
G|-----2---2--------2---2--------7---7--------7---7-----|
D|---2-------2----2-------2----7-------7----7-------7---|
A|-0------------0------------5------------5-------------|
E|------------------------------------------------------|

E|-------------------------------------------------------|
B|-------2------------2------------7-------------7-------|
G|-----2---2--------2---2--------7---7---------7---7-----|
D|---2-------2----2-------2----7-------7-----7-------7---|
A|-0------------0------------5------------5--------------|
E|-------------------------------------------------------|

E|-------------------------------------------------------|
B|-------2------------2------------7-------------7-------|
G|-----2---2--------2---2--------7---7---------7---7-----|
D|---2-------2----2-------2----7-------7-----7-------7---|
A|-0------------0------------5------------5--------------|
E|-------------------------------------------------------|

Chorus: (Guitar 2 w/ Distortion)
E|-----------------------------------------------------------------|
B|---------12----------------9--------------7--------------7-------|
G|------11----11-----------9---9----------7---7----------7---7-----|
D|---11----------11------9-------9------7-------7------7-------7---|
A|-9-------------------7--------------5--------------5-------------|
E|-----------------------------------------------------------------|

E|-----------------------------------------------------------------|
B|---------12----------------9--------------7--------------7-------|
G|------11----11-----------9---9----------7---7----------7---7-----|
D|---11----------11------9-------9------7-------7------7-------7---|
A|-9-------------------7--------------5--------------5-------------|
E|-----------------------------------------------------------------|

Verse: (Guitar 2 w/ Distortion)
E|-------------------------------------------------------|
B|-------2------------2------------7-------------7-------|
G|-----2---2--------2---2--------7---7---------7---7-----|
D|---2-------2----2-------2----7-------7-----7-------7---|
A|-0------------0------------5------------5--------------|
E|-------------------------------------------------------|

E|-------------------------------------------------------|
B|-------2------------2------------7-------------7-------|
G|-----2---2--------2---2--------7---7---------7---7-----|
D|---2-------2----2-------2----7-------7-----7-------7---|
A|-0------------0------------5------------5--------------|
E|-------------------------------------------------------|

E|-------------------------------------------------------|
B|-------2------------2------------7-------------7-------|
G|-----2---2--------2---2--------7---7---------7---7-----|
D|---2-------2----2-------2----7-------7-----7-------7---|
A|-0------------0------------5------------5--------------|
E|-------------------------------------------------------|

E|-------------------------------------------------------|
B|-------2------------2------------7-------------7-------|
G|-----2---2--------2---2--------7---7---------7---7-----|
D|---2-------2----2-------2----7-------7-----7-------7---|
A|-0------------0------------5------------5--------------|
E|-------------------------------------------------------|

E|-------------------------------------------------------|
B|-------2------------2------------7-------------7-------|
G|-----2---2--------2---2--------7---7---------7---7-----|
D|---2-------2----2-------2----7-------7-----7-------7---|
A|-0------------0------------5------------5--------------|
E|-------------------------------------------------------|

Lyrics:
(Introduction)
We've Been A Band Now...
We've Been A Band Now For The Last Sixteen Years
And Not Only Is This The Best Fucking Tour We've Ever Had
But In The Past Two Day, We've Played To Over 130,000 People.
Thank You.
That's The Biggest We've Ever Had.
But Always Remember One Thing.
The Second Day Is Always Better Then The First.
This Song's Called 'St. Jimmy.'

(Verse)
Starry Nights
City Of Lights Coming Down Over Me
Skyscrapers
Stargazers In My Head

A We We Are
A We We Are The Waiting Unknown

(Chorus)
This Dirty Town Is Burning Down In My Dreams
Lost And Found, City Bound In My Dreams

(Verse)
And Screaming...

A We We Are
A We We Are The Waiting

And Screaming...

A We We Are
A We We Are The Waiting

Forget Me Nots
Second Thoughts Live In Isolation
Heads Or Tails
Fairytales In My Mind

A We We Are
A We We Are The Waiting Unknown

(Chorus)
The Rage And Love, Story Of My Life
The Jesus Of Suburbia Is A Lie

(Verse)
And Screaming...

A We We Are
A We We Are The Waiting

And Screaming...

A We We Are
A We We Are The Waiting Unknown

A We We Are
A We We Are The Waiting

And Screaming...

A We We Are
A We We Are The Waiting Unknown
A We We Are The Waiting Unknown

----------------------------------------------------------------------------------
Green Day
St. Jimmy
----------------------------------------------------------------------------------
Guitar 1 - Jason White (Standard Tuning)
Guitar 2 - Mike Pelino (Standard Tuning)

Introduction: (Guitar 1 w/ Distortion)(Palm Mute)
e|---------------------------------------------------------------------------|
B|---------------------------------------------------------------------------|
G|---------------------------------------------------------------------------|
D|---------------------------------------------------------------------------|
A|---00000000000000000000000000000000000000000000000000000000000000000000----|
E|---------------------------------------------------------------------------|

 (Guitar 2 w/ Distortion)
e|---------------------------------------------------------------------------|
B|---------------------------------------------------------------------------|
G|--------------7-------------7-------------7-------7-------7-----7---9-7----|
D|--7-----------7-7-----------7-7-----------7-7-----7-7-----7-7---7---9-7----|
A|--7-----------5-7-----------5-7-----------5-7-----5-7-----5-7---5---7-5----|
E|--5-------------5-------------5-------------5-------5-------5--------------|

Verse: (Guitars 1 & 2 w/ Distortion)
e|----------------------------------------------------|
B|----------------------------------------------------|
G|--------------7-7-7-7-7-7----9-9-9------------------| (x2)
D|-7-7-7-7-7----7-7-7-7-7-7----9-9-9----7-7-7-7-7-7---|
A|-7-7-7-7-7----5-5-5-5-5-5----7-7-7----7-7-7-7-7-7---|
E|-5-5-5-5-5----------------------------5-5-5-5-5-5---|

e|----------------------------------------------------|
B|----------------------------------------------------|
G|--------------7-7-7-7-7-7----9-9-9------------------|
D|-7-7-7-7-7----7-7-7-7-7-7----9-9-9----7-7-7-7-7-7---|
A|-7-7-7-7-7----5-5-5-5-5-5----7-7-7----7-7-7-7-7-7---|
E|-5-5-5-5-5----------------------------5-5-5-5-5-5---|

e|----------------------------------------------------|
B|----------------------------------------------------|
G|--------------7-7-7-7-7-7----9-9-9------------------|
D|-7-7-7-7-7----7-7-7-7-7-7----9-9-9----7-7-7-7-7-7---|
A|-7-7-7-7-7----5-5-5-5-5-5----7-7-7----7-7-7-7-7-7---|
E|-5-5-5-5-5----------------------------5-5-5-5-5-5---|

e|----------------------------------------------------|
B|----------------------------------------------------|
G|--------------7-7-7-7-7-7----9-9-9------------------|
D|-7-7-7-7-7----7-7-7-7-7-7----9-9-9----7-7-7-7-7-7---|
A|-7-7-7-7-7----5-5-5-5-5-5----7-7-7----7-7-7-7-7-7---|
E|-5-5-5-5-5----------------------------5-5-5-5-5-5---|

e|----------------------------------------------------|
B|----------------------------------------------------|
G|--------------7-7-7-7-7-7----9-9-9------------------|
D|-7-7-7-7-7----7-7-7-7-7-7----9-9-9----7-7-7-7-7-7---|
A|-7-7-7-7-7----5-5-5-5-5-5----7-7-7----7-7-7-7-7-7---|
E|-5-5-5-5-5----------------------------5-5-5-5-5-5---|

Chorus: (Guitars 1 & 2 w/ Distortion)
e|----------------------------------------------------------------------------|
B|----------------------------------------------------------------------------|
G|-7-7-7-7-7-7-7-7-----------------------7-7-7-7-7-7-7-7--9-9-9-9-9-9-9-9-9-9-|
D|-7-7-7-7-7-7-7-7--7-7-7-7-7-7-7-7-7-7--7-7-7-7-7-7-7-7--9-9-9-9-9-9-9-9-9-9-|
A|-5-5-5-5-5-5-5-5--7-7-7-7-7-7-7-7-7-7--5-5-5-5-5-5-5-5--7-7-7-7-7-7-7-7-7-7-|
E|------------------5-5-5-5-5-5-5-5-5-5---------------------------------------|

e|----------------------------------------------------|
B|----------------------------------------------------|
G|--------------7-7-7-7-7-7----9-9-9------------------| (x2)
D|-7-7-7-7-7----7-7-7-7-7-7----9-9-9----7-7-7-7-7-7---|
A|-7-7-7-7-7----5-5-5-5-5-5----7-7-7----7-7-7-7-7-7---|
E|-5-5-5-5-5----------------------------5-5-5-5-5-5---|

e|----------------------------------------------------|
B|----------------------------------------------------|
G|--------------7-7-7-7-7-7----9-9-9------------------|
D|-7-7-7-7-7----7-7-7-7-7-7----9-9-9----7-7-7-7-7-7---|
A|-7-7-7-7-7----5-5-5-5-5-5----7-7-7----7-7-7-7-7-7---|
E|-5-5-5-5-5----------------------------5-5-5-5-5-5---|

e|----------------------------------------------------|
B|----------------------------------------------------|
G|--------------7-7-7-7-7-7----9-9-9------------------|
D|-7-7-7-7-7----7-7-7-7-7-7----9-9-9----7-7-7-7-7-7---|
A|-7-7-7-7-7----5-5-5-5-5-5----7-7-7----7-7-7-7-7-7---|
E|-5-5-5-5-5----------------------------5-5-5-5-5-5---|

e|----------------------------------------------------|
B|----------------------------------------------------|
G|--------------7-7-7-7-7-7----9-9-9------------------|
D|-7-7-7-7-7----7-7-7-7-7-7----9-9-9----7-7-7-7-7-7---|
A|-7-7-7-7-7----5-5-5-5-5-5----7-7-7----7-7-7-7-7-7---|
E|-5-5-5-5-5----------------------------5-5-5-5-5-5---|

e|----------------------------------------------------|
B|----------------------------------------------------|
G|--------------7-7-7-7-7-7----9-9-9------------------|
D|-7-7-7-7-7----7-7-7-7-7-7----9-9-9----7-7-7-7-7-7---|
A|-7-7-7-7-7----5-5-5-5-5-5----7-7-7----7-7-7-7-7-7---|
E|-5-5-5-5-5----------------------------5-5-5-5-5-5---|

Chorus: (Guitars 1 & 2 w/ Distortion)
e|----------------------------------------------------------------------------|
B|----------------------------------------------------------------------------|
G|-7-7-7-7-7-7-7-7-----------------------7-7-7-7-7-7-7-7--9-9-9-9-9-9-9-9-9-9-|
D|-7-7-7-7-7-7-7-7--7-7-7-7-7-7-7-7-7-7--7-7-7-7-7-7-7-7--9-9-9-9-9-9-9-9-9-9-|
A|-5-5-5-5-5-5-5-5--7-7-7-7-7-7-7-7-7-7--5-5-5-5-5-5-5-5--7-7-7-7-7-7-7-7-7-7-|
E|------------------5-5-5-5-5-5-5-5-5-5---------------------------------------|

Bridge: (Guitars 1 & 2 w/ Distortion)
e|---------------------------------------------------------------------|
B|---------------------------------------------------------------------|
G|-----------7-----7----9-9-9-9-9-9-9-9-9-9-9--------------------------| (x2)
D|--7--------7--7--7----9-9-9-9-9-9-9-9-9-9-9--------------------------|
A|--7--------5--7--5----7-7-7-7-7-7-7-7-7-7-7--------------------------|
E|--5-----------5------------------------------------------------------|

e|---------------------------------------------------------------------|
B|---------------------------------------------------------------------|
G|-----------7-----7----9-9-9-9-9-9-9-9-9-9-9--------------------------|
D|--7--------7--7--7----9-9-9-9-9-9-9-9-9-9-9--------------------------|
A|--7--------5--7--5----7-7-7-7-7-7-7-7-7-7-7--------------------------|
E|--5-----------5------------------------------------------------------|

e|---------------------------------------------------------------------|
B|---------------------------------------------------------------------|
G|-----------7-----7----9-9-9-9-9-9-9-9-9-9-9--------------------------|
D|--7--------7--7--7----9-9-9-9-9-9-9-9-9-9-9--------------------------|
A|--7--------5--7--5----7-7-7-7-7-7-7-7-7-7-7--------------------------|
E|--5-----------5------------------------------------------------------|

e|-------------------------------------------------------------|
B|-------------------------------------------------------------|
G|--------------9-9-9-9-9-9----------------------8-8-8-8-8-8---| (x3)
D|-7-7-7-7-7----9-9-9-9-9-9----10-10-10-10-10----8-8-8-8-8-8---|
A|-7-7-7-7-7----7-7-7-7-7-7----10-10-10-10-10----6-6-6-6-6-6---|
E|-5-5-5-5-5-------------------8--8--8--8--8-------------------|

e|-------------------------------------------------------------|
B|-------------------------------------------------------------|
G|--------------9-9-9-9-9-9----------------------8-8-8-8-8-8---|
D|-7-7-7-7-7----9-9-9-9-9-9----10-10-10-10-10----8-8-8-8-8-8---|
A|-7-7-7-7-7----7-7-7-7-7-7----10-10-10-10-10----6-6-6-6-6-6---|
E|-5-5-5-5-5-------------------8--8--8--8--8-------------------|

e|---------------------------------------------------------------------------|
B|---------------------------------------------------------------------------|
G|-------------7-7-7-7----9-9-9-9----14-14-14-14-----------------------------|
D|--7-7-7-7----7-7-7-7----9-9-9-9----14-14-14-14-----------------------------|
A|--7-7-7-7----5-5-5-5----7-7-7-7----12-12-12-12-----------------------------|
E|--5-5-5-5------------------------------------------------------------------|

e|---------------------------------------------------------------------------|
B|---------------------------------------------------------------------------|
G|-------------7-7-7-7----9-9-9-9-9-9-9-9-9-9-9-9----------------------------|
D|--7-7-7-7----7-7-7-7----9-9-9-9-9-9-9-9-9-9-9-9----------------------------|
A|--7-7-7-7----5-5-5-5----7-7-7-7-7-7-7-7-7-7-7-7----------------------------|
E|--5-5-5-5------------------------------------------------------------------|

Guitar Solo: (Guitar 1 w/ Distortion)
e|------------------------------------12---|
B|--/5-5---5\3-3-3---3/8-8--7--10--10------|
G|-----------------------------------------|
D|-----------------------------------------|
A|-----------------------------------------|
E|-----------------------------------------|

Verse: (Guitar 2 w/ Distortion)
e|-------------------------------------------------------------|
B|-------------------------------------------------------------|
G|--------------7-7-7-7-7-------------7-7-7--------------------|
D|-7-7-7-7-7----7-7-7-7-7----5-5-5----7-7-7----7-7-7-7-7-7-7---|
A|-7-7-7-7-7----5-5-5-5-5----5-5-5----5-5-5----7-7-7-7-7-7-7---|
E|-5-5-5-5-5-----------------3-3-3-------------5-5-5-5-5-5-5---|

e|-------------------------------------------------------------|
B|-------------------------------------------------------------|
G|--------------7-7-7-7-7-------------7-7-7--------------------|
D|-7-7-7-7-7----7-7-7-7-7----5-5-5----7-7-7----7-7-7-7-7-7-7---|
A|-7-7-7-7-7----5-5-5-5-5----5-5-5----5-5-5----7-7-7-7-7-7-7---|
E|-5-5-5-5-5-----------------3-3-3-------------5-5-5-5-5-5-5---|

e|-------------------------------------------------------------|
B|-------------------------------------------------------------|
G|--------------7-7-7-7-7-------------7-7-7--------------------|
D|-7-7-7-7-7----7-7-7-7-7----5-5-5----7-7-7----7-7-7-7-7-7-7---|
A|-7-7-7-7-7----5-5-5-5-5----5-5-5----5-5-5----7-7-7-7-7-7-7---|
E|-5-5-5-5-5-----------------3-3-3-------------5-5-5-5-5-5-5---|

e|-------------------------------------------------------------|
B|-------------------------------------------------------------|
G|--------------7-7-7-7-7-------------7-7-7--------------------|
D|-7-7-7-7-7----7-7-7-7-7----5-5-5----7-7-7----7-7-7-7-7-7-7---|
A|-7-7-7-7-7----5-5-5-5-5----5-5-5----5-5-5----7-7-7-7-7-7-7---|
E|-5-5-5-5-5-----------------3-3-3-------------5-5-5-5-5-5-5---|

Ending: (Guitar 1 & 2 w/ Distortion)
e|----------------------------------|
B|----------------------------------|
G|--------7---------------------7---|
D|--7--7--7----2--2--7----7--7--7---|
A|--7--7--5----2--2--7----7--7--5---|
E|--5--5-------0--0--5----5--5------|

e|----------------------|
B|----------------------|
G|----------------------|
D|-2-2-2-2-2--7-7-7-7---|
A|-2-2-2-2-2--7-7-7-7---|
E|-0-0-0-0-0--5-5-5-5---|

e|---------|
B|---------|
G|---------|
D|-7-7-7-7-|
A|-7-7-7-7-|
E|-5-5-5-5-|

Lyrics:
(Introduction)
St. Jimmy's comin' down across the alleyway
Up on the boulevard like a zip gun on parade
Light of a silhouette
He's insubordinate
Coming at you on the count of 1,2,1,2,3,4!

(Verse)
My name is Jimmy and you better not wear it out
Suicide commando that your momma talked about
King of the forty thieves
And I'm here to represent
That needle in the vein of the establishment

(Chorus)
I'm the patron saint of the denial
With an angel face and a taste for suicidal

(Verse)
Cigarettes and ramen and a little bag of dope
I am the son of a bitch and Edgar Allen Poe
Raised in the city under a halo of lights
The product of war and fear that we've been victimized

(Chorus)
I'm the patron saint of the denial
With an angel face and a taste for suicidal

(Bridge)
Are you talking to me!?!?!

ST. JIMMY!

(Verse)
My name is St. Jimmy I'm a son of a gun
I'm the one that's from the way outside
I'm a teenage assassin executing some fun
In the cult of the life of crime.

I really hate to say it but I told you so
So shut your mouth before I shoot you down old boy
Welcome to the club and give me some blood
And the resident leader at the lost and found

(Ending)
It's comedy and tragedy
It's St. Jimmy
And that's my name...

And don't you fucking wear it out!

----------------------------------------------------------------------------------
Green Day
Longview
----------------------------------------------------------------------------------
Guitar 1 - Billie Joe Armstrong (Standard Tuning)

Intro: (Bass Line Written For Guitar 1 w/ Distortion)(Palm Muting)
E|----------------------------------------------------------------|
B|----------------------------------------------------------------|
G|--------------------xx----xxxx----xx----------------------------|
D|--------------------xx----xxxx----xx----------------------------|
A|-0------------------xx----xxxx----xx----------------------------|
E|---(Let-It-Ring)----xx----xxxx----xx----12-(Slide-Down)-1-------|

Verse: (Bass Line Written For Guitar 1 w/ Distortion)(Palm Muting)
E|--------------------------------------------------------|
B|--------------------------------------------------------|
G|--------------------------------------------------------| (x3)
D|-------------------------------------------8--6--5--6---|
A|------8--6--5-----6--5------------8--6--5---------------|
E|-4h6-----------4--------4----4h6------------------------|

E|--------------------------------------------------------|
B|--------------------------------------------------------|
G|--------------------------------------------------------|
D|-------------------------------------------8--6--5--6---|
A|------8--6--5-----6--5------------8--6--5---------------|
E|-4h6-----------4--------4----4h6------------------------|

E|--------------------------------------------------------|
B|--------------------------------------------------------|
G|--------------------------------------------------------|
D|-------------------------------------------8--6--5--6---|
A|------8--6--5-----6--5------------8--6--5---------------|
E|-4h6-----------4--------4----4h6------------------------|

E|--------------------------------------------------------|
B|--------------------------------------------------------|
G|--------------------------------------------------------|
D|-------------------------------------------8--6--5--6---|
A|------8--6--5-----6--5------------8--6--5---------------|
E|-4h6-----------4--------4----4h6------------------------|

E|-------------------------------------------|
B|-------------------------------------------|
G|-------------------------------------------|
D|-------------------------------------------|
A|------8--6--5-----6--5------------8--6--5--|
E|-4h6-----------4--------4----4h6-----------|

Pre-Chorus: (Guitar 1 w/ Heavy Distortion)
E|------------|
B|------------|
G|-6666666666-|
D|-6666666666-|
A|-4444444444-|
E|------------|

Chorus: (Guitar 1 w/ Heavy Distortion)
E|----------------------------------------------------------------|
B|----------------------------------------------------------------|
G|-------------------6-6------------------------------------------|
D|-8-8-8-8----6-6----6-6------------------------------------------|
A|-8-8-8-8----6-6----4-4------------------------------------------|
E|-6-6-6-6----4-4-------------------------------------------------|

E|----------------------------------------------------------------|
B|----------------------------------------------------------------|
G|-------------------6-6------------------------------------------|
D|-8-8-8-8----6-6----6-6------------------------------------------|
A|-8-8-8-8----6-6----4-4------------------------------------------|
E|-6-6-6-6----4-4-------------------------------------------------|

E|----------------------------------------------------------------|
B|----------------------------------------------------------------|
G|-------------------6-6------------------------------------------|
D|-8-8-8-8----6-6----6-6------------------------------------------|
A|-8-8-8-8----6-6----4-4------------------------------------------|
E|-6-6-6-6----4-4-------------------------------------------------|

E|-------------------------------------------------------------|
B|-------------------------------------------------------------|
G|-----------------------8-------------------------------------|
D|-8-8-8-8----6-6-6-6----8-------------------------------------|
A|-8-8-8-8----6-6-6-6----6-------------------------------------|
E|-6-6-6-6----4-4-4-4---------(Let-It-Ring)--------------------|

Bridge: (Bass Line Written For Guitar 1 w/ Distortion)(Palm Muting)
E|----------------------------------------------------------------|
B|----------------------------------------------------------------|
G|-----6-------8---6-5-3------------------------------------------|
D|-------6-6h8---8-0-----6----------------------------------------|
A|-8p6------------------------------------------------------------|
E|----------------------------------------------------------------|

E|----------------------------------------------------------------|
B|----------------------------------------------------------------|
G|-----6-------8---6-5-3------------------------------------------|
D|-------6-6h8---8-0-----6----------------------------------------|
A|-8p6------------------------------------------------------------|
E|----------------------------------------------------------------|

Verse: (Bass Line Written For Guitar 1 w/ Distortion)(Palm Muting)
E|--------------------------------------------------------|
B|--------------------------------------------------------|
G|--------------------------------------------------------|
D|-------------------------------------------8--6--5--6---|
A|------8--6--5-----6--5------------8--6--5---------------|
E|-4h6-----------4--------4----4h6------------------------|

E|--------------------------------------------------------|
B|--------------------------------------------------------|
G|--------------------------------------------------------|
D|-------------------------------------------8--6--5--6---|
A|------8--6--5-----6--5------------8--6--5---------------|
E|-4h6-----------4--------4----4h6------------------------|

E|--------------------------------------------------------|
B|--------------------------------------------------------|
G|--------------------------------------------------------|
D|-------------------------------------------8--6--5--6---|
A|------8--6--5-----6--5------------8--6--5---------------|
E|-4h6-----------4--------4----4h6------------------------|

E|-------------------------------------------|
B|-------------------------------------------|
G|-------------------------------------------|
D|-------------------------------------------|
A|------8--6--5-----6--5------------8--6--5--|
E|-4h6-----------4--------4----4h6-----------|

Pre-Chorus: (Guitar 1 w/ Heavy Distortion)
E|----------------------------------------------------------------|
B|----------------------------------------------------------------|
G|-6666666666-----------------------------------------------------|
D|-6666666666-----------------------------------------------------|
A|-4444444444-----------------------------------------------------|
E|----------------------------------------------------------------|

Chorus: (Guitar 1 w/ Heavy Distortion)
E|----------------------------------------------------------------|
B|----------------------------------------------------------------|
G|-------------------6-6------------------------------------------|
D|-8-8-8-8----6-6----6-6------------------------------------------|
A|-8-8-8-8----6-6----4-4------------------------------------------|
E|-6-6-6-6----4-4-------------------------------------------------|

E|----------------------------------------------------------------|
B|----------------------------------------------------------------|
G|-------------------6-6------------------------------------------|
D|-8-8-8-8----6-6----6-6------------------------------------------|
A|-8-8-8-8----6-6----4-4------------------------------------------|
E|-6-6-6-6----4-4-------------------------------------------------|

E|----------------------------------------------------------------|
B|----------------------------------------------------------------|
G|-------------------6-6------------------------------------------|
D|-8-8-8-8----6-6----6-6------------------------------------------|
A|-8-8-8-8----6-6----4-4------------------------------------------|
E|-6-6-6-6----4-4-------------------------------------------------|

E|-----------------------|
B|-----------------------|
G|-----------------------|
D|-8-8-8-8----6-6-6-6----|
A|-8-8-8-8----6-6-6-6----|
E|-6-6-6-6----4-4-4-4----|

Interlude: (Guitar 1 w/ Heavy Distortion)
E|---------------------|
B|---------------------|
G|-8-8-8-8----6-6-6-6--|
D|-8-8-8-8----6-6-6-6--|
A|-6-6-6-6----4-4-4-4--|
E|---------------------|

E|---------------------|
B|---------------------|
G|-8-8-8-8----6-6-6-6--|
D|-8-8-8-8----6-6-6-6--|
A|-6-6-6-6----4-4-4-4--|
E|---------------------|

E|---------------------|
B|---------------------|
G|-8-8-8-8----6-6-6-6--|
D|-8-8-8-8----6-6-6-6--|
A|-6-6-6-6----4-4-4-4--|
E|---------------------|

E|---------------------|
B|---------------------|
G|-8-8-8-8----6-6-6-6--|
D|-8-8-8-8----6-6-6-6--|
A|-6-6-6-6----4-4-4-4--|
E|---------------------|

Instrumental: (Guitar 1 w/ Heavy Distortion)
E|----------------------------------------------------------------|
B|----------------------------------------------------------------|
G|-------------------6-6------------------------------------------| (x3)
D|-8-8-8-8----6-6----6-6------------------------------------------|
A|-8-8-8-8----6-6----4-4------------------------------------------|
E|-6-6-6-6----4-4-------------------------------------------------|

E|-------------------------------------------------------------|
B|-------------------------------------------------------------|
G|-----------------------8-------------------------------------|
D|-8-8-8-8----6-6-6-6----8-------------------------------------|
A|-8-8-8-8----6-6-6-6----6-------------------------------------|
E|-6-6-6-6----4-4-4-4---------(Let-It-Ring)--------------------|

Bridge: (Bass Line Written For Guitar 1 w/ Distortion)(Palm Muting)
E|----------------------------------------------------------------|
B|----------------------------------------------------------------|
G|-----6-------8---6-5-3------------------------------------------| (x4)
D|-------6-6h8---8-0-----6----------------------------------------|
A|-8p6------------------------------------------------------------|
E|----------------------------------------------------------------|

E|----------------------------------------------------------------|
B|----------------------------------------------------------------|
G|-----6-------8---6-5-3------------------------------------------|
D|-------6-6h8---8-0-----6----------------------------------------|
A|-8p6------------------------------------------------------------|
E|----------------------------------------------------------------|

E|----------------------------------------------------------------|
B|----------------------------------------------------------------|
G|-----6-------8---6-5-3------------------------------------------|
D|-------6-6h8---8-0-----6----------------------------------------|
A|-8p6------------------------------------------------------------|
E|----------------------------------------------------------------|

E|----------------------------------------------------------------|
B|----------------------------------------------------------------|
G|-----6-------8---6-5-3------------------------------------------|
D|-------6-6h8---8-0-----6----------------------------------------|
A|-8p6------------------------------------------------------------|
E|----------------------------------------------------------------|

E|----------------------------------------------------------------|
B|----------------------------------------------------------------|
G|-----6-------8---6-5-3------------------------------------------|
D|-------6-6h8---8-0-----6----------------------------------------|
A|-8p6------------------------------------------------------------|
E|----------------------------------------------------------------|

E|--------------------------------------------------------|
B|--------------------------------------------------------|
G|--------------------------------------------------------|
D|-------------------------------------------8--6--5--6---|
A|------8--6--5-----6--5------------8--6--5---------------|
E|-4h6-----------4--------4----4h6------------------------|

E|-------------------------------------------|
B|-------------------------------------------|
G|-------------------------------------------|
D|-------------------------------------------|
A|------8--6--5-----6--5------------8--6--5--|
E|-4h6-----------4--------4----4h6-----------|

Pre-Chorus: (Guitar 1 w/ Heavy Distortion)
E|----------------------------------------------------------------|
B|----------------------------------------------------------------|
G|-666666666666666666---------------------------------------------|
D|-666666666666666666--6------------------------------------------|
A|-444444444444444444--6------------------------------------------|
E|---------------------4--0---------------------------------------|

Chorus: (Guitar 1 w/ Heavy Distortion)
E|----------------------------------------------------------------|
B|----------------------------------------------------------------|
G|-------------------6-6------------------------------------------|
D|-8-8-8-8----6-6----6-6------------------------------------------|
A|-8-8-8-8----6-6----4-4------------------------------------------|
E|-6-6-6-6----4-4-------------------------------------------------|

E|----------------------------------------------------------------|
B|----------------------------------------------------------------|
G|-------------------6-6------------------------------------------|
D|-8-8-8-8----6-6----6-6------------------------------------------|
A|-8-8-8-8----6-6----4-4------------------------------------------|
E|-6-6-6-6----4-4-------------------------------------------------|

E|----------------------------------------------------------------|
B|----------------------------------------------------------------|
G|-------------------6-6------------------------------------------|
D|-8-8-8-8----6-6----6-6------------------------------------------|
A|-8-8-8-8----6-6----4-4------------------------------------------|
E|-6-6-6-6----4-4-------------------------------------------------|

E|----------------------------------------------------------------|
B|----------------------------------------------------------------|
G|-------------------6-6------------------------------------------|
D|-8-8-8-8----6-6----6-6------------------------------------------|
A|-8-8-8-8----6-6----4-4------------------------------------------|
E|-6-6-6-6----4-4-------------------------------------------------|

E|----------------------------------------------------------------|
B|----------------------------------------------------------------|
G|-------------------6-6------------------------------------------|
D|-8-8-8-8----6-6----6-6------------------------------------------|
A|-8-8-8-8----6-6----4-4------------------------------------------|
E|-6-6-6-6----4-4-------------------------------------------------|

E|----------------------------------------------------------------|
B|----------------------------------------------------------------|
G|-------------------6-6------------------------------------------|
D|-8-8-8-8----6-6----6-6------------------------------------------|
A|-8-8-8-8----6-6----4-4------------------------------------------|
E|-6-6-6-6----4-4-------------------------------------------------|

E|----------------------------------------------------------------|
B|----------------------------------------------------------------|
G|-------------------6-6------------------------------------------|
D|-8-8-8-8----6-6----6-6------------------------------------------|
A|-8-8-8-8----6-6----4-4------------------------------------------|
E|-6-6-6-6----4-4-------------------------------------------------|

E|-------------------------------------------------------------|
B|-------------------------------------------------------------|
G|-----------------------8-------------------------------------|
D|-8-8-8-8----6-6-6-6----8-------------------------------------|
A|-8-8-8-8----6-6-6-6----6-------------------------------------|
E|-6-6-6-6----4-4-4-4---------(Let-It-Ring)--------------------|

Ending: (Bass Line Written For Guitar 1 w/ Distortion)(Palm Muting)
E|----------------------------------------------------------------|
B|----------------------------------------------------------------|
G|-----6-------8---6-5-3------------------------------------------|(x10)
D|-------6-6h8---8-0-----6----------------------------------------|
A|-8p6------------------------------------------------------------|
E|----------------------------------------------------------------|

 (Guitar 1 w/ Heavy Distortion)
E|---------------------11-----------------------------------------|
B|-8-9-9-6----6-8-9-11--------------------------------------------|
G|-8-8-8-6----6-8-8-----------------------------------------------|(x5)
D|----------------------------------------------------------------|
A|----------------------------------------------------------------|
E|----------------------------------------------------------------|

E|---------------------------------------------------------------------------|
B|---------------------------------------------------------------------------|
G|-666666666666666666666666666666--66--6----6---6---6---6---6---6---6---6----|
D|-666666666666666666666666666666--66--6----6-6-6-6-6-6-6-6-6-6-6-6-6-6-6-6--|
A|-444444444444444444444444444444--44--4----4-6-4-6-4-6-4-6-4-6-4-6-4-6-4-6--|
E|--------------------------------------------4---4---4---4---4---4---4---4--|

E|-------------------------------------------------------------------------------|
B|-6--7--9--7--9--7--9--7--9--7--9--7--6--7--9--7--6--7--9--7--6-----------------|
G|-6--6--6--6--6--6--6--6--6--6--6--6--6--6--6--6--6--6--6--6--6-----------------|
D|----------------------------------------------------------------(Let-It-Ring)--|
A|-------------------------------------------------------------------------------|
E|-------------------------------------------------------------------------------|

Lyrics:
(Introduction)
Hi!  Boom!

(Verse)
Sit around and watch the tube, but nothing's on
Change the channels for an hour or two
Twiddle my thumbs just for a bit
Go!
I'm sick of all the same old shit
In a house with unlocked doors and I'm fucking lazy

(Chorus)
Bite my lip and close my eyes
Take me away to paradise
I'm so damn bored I'm going blind
And I smell like shit

(Verse)
Peel me off this velcro seat and get me moving
I sure as hell can't do it by myself
I'm feeling like a dog in heat
Barred indoors from the summer street
I locked the door to my own cell and I lost the key

(Chorus)
Bite my lip and close my eyes
Take me away to paradise
I'm so damn bored I'm going blind
And I smell like shit

(Interlude)
I got no motivation
Where is my motivation?
No time for the motivation
Smoking my inspiration

(Verse)
Sit around and watch the phone, but no one's calling
Call me pathetic, call me what you will
My mother says to get a job
But she don't like the one she's got
Go!
When masturbation's lost its fun
You're fucking breaking

(Chorus)
Bite my lip and close my eyes
Take me away to paradise
I'm so damn bored
I'm going blind
And loneliness has to suffice
Bite my lip and close my eyes
I was slipping away to paradise
Some say,"Quit or I'll go blind."
But it's just a myth

----------------------------------------------------------------------------------
Green Day
Hitchin' A Ride
----------------------------------------------------------------------------------
Guitar 1 - Billie Joe Armstrong (Tuned Down Half of a Step)

I think that Billie Joe plays over a recording of the song, but I'm not sure.  If he
playing over the top of a recording, it is weird how he gets such a good sound out of 
guitar.

Verse: (Guitar 1 w/ Distortion)
E|--------------------------|
B|--------------------------|
G|--------------------------| (x4)
D|-99----77----66----5555---|
A|-99----77----66----5555---|
E|-77----55----44----3333---|

E|--------------------------|
B|--------------------------|
G|--------------------------|
D|-99----77----66----5555---|
A|-99----77----66----5555---|
E|-77----55----44----3333---|

E|--------------------------|
B|--------------------------|
G|--------------------------|
D|-99----77----66----5555---|
A|-99----77----66----5555---|
E|-77----55----44----3333---|

E|--------------------------|
B|--------------------------|
G|--------------------------|
D|-99----77----66----5555---|
A|-99----77----66----5555---|
E|-77----55----44----3333---|

E|--------------------------|
B|--------------------------|
G|--------------------------|
D|-99----77----66----5555---|
A|-99----77----66----5555---|
E|-77----55----44----3333---|

E|--------------------------|
B|--------------------------|
G|--------------------------|
D|-99----77----66----5555---|
A|-99----77----66----5555---|
E|-77----55----44----3333---|

E|--------------------------|
B|--------------------------|
G|--------------------------|
D|-99----77----66----5555---|
A|-99----77----66----5555---|
E|-77----55----44----3333---|

E|--------------------------|
B|--------------------------|
G|--------------------------|
D|-99----77----66----5555---|
A|-99----77----66----5555---|
E|-77----55----44----3333---|

E|--------------------------|
B|--------------------------|
G|--------------------------|
D|-99----77----66----5555---|
A|-99----77----66----5555---|
E|-77----55----44----3333---|

Instrumental: (Guitar 1 w/ Distortion)
E|--------------------------|
B|--------------------------|
G|--------------------------|
D|-99----77----66----5555---|
A|-99----77----66----5555---|
E|-77----55----44----3333---|

E|--------------------------|
B|--------------------------|
G|--------------------------|
D|-99----77----66----5555---|
A|-99----77----66----5555---|
E|-77----55----44----3333---|

E|--------------------------|
B|--------------------------|
G|--------------------------|
D|-99----77----66----5555---|
A|-99----77----66----5555---|
E|-77----55----44----3333---|

E|-----------------|
B|-----------------|
G|-----------------|
D|-99----77----66--|
A|-99----77----66--|
E|-77----55----44--|

Verse: (Guitar 1 w/ Distortion)(Palm Mute)
E|--------------------------|
B|--------------------------|
G|--------------------------|
D|-99----77----66----5555---|
A|-99----77----66----5555---|
E|-77----55----44----3333---|

E|--------------------------|
B|--------------------------|
G|--------------------------|
D|-99----77----66----5555---|
A|-99----77----66----5555---|
E|-77----55----44----3333---|

E|--------------------------|
B|--------------------------|
G|--------------------------|
D|-99----77----66----5555---|
A|-99----77----66----5555---|
E|-77----55----44----3333---|

E|--------------------------|
B|--------------------------|
G|--------------------------|
D|-99----77----66----5555---|
A|-99----77----66----5555---|
E|-77----55----44----3333---|

E|--------------------------|
B|--------------------------|
G|--------------------------|
D|-99----77----66----5555---|
A|-99----77----66----5555---|
E|-77----55----44----3333---|

E|--------------------------|
B|--------------------------|
G|--------------------------|
D|-99----77----66----5555---|
A|-99----77----66----5555---|
E|-77----55----44----3333---|

E|--------------------------|
B|--------------------------|
G|--------------------------|
D|-99----77----66----5555---|
A|-99----77----66----5555---|
E|-77----55----44----3333---|

E|--------------------------|
B|--------------------------|
G|--------------------------|
D|-99----77----66----5555---|
A|-99----77----66----5555---|
E|-77----55----44----3333---|

Instrumental: (Guitar 1 w/ Distortion)
E|--------------------------|
B|--------------------------|
G|--------------------------| (x4)
D|-99----77----66----5555---|
A|-99----77----66----5555---|
E|-77----55----44----3333---|

Chorus: (Guitar 1 w/ Distortion)
E|--------------------------------------------------------|
B|--------------------------------------------------------|
G|--------------------------------------------------------|
D|-2222----4444----99----77----66----55----2222----4444---|
A|-2222----4444----99----77----66----55----2222----4444---|
E|-0000----2222----77----55----44----33----0000----2222---|

Interlude: (Bass Guitar)
E|--------------------------|
B|--------------------------|
G|--------------------------| (x76)
D|--------------------------|
A|--------------------------|
E|-77----55----44----3333---|

(Start Singing Now...)
E|--------------------------|
B|--------------------------|
G|--------------------------|
D|--------------------------|
A|--------------------------|
E|-77----55----44----3333---|

E|--------------------------|
B|--------------------------|
G|--------------------------|
D|--------------------------|
A|--------------------------|
E|-77----55----44----3333---|

E|--------------------------|
B|--------------------------|
G|--------------------------|
D|--------------------------|
A|--------------------------|
E|-77----55----44----3333---|

Guitar Solo: (Guitar 1 w/ Distortion)
E|--------------------------------------------------------------------------|
B|--------------------------------------------------------------------------|
G|-4444444-7777777-4444444-----------4444444-7777777-9999999-10101010101010-|
D|-4444444-7777777-4444444-5555-4444-4444444-7777777-9999999-10101010101010-|
A|-2222222-5555555-2222222-5555-4444-2222222-5555555-7777777--8-8-8-8-8-8-8-|
E|-------------------------3333-2222----------------------------------------|

E|--------------------------------------------------------------------------|
B|--------------------------------------------------------------------------|
G|-99-77----77-99-77----77-99-77----77----77----------77-99-77----77-99-77--|
D|-99-77-99-77-99-77-99-77-99-77-99-77-99-77-99-77-99-77-99-77-99-77-99-77--|
A|-77-55-99-55-77-55-99-55-77-55-99-55-99-55-99-77-99-55-77-55-99-55-77-55--|
E|-------77----------77----------77----77----77-55-77----------77-----------|

E|-----------------------------|
B|-----------------------------|
G|-99999999--1010101010101010--|
D|-99999999--1010101010101010--|
A|-77777777--8-8-8-8-8-8-8-8---|
E|-----------------------------|

Chorus: (Guitars 1 w/ Distortion)
E|--------------------------------------------------------|
B|--------------------------------------------------------|
G|--------------------------------------------------------|
D|-2222----4444----99----77----66----55----2222----4444---|
A|-2222----4444----99----77----66----55----2222----4444---|
E|-0000----2222----77----55----44----33----0000----2222---|

Ending: (Guitar 1 w/ Distortion)
E|--------------------------|
B|--------------------------|
G|-------77-----------------|
D|-99----77----55----4444---|
A|-99----55----55----4444---|
E|-77----------33----2222---|

E|--------------------------|
B|--------------------------|
G|-------77-----------------|
D|-99----77----55----4444---|
A|-99----55----55----4444---|
E|-77----------33----2222---|

E|--------------------------|
B|--------------------------|
G|-------77-----------------|
D|-99----77----55----4444---|
A|-99----55----55----4444---|
E|-77----------33----2222---|

E|--------------------------|
B|--------------------------|
G|-------77-----------------|
D|-99----77----55----4444---|
A|-99----55----55----4444---|
E|-77----------33----2222---|

E|--------------------------|
B|--------------------------|
G|-------77-----------------|
D|-99----77----55----4444---|
A|-99----55----55----4444---|
E|-77----------33----2222---|

E|--------------------------|
B|--------------------------|
G|-------77-----------------|
D|-99----77----55----4444---|
A|-99----55----55----4444---|
E|-77----------33----2222---|

E|--------------------------|
B|--------------------------|
G|-------77-----------------|
D|-99----77----55----4444---|
A|-99----55----55----4444---|
E|-77----------33----2222---|

E|--------------------4--|
B|--------------------4--|
G|--------------------4--|
D|-99----77----6-6----4--|
A|-99----77----6-6----2--|
E|-77----55----4-4----2--|

Lyrics:
(Introduction)
Boom!

(Verse)
Hey mister, where you headed?
Aren’t we in a hurry
Need a lift to happy hour
Say oh no

Do you brake for distilled spirits?
Need a break as well
All well that inebriates the guilt
1,2,1,2,3,4

(Verse)
Cold turkey getting stale
Tonight I’m eating crow
Fermented salmonella poison oak no

There’s a drought at the fountain of youth
Now I’m dehydrating
My tongue is swelling up
I say 1,2,1,2,3,4

(Chorus)
Troubled times
You know I cannot lie
I’m off the wagon and I’m
Hitchin’ a ride!

(Interlude)
Alright England!
Hey, Hey, Hey, Hey, Hey, Hey, Hey!
Now that's how you do it in England baby!
1,2,1,2,3,4
Are you ready?
And Stop!
Now you sound like you're fucking ready!
This is what I need.
This is what it's going take.
This is what it's going take.
I need every single person here in Milton Keynes to freak out.
But first, I need everyone here in Milton Keynes to scream '1,2,1,2,3,4!'
You ready?

1,2,1,2,3,4
1,2,1,2,3,4
1,2,1,2,3,4
1,2,1,2,3,4

(Verse)
There’s drought at the fountain of youth
Now I’m dehydrating
My tongue is swelling up
I say 1,2,1,2,3,4

(Guitar Solo)
Shit!

(Chorus)
Troubled times
You know I cannot lie
I’m off the wagon and I’m
Hitchin’ a ride

(Ending)
Hitchin’ a ride
Hitchin’ a ride
Hitchin’ a ride
C'mon!
Hitchin’ a ride
Hitchin’ a ride
Hitchin’ a ride
Hitchin’ a ride
Say One, Play One, Play!

----------------------------------------------------------------------------------
Green Day
Brain Stew
----------------------------------------------------------------------------------
Guitar 1 - Billie Joe Armstrong (Tuned Down Half of a Step)

Introduction: (Guitar 1 w/ Distortion)
E|-7b----5----5-5----5-5----5-5--------5-5--5-5--5-5--5-5--5-5---|
B|---------------------------------------------------------------|
G|---------------------------------------------------------------|
D|---------------------------------------------------------------|
A|---------------------------------------------------------------|
E|---------------------------------------------------------------|

Intro: (Guitar 1 w/ Distortion)
E|---------------------------|
B|---------------------------|
G|---------------------------| (x2)
D|-77----55----44----33--22--|
A|-77----55----44----33--22--|
E|-55----33----22----11--00--|

Verse: (Guitar 1 w/ Distortion)
E|---------------------------|
B|---------------------------|
G|---------------------------|
D|-77----55----44----33--22--|
A|-77----55----44----33--22--|
E|-55----33----22----11--00--|

E|---------------------------|
B|---------------------------|
G|---------------------------|
D|-77----55----44----33--22--|
A|-77----55----44----33--22--|
E|-55----33----22----11--00--|

E|---------------------------|
B|---------------------------|
G|---------------------------|
D|-77----55----44----33--22--|
A|-77----55----44----33--22--|
E|-55----33----22----11--00--|

(Palm Mute)
E|------------------|
B|------------------|
G|------------------|
D|-77----55----44---|
A|-77----55----44---|
E|-55----33----22---|

Instrumental: (Guitar 1 w/ Distortion)
E|----------------------------|
B|----------------------------|
G|----------------------------| (x2)
D|-77----55----44----33--22---|
A|-77----55----44----33--22---|
E|-55----33----22----11--00---|

Verse: (Guitar 1 w/ Distortion)
E|----------------------------|
B|----------------------------|
G|----------------------------|
D|-77----55----44----33--22---|
A|-77----55----44----33--22---|
E|-55----33----22----11--00---|

E|----------------------------|
B|----------------------------|
G|----------------------------|
D|-77----55----44----33--22---|
A|-77----55----44----33--22---|
E|-55----33----22----11--00---|

E|----------------------------|
B|----------------------------|
G|----------------------------|
D|-77----55----44----33--22---|
A|-77----55----44----33--22---|
E|-55----33----22----11--00---|

E|------------------------------|
B|------------------------------|
G|------------------------------|
D|-77----55----44----33----22---|
A|-77----55----44----33----22---|
E|-55----33----22----11----00---|

Instrumental: (Guitar 1 w/ Distortion)
E|----------------------------------------|
B|----------------------------------------|
G|----------------------------------------| (x2)
D|-77xxxx----55xxxx----44xxxx----33--22---|
A|-77xxxx----55xxxx----44xxxx----33--22---|
E|-55xxxx----33xxxx----22xxxx----11--00---|

Verse: (Guitar 1 w/ Distortion)
E|----------------------------|
B|----------------------------|
G|----------------------------|
D|-77----55----44----33--22---|
A|-77----55----44----33--22---|
E|-55----33----22----11--00---|

E|----------------------------|
B|----------------------------|
G|----------------------------|
D|-77----55----44----33--22---|
A|-77----55----44----33--22---|
E|-55----33----22----11--00---|

E|----------------------------|
B|----------------------------|
G|----------------------------|
D|-77----55----44----33--22---|
A|-77----55----44----33--22---|
E|-55----33----22----11--00---|

E|----------------------------|
B|----------------------------|
G|----------------------------|
D|-77----55----44----33--22---|
A|-77----55----44----33--22---|
E|-55----33----22----11--00---|

Instrumental: (Guitar 1 w/ Distortion)
E|----------------------------------------|
B|----------------------------------------|
G|----------------------------------------| (x2)
D|-77xxxx----55xxxx----44xxxx----33--22---|
A|-77xxxx----55xxxx----44xxxx----33--22---|
E|-55xxxx----33xxxx----22xxxx----11--00---|

Verse: (Guitar 1 w/ Distortion)
E|----------------------------|
B|----------------------------|
G|----------------------------|
D|-77----55----44----33--22---|
A|-77----55----44----33--22---|
E|-55----33----22----11--00---|

E|----------------------------|
B|----------------------------|
G|----------------------------|
D|-77----55----44----33--22---|
A|-77----55----44----33--22---|
E|-55----33----22----11--00---|

E|----------------------------|
B|----------------------------|
G|----------------------------|
D|-77----55----44----33--22---|
A|-77----55----44----33--22---|
E|-55----33----22----11--00---|

(Let all of the chords ring)
E|------------------------------|
B|------------------------------|
G|------------------------------|
D|-77----55----44----33----22---|
A|-77----55----44----33----22---|
E|-55----33----22----11----00---|

Ending: (Guitar 1 w/ Distortion)(Let all of the chords ring)
E|---------------------------------|
B|---------------------------------|
G|---------------------------------| (x2)
D|-77-77---55-55---44-44---33--22--|
A|-77-77---55-55---44-44---33--22--|
E|-55-55---33-33---22-22---11--00--|

E|----0-----0-----0----------|
B|----0-----0-----0----------|
G|---------------------------| (x3)
D|-77----55----44----33--22--|
A|-77----55----44----33--22--|
E|-55----33----22----11--00--|

E|----0-----0-----0----------------|
B|----0-----0-----0----------------|
G|---------------------------------|
D|-77----55----44----33--22----77--|
A|-77----55----44----33--22----77--|
E|-55----33----22----11--00----55--|

Lyrics:
(Verse)
I’m having trouble trying to sleep
I’m counting sheep, but running out
As time ticks by
And still I try
No rest for cross tops in my mind
Everybody!

(Verse)
My eyes feel like they’re going to bleed
Dried up and bulging out of my skull
My mouth is dry
My face is numb
Fucked up and spun out in my room
On my own, here we go

(Verse)
My mind is set on overdrive
The clock is laughing in my face [Ha! Ha! Ha!]
A crooked spine
My senses dulled
Past the point of delirium
On my own, here we go

(Verse)
My eyes feel like they’re going to bleed
Dried up and bulging out of my skull
My mouth is dry
My face is numb
Fucked up, spun out in my room
On my own, here we go

----------------------------------------------------------------------------------
Green Day
Basket Case
----------------------------------------------------------------------------------
Guitar 1 - Billie Joe Armstrong (Tuned Down Half of a Step)
Guitar 2 - Jason White          (Tuned Down Half of a Step)

Billie Joe messes up on the instrumental part of this song, but I just tabbed it out as
he never messed up.

Verse: (Guitar 1 w/ Heavy Distortion)(Palm Muting)
E|-----------------------------------------------------------------------|
B|-----------------------------------------------------------------------|
G|-99999999------------66666666----------------------99999999------------|
D|-99999999--99999999--66666666--66666666--77777777--99999999--99999999--|
A|-77777777--99999999--44444444--66666666--77777777--77777777--99999999--|
E|-----------77777777------------44444444--55555555------------77777777--|

E|-----------------------------------------------------------------------|
B|-----------------------------------------------------------------------|
G|-99999999------------66666666----------------------99999999------------|
D|-99999999--99999999--66666666--66666666--77777777--99999999--99999999--|
A|-77777777--99999999--44444444--66666666--77777777--77777777--99999999--|
E|-----------77777777------------44444444--55555555------------77777777--|

Chorus: (Guitar 1 w/ Heavy Distortion)(Palm Muting)
E|---------------------------------------|
B|---------------------------------------|
G|---------------------------------------|
D|-77777777--99999999--------------------|
A|-77777777--99999999--0000000000000000--|
E|-55555555--77777777--------------------|

E|---------------------------------------|
B|---------------------------------------|
G|---------------------------------------|
D|-77777777--99999999--------------------|
A|-77777777--99999999--0000000000000000--|
E|-55555555--77777777--------------------|

E|-----------------------------------------------------------|
B|-----------------------------------------------------------|
G|-----------------------------------------------------------|
D|------------------------99--777--66666666--777777--999999--|
A|------(Pause)-----------99--777--66666666--777777--999999--|
E|------------------------77--555--44444444--555555--777777--|

Bridge:
E|-------------------------------------|
B|-------------------------------------|
G|-9-9-9-------------------------------| (x2)
D|-9-9-9----9-9-9----11-11-11----9-9-9-|
A|-7-7-7----9-9-9----11-11-11----9-9-9-|
E|----------7-7-7----9--9--9-----7-7-7-|

Verse: (Guitars 1 & 2 w/ Heavy Distortion)
E|-----------------------------------------------------------------------|
B|-----------------------------------------------------------------------|
G|-99999999------------66666666----------------------99999999------------|
D|-99999999--99999999--66666666--66666666--77777777--99999999--99999999--|
A|-77777777--99999999--44444444--66666666--77777777--77777777--99999999--|
E|-----------77777777------------44444444--55555555------------77777777--|

E|-----------------------------------------------------------------------|
B|-----------------------------------------------------------------------|
G|-99999999------------66666666----------------------99999999------------|
D|-99999999--99999999--66666666--66666666--77777777--99999999--99999999--|
A|-77777777--99999999--44444444--66666666--77777777--77777777--99999999--|
E|-----------77777777------------44444444--55555555------------77777777--|

Chorus: (Guitars 1 & 2 w/ Heavy Distortion)
E|-------------------------------|
B|-------------------------------|
G|---------------------99999999--|
D|-77777777--99999999--99999999--|
A|-77777777--99999999--77777777--|
E|-55555555--77777777------------|

E|-------------------------------|
B|-------------------------------|
G|---------------------99999999--|
D|-77777777--99999999--99999999--|
A|-77777777--99999999--77777777--|
E|-55555555--77777777------------|

E|--------------------------------------------------------|
B|--------------------------------------------------------|
G|--------------------------------------------------------|
D|-77777777--99999999--99--777--66666666--777777--999999--|
A|-77777777--99999999--99--777--66666666--777777--999999--|
E|-55555555--77777777--77--555--44444444--555555--777777--|

Bridge: (Guitars 1 & 2 w/ Heavy Distortion)
E|-------------------------------------|
B|-------------------------------------|
G|-9-9-9-------------------------------| (x4)
D|-9-9-9----9-9-9----11-11-11----9-9-9-|
A|-7-7-7----9-9-9----11-11-11----9-9-9-|
E|----------7-7-7----9--9--9-----7-7-7-|

Interlude: (Guitars 1 & 2 w/ Heavy Distortion)(Palm Muting)
E|--------------------------------------|
B|--------------------------------------|
G|--------------------------------------|
D|-777777777777777----999999999999999---|
A|-777777777777777----999999999999999---|
E|-555555555555555----777777777777777---|

Instrumental: (Guitars 1 & 2 w/ Heavy Distortion)
E|-----------------------------------------------------------------------|
B|-----------------------------------------------------------------------|
G|-99999999------------66666666------------------------------------------| (x2)
D|-99999999--99999999--66666666--66666666--77777777--22222222--99999999--|
A|-77777777--99999999--44444444--66666666--77777777--22222222--99999999--|
E|-----------77777777------------44444444--55555555--00000000--77777777--|

Chorus: (Guitars 1 & 2 w/ Heavy Distortion)(Palm Muting)
E|-------------------------------|
B|-------------------------------|
G|---------------------99999999--|
D|-77777777--99999999--99999999--|
A|-77777777--99999999--77777777--|
E|-55555555--77777777------------|

E|-------------------------------|
B|-------------------------------|
G|---------------------99999999--|
D|-77777777--99999999--99999999--|
A|-77777777--99999999--77777777--|
E|-55555555--77777777------------|

E|--------------------------------------------------------|
B|--------------------------------------------------------|
G|--------------------------------------------------------|
D|-77777777--99999999--99--777--66666666--777777--999999--|
A|-77777777--99999999--99--777--66666666--777777--999999--|
E|-55555555--77777777--77--555--44444444--555555--777777--|

Ending: (Electric Guitar w/ Heavy Distortion)
E|---------------------------------------|
B|---------------------------------------|
G|-99999999--66666666------99------------| (x3)
D|-99999999--66666666--77--99--99999999--|
A|-77777777--44444444--77--77--99999999--|
E|---------------------55------77777777--|

E|------------------------------|
B|------------------------------|
G|-99999999--66666666-----9-----|
D|-99999999--66666666--7--9--9--|
A|-77777777--44444444--7--7--9--|
E|---------------------5-----7--|

E|----------|
B|----------|
G|----------|
D|-7--2--9--|
A|-7--2--9--|
E|-5--0--7--|

Lyrics:
(Verse)
Do you have the time
To listen to me whine
About nothing and everything all at once

(Verse)
I am one of those
Melodramatic fools
Neurotic to the bone no doubt it

C'mon!

(Chorus)
Sometimes I give myself the creeps
Sometimes my mind plays tricks on me
It all keeps adding up
I think I’m cracking up
Am I just paranoid
Or I’m Just Stoned

(Verse)
I went to a shrink
To analyze my dreams
She says it’s lack of sex that’s bringing my down

(Verse)
I went to a whore
He said my life’s a bore
So quit my whining cause it’s bringing her down

C'mon!

(Chorus)
Sometimes I give myself the creeps
Sometimes my mind plays tricks on me
It all keeps adding up
I think I’m cracking up
C'mon!
Am I just paranoid
Or I’m Just Stoned

(Bridge)
Boom, Boom!
Alright!
C'mon!

(Interlude)
Grasping to...
Everyone!
So I better hold on

(Chorus)
Sometimes I give myself the creeps
Sometimes my mind plays tricks on me
It all keeps adding up
I think I’m cracking up
Am I just paranoid
Or I’m Just Stoned

England!

----------------------------------------------------------------------------------
Green Day
King For A Day
----------------------------------------------------------------------------------
Guitar 2 - Jason White (Standard Tuning)

Verse: (Guitar 2 w/ No Effects)
E|----------------------------|----------------------------|
B|----------------------------|----------------------------|
G|-9-x-x---------9-x-x--------|-6-x-x---------6-x-x--------| (x6)
D|-9-x-x--9-9-9--9-x-x--9-9-9-|-6-x-x--6-6-6--6-x-x--6-6-6-|
A|-7-x-x--9-9-9--7-x-x--9-9-9-|-4-x-x--6-6-6--4-x-x--6-6-6-|
E|--------7-7-7---------7-7-7-|--------4-4-4---------4-4-4-|
PM * * *  * * *  * * *  * * *   * * *  * * *  * * *  * * *

Pre-Chorus: (Guitar 2 w/ No Effects)
E|------------------------------------------|
B|------------------------------------------|
G|------------------------------------------|
D|-7-7-7-7-7-7-7-7-7-7--9-9-9-9-9-9-9-9-9-9-| (x4)
A|-7-7-7-7-7-7-7-7-7-7--9-9-9-9-9-9-9-9-9-9-|
E|-5-5-5-5-5-5-5-5-5-5--7-7-7-7-7-7-7-7-7-7-|

Chorus: (Guitar 2 w/ No Effects)
E|----------------------------|----------------------------|
B|----------------------------|----------------------------|
G|-9-x-x---------9-x-x--------|-6-x-x---------6-x-x--------|
D|-9-x-x--9-9-9--9-x-x--9-9-9-|-6-x-x--6-6-6--6-x-x--6-6-6-| (x3)
A|-7-x-x--9-9-9--7-x-x--9-9-9-|-4-x-x--6-6-6--4-x-x--6-6-6-|
E|--------7-7-7---------7-7-7-|--------4-4-4---------4-4-4-|

Post-Chorus: (Guitar 2 w/ No Effects)
E|------------------------------------------|
B|------------------------------------------|
G|------------------------------------------|
D|-7-7-7-7-7-7-7-7-7-7--9-9-9-9-9-9-9-9-9-9-|
A|-7-7-7-7-7-7-7-7-7-7--9-9-9-9-9-9-9-9-9-9-|
E|-5-5-5-5-5-5-5-5-5-5--7-7-7-7-7-7-7-7-7-7-|

Verse: (Guitar 2 w/ No Effects)
E|----------------------------|----------------------------|
B|----------------------------|----------------------------|
G|-9-x-x---------9-x-x--------|-6-x-x---------6-x-x--------|
D|-9-x-x--9-9-9--9-x-x--9-9-9-|-6-x-x--6-6-6--6-x-x--6-6-6-| (x6)
A|-7-x-x--9-9-9--7-x-x--9-9-9-|-4-x-x--6-6-6--4-x-x--6-6-6-|
E|--------7-7-7---------7-7-7-|--------4-4-4---------4-4-4-|
PM * * *  * * *  * * *  * * *   * * *  * * *  * * *  * * *

Pre-Chorus: (Guitar 2 w/ No Effects)
E|------------------------------------------|
B|------------------------------------------|
G|------------------------------------------|
D|-7-7-7-7-7-7-7-7-7-7--9-9-9-9-9-9-9-9-9-9-| (x4)
A|-7-7-7-7-7-7-7-7-7-7--9-9-9-9-9-9-9-9-9-9-|
E|-5-5-5-5-5-5-5-5-5-5--7-7-7-7-7-7-7-7-7-7-|

Chorus: (Guitar 2 w/ No Effects)
E|----------------------------|----------------------------|
B|----------------------------|----------------------------|
G|-9-x-x---------9-x-x--------|-6-x-x---------6-x-x--------|
D|-9-x-x--9-9-9--9-x-x--9-9-9-|-6-x-x--6-6-6--6-x-x--6-6-6-| (x3)
A|-7-x-x--9-9-9--7-x-x--9-9-9-|-4-x-x--6-6-6--4-x-x--6-6-6-|
E|--------7-7-7---------7-7-7-|--------4-4-4---------4-4-4-|

Post-Chorus: (Guitar 2 w/ No Effects)
E|------------------------------------------|
B|------------------------------------------|
G|------------------------------------------|
D|-7-7-7-7-7-7-7-7-7-7--9-9-9-9-9-9-9-9-9-9-|
A|-7-7-7-7-7-7-7-7-7-7--9-9-9-9-9-9-9-9-9-9-|
E|-5-5-5-5-5-5-5-5-5-5--7-7-7-7-7-7-7-7-7-7-|

Bridge: (Guitar 2 w/ No Effects)
E|----------------------------|----------------------------|
B|----------------------------|----------------------------|
G|-9-x-x---------9-x-x--------|-6-x-x---------6-x-x--------|
D|-9-x-x--9-9-9--9-x-x--9-9-9-|-6-x-x--6-6-6--6-x-x--6-6-6-| (x8)
A|-7-x-x--9-9-9--7-x-x--9-9-9-|-4-x-x--6-6-6--4-x-x--6-6-6-|
E|--------7-7-7---------7-7-7-|--------4-4-4---------4-4-4-|
PM * * *  * * *  * * *  * * *   * * *  * * *  * * *  * * *

Post-Chorus: (Guitar 2 w/ No Effects)
E|------------------------------------------|
B|------------------------------------------|
G|------------------------------------------|
D|-7-7-7-7-7-7-7-7-7-7--9-9-9-9-9-9-9-9-9-9-| (x4)
A|-7-7-7-7-7-7-7-7-7-7--9-9-9-9-9-9-9-9-9-9-|
E|-5-5-5-5-5-5-5-5-5-5--7-7-7-7-7-7-7-7-7-7-|

Chorus: (Guitar 2 w/ No Effects)
E|----------------------------|----------------------------|
B|----------------------------|----------------------------|
G|-9-x-x---------9-x-x--------|-6-x-x---------6-x-x--------|
D|-9-x-x--9-9-9--9-x-x--9-9-9-|-6-x-x--6-6-6--6-x-x--6-6-6-| (x7)
A|-7-x-x--9-9-9--7-x-x--9-9-9-|-4-x-x--6-6-6--4-x-x--6-6-6-|
E|--------7-7-7---------7-7-7-|--------4-4-4---------4-4-4-|

Post-Chorus: (Guitar 2 w/ No Effects)
E|------------------------------------------|
B|------------------------------------------|
G|------------------------------------------|
D|-7-7-7-7-7-7-7-7-7-7--9-9-9-9-9-9-9-9-9-9-| (x3)
A|-7-7-7-7-7-7-7-7-7-7--9-9-9-9-9-9-9-9-9-9-|
E|-5-5-5-5-5-5-5-5-5-5--7-7-7-7-7-7-7-7-7-7-|

Ending: (Guitar 2 w/ No Effects)
E|----------------------------|----------------------------|
B|----------------------------|----------------------------|
G|-9-x-x---------9-x-x--------|-6-x-x---------6-x-x--------|
D|-9-x-x--9-9-9--9-x-x--9-9-9-|-6-x-x--6-6-6--6-x-x--6-6-6-| (x12)
A|-7-x-x--9-9-9--7-x-x--9-9-9-|-4-x-x--6-6-6--4-x-x--6-6-6-|
E|--------7-7-7---------7-7-7-|--------4-4-4---------4-4-4-|
PM * * *  * * *  * * *  * * *   * * *  * * *  * * *  * * *

Lyrics:
(Introduction)
King For A Day!
Jump!

(Verse)
Started at the age of four
My mother went to the grocery store
Went sneaking through her bedroom door
To find something in a size 4

(Pre-Chorus)
Sugar and spice and everything nice wasn't made for only girls
G.I Joe in panty hose is making room for the one and only

(Chorus)
King for a day, princess by dawn
King for a day, in a leather thong
King for a day, princess by dawn

(Post-Chorus)
Just wait 'till all the guys get a load of me.

England!

(Verse)
My daddy threw me in therapy
He thinks I'm not a real man
Who put the drag in the drag queen?  Hey!
Don’t knock it, until you’ve try it

(Pre-Chorus)
Sugar and spice and everything nice wasn't made for only girls
G.I Joe in panty hose is making room for the...

Everybody!

(Chorus)
King for a day, princess by dawn
King for a day, in a leather thong
King for a day, princess by dawn

(Post-Chorus)
Just wait 'till all the guys get a load of me.
England, get those hands up in the air!
Go!

(Pre-Chorus)
Sugar and spice and everything nice wasn't made for only girls
G.I Joe in panty hose is making room for the one and only

(Chorus)
King for a day, princess by dawn
King for a day, in a leather thong
King for a day, princess by dawn
King for a day, in a leather thong
King for a day, princess by dawn
King for a day, in a leather thong
King for a day, princess by dawn

(Ending)
Just wait 'till all the guys...
Just wait 'till all the guys...
Just wait 'till all the guys...
Get a load of me!
Hey you!

And Stop!
----------------------------------------------------------------------------------
Green Day
Shout
----------------------------------------------------------------------------------Guitar
- Jason White (Standard Tuning)

Verse: (Guitar 2 w/ No Effects)
E|------------------------|------------------------|------------------------|
B|------------------------|------------------------|------------------------|
G|---99----99----66----66-|---99----99----66----66-|---99----99----66----66-|
D|-9-99--9-99--6-66--6-66-|-9-99--9-99--6-66--6-66-|-9-99--9-99--6-66--6-66-|
A|-9-77--9-77--6-44--6-44-|-9-77--9-77--6-44--6-44-|-9-77--9-77--6-44--6-44-|
E|-7-----7-----4-----4----|-7-----7-----4-----4----|-7-----7-----4-----4----|
PM *     *     *     *      *     *     *     *      *     *     *     *

E|-------------------------------------------|
B|-------------------------------------------|
G|---99----99--------------------------------|
D|-9-99--9-99--6--------9--------9--------9~-|
A|-9-77--9-77--6--------9--------9--------9~-|
E|-7-----7-----4--------7--------7--------7~-|
PM *     *

Chorus: (Guitar 2 w/ No Effects)
E|-------------------------|-------------------------|
B|-------------------------|-------------------------|
G|-9-----9------6-----6----|-9-----9------6-----6----| (x5)
D|-9-99--9-99---6-66--6-66-|-9-99--9-99---6-66--6-66-|
A|-7-99--7-99---4-66--4-66-|-7-99--7-99---4-66--4-66-|
E|---77----77-----44----44-|---77----77-----44----44-|
PM * **  * **   * **  * **   * **  * **   * **  * **

Bridge: (Guitar 2 w/ No Effects)
E|-------------------------|-------------------------|
B|-------------------------|-------------------------|
G|-9-----9------6-----6----|-9-----9------6-----6----| (x10)
D|-9-99--9-99---6-66--6-66-|-9-99--9-99---6-66--6-66-|
A|-7-99--7-99---4-66--4-66-|-7-99--7-99---4-66--4-66-|
E|---77----77-----44----44-|---77----77-----44----44-|
   * **  * **   * **  * **   * **  * **   * **  * **

Chorus: (Guitar 2 w/ No Effects)
E|-------------------------|-------------------------|
B|-------------------------|-------------------------|
G|-9-----9------6-----6----|-9-----9------6-----6----| (x8)
D|-9-99--9-99---6-66--6-66-|-9-99--9-99---6-66--6-66-|
A|-7-99--7-99---4-66--4-66-|-7-99--7-99---4-66--4-66-|
E|---77----77-----44----44-|---77----77-----44----44-|
   * **  * **   * **  * **   * **  * **   * **  * **

E|-------------------------|-------------------------|
B|-------------------------|-------------------------|
G|-9-----9------6-----6----|-9-----9------6-----6----|
D|-9-99--9-99---6-66--6-66-|-9-99--9-99---6-66--6-66-| (x7)
A|-7-99--7-99---4-66--4-66-|-7-99--7-99---4-66--4-66-|
E|---77----77-----44----44-|---77----77-----44----44-|

E|--------------------------------------------------------------------|
B|--------------------------------------------------------------------|
G|-6666666666666666-6666666666666666-6666666666666666-6666666666666666|
D|-xxxxxxxxxxxxxxxx-xxxxxxxxxxxxxxxx-xxxxxxxxxxxxxxxx-xxxxxxxxxxxxxxxx|
A|-4444444444444444-4444444444444444-4444444444444444-4444444444444444|
E|--------------------------------------------------------------------|

Ending: (Guitar 2 w/ No Effects)
E|--------------------------------------------------------------------------|
B|-999------999------999------9-9----------9-9----------9-9----------9-9----|
G|-999------999------999------9--9---------9--9---------9--9---------9--9---|
D|-999-999--999-999--999-999--9---9--9--9--9---9--9--9--9---9--9--9--9---9~-|
A|-777-999--777-999--777-999--7-----7--7---7-----7--7---7----7--7----7------|
E|-----777------777------777------------------------------------------------|

E|----|
B|-9~-|
G|-9~-|
D|-9~-|
A|-7~-|
E|----|

Lyrics:

(Introduction)
Now wait a minute!
yeah, yeah, yeah, yeah, yeah, yeah, yeah, yeah

(Verse)
I want you to know, I want you to know now
You been so good, with a matter of myself
You been so good to me
You been so good to me
You been so good to me

You know you make me wanna shout, kick my hands up and shout
Get my hands up and shout, get my hands up and shout
Get my hands up and yeah, yea, yeah yeah
Yeah, yea, yeah yeah
Yeah yey, yey, yey yeah
Yeah yey, yey, yey yeah

(Chorus)
A little bit softer now
A little bit softer now
A little bit softer now
A little bit softer now
A little bit softer now
A little bit softer now
A little bit softer now
A little bit softer now
A little bit softer now
A little bit softer now
Shu be do ba, bah bah
Shu be do ba, bah bah
Shu be do ba, bah bah
Shu be do ba, bah bah

(Bridge)
Always look on the bright side of life
Always look on the bright side of life
Always look on the bright side of life
Always look on the bright side of life
Say, yeah, yea, yeah yeah
yeah, yea, yeah yeah
Yeah yey, yey, yey yeah
Yeah yey, yey, yey yeah

(Chorus)
Little bit louder now
Little bit louder now
Little bit louder now
Little bit louder now
Little bit louder now
Little bit louder now
Little bit louder now
Little bit louder now
Little bit louder now
Little bit louder now
Jump up and shout now
Jump up and shout now
Jump up and shout now
Jump up and shout, shout, shout, shout, shout, shout, shout!
Scream!

(Ending)
Yeah, yea, yeah yeah
yeah, yea, yeah yeah
Yeah yey, yey, yey yeah
Yeah yey, yey, yey yeah

Shout, shout, shout, shout, shout, shout, shout!

Oo! Oo!

----------------------------------------------------------------------------------
Green Day
Wake Me Up When September Ends
----------------------------------------------------------------------------------
Guitar 1 - Billie Joe Armstrong (Standard Tuning)
Guitar 2 - Jason White          (Standard Tuning)

E|------------------------------------------|
B|-----3-----3--------------------3-----3---|
G|---0-----0--------------------0-----0-----|
D|-5-----5--------------------5-----5-------|
A|------------------------------------------|
E|------------------------------------------|

Intro: (Guitar 1 w/ No Effects)
E|------------------------------------------------------------|
B|-----3-----3--------3-----3--------3-----3--------3-----3---|
G|---0-----0--------0-----0--------0-----0--------0-----0-----|
D|-5-----5--------5-----5--------5-----5--------5-----5-------|
A|------------------------------------------------------------|
E|------------------------------------------------------------|

Verse: (Guitar 1 w/ No Effects)
E|------------------------------------------------------------|
B|-----3-----3--------3-----3--------3-----3--------3-----3---|
G|---0-----0--------0-----0--------0-----0--------0-----0-----|
D|-5-----5--------4-----4--------2-----2--------0-----0-------|
A|------------------------------------------------------------|
E|------------------------------------------------------------|

 (Guitar 2 w/ No Effects)
E|-15------------14-------------12-------------10---|
B|-15------------15-------------12-------------12---|
G|--------------------------------------------------|
D|--------------------------------------------------|
A|--------------------------------------------------|
E|--------------------------------------------------|

 (Guitar 1 w/ No Effects)
E|--------------------------------------------------------|
B|-----5-----5-------4-----4-------3-----3-------3-----3--|
G|---5---5---------5---5---------0---0---------0---0------|
D|--------------------------------------------------------|
A|-3-------3-----3-------3--------------------------------|
E|-----------------------------3-------3-----3-------3----|

 (Guitar 1 w/ No Effects)
E|------------------------------------------------------------|
B|-----3-----3--------3-----3--------3-----3--------3-----3---|
G|---0-----0--------0-----0--------0-----0--------0-----0-----|
D|-5-----5--------4-----4--------2-----2--------0-----0-------|
A|------------------------------------------------------------|
E|------------------------------------------------------------|

 (Guitar 2 w/ No Effects)
E|-15------------14-------------12-------------10---|
B|-15------------15-------------12-------------12---|
G|--------------------------------------------------|
D|--------------------------------------------------|
A|--------------------------------------------------|
E|--------------------------------------------------|

(Guitar 1 w/ No Effects)
E|----------------------------------------------------|
B|-----5-----5-------4-----4-------3-----3-------3----|
G|---5---5---------5---5---------0---0---------0---0--|
D|----------------------------------------------------|
A|-3-------3-----3-------3----------------------------|
E|-----------------------------3-------3-----3--------|

Chorus: (Guitar 1 w/ No Effects)
E|------------------------------------------------------|
B|------------------------------------------------------|
G|-----------------------------4-----4--------5-----5---|
D|-----4--------2-----2------4-----4--------5-----5-----|
A|---4--------2-----2------2-----2--------3-----3-------|
E|-2--------0-----0-------------------------------------|

E|-----------------------------------------------------------------------------|
B|-----------------------------------------------------------------------------|
G|--------------------------------------4-----4--------5-----5--------7-----7--|
D|-----5--------4--------2-----2------4-----4--------5-----5--------7-----7----|
A|---5--------4--------2-----2------2-----2--------3-----3--------5-----5------|
E|-3--------2--------0-----0---------------------------------------------------|

Verse: (Guitar 1 w/ No Effects)
E|-----------------------------------------------------------|
B|-----3-----3--------3-----3--------3-----3--------3-----3--|
G|---0-----0--------0-----0--------0-----0--------0-----0----|
D|-5-----5--------4-----4--------2-----2--------0-----0------|
A|-----------------------------------------------------------|
E|-----------------------------------------------------------|

(Guitar 2 w/ No Effects)
E|-15-------------14-------------12-------------10---|
B|-15-------------15-------------12-------------12---|
G|---------------------------------------------------|
D|---------------------------------------------------|
A|---------------------------------------------------|
E|---------------------------------------------------|

(Guitar 1 w/ No Effects)
E|----------------------------|
B|-----5-----5-------4-----4--|
G|---5---5---------5---5------|
D|----------------------------|
A|-3-------3-----3-------3----|
E|----------------------------|

Verse: (Guitar 1 w/ No Effects)
E|------------------------------------------------------------|
B|-----3-----3--------3-----3--------3-----3--------3-----3---|
G|---0-----0--------0-----0--------0-----0--------0-----0-----|
D|-5-----5--------5-----5--------5-----5--------5-----5-------|
A|------------------------------------------------------------|
E|------------------------------------------------------------|

(Guitar 2 w/ Distortion)
E|------------------------------------------------------------|
B|-----3-----3--------3-----3--------3-----3--------3-----3---|
G|---0-----0--------0-----0--------0-----0--------0-----0-----|
D|-5-----5--------5-----5--------5-----5--------5-----5-------|
A|------------------------------------------------------------|
E|------------------------------------------------------------|

(Guitar 1 & 2 w/ Distortion)
E|------------------------------------------------------------|
B|-----3-----3--------3-----3--------3-----3--------3-----3---|
G|---0-----0--------0-----0--------0-----0--------0-----0-----|
D|-5-----5--------4-----4--------2-----2--------0-----0-------|
A|------------------------------------------------------------|
E|------------------------------------------------------------|

E|--------------------------------------|
B|--------------------------------------|
G|-555555555555555----------------------|
D|-555555555555555----555555555555555---|
A|-333333333333333----555555555555555---|
E|--------------------333333333333333---|

E|------------------------------------------------------------|
B|-----3-----3--------3-----3--------3-----3--------3-----3---|
G|---0-----0--------0-----0--------0-----0--------0-----0-----|
D|-5-----5--------4-----4--------2-----2--------0-----0-------|
A|------------------------------------------------------------|
E|------------------------------------------------------------|

E|-------------------------------------------------------------------------|
B|-------------------------------------------------------------------------|
G|-555555555555555----------------------------44444444-55555555------------|
D|-555555555555555-555555555555-4444-22222222-44444444-55555555-5555-4444--|
A|-333333333333333-555555555555-4444-22222222-22222222-33333333-5555-4444--|
E|-----------------333333333333-2222-00000000-------------------3333-2222--|

E|-----------------------------------------|
B|-----------------------------------------|
G|-----------44444444--55555555--77777777--|
D|-22222222--44444444--55555555--77777777--|
A|-22222222--22222222--33333333--55555555--|
E|-00000000--------------------------------|

E|------------------------------------------------------------|
B|-----3-----3--------3-----3--------3-----3--------3-----3---|
G|---0-----0--------0-----0--------0-----0--------0-----0-----|
D|-5-----5--------4-----4--------2-----2--------0-----0-------|
A|------------------------------------------------------------|
E|------------------------------------------------------------|

Guitar Solo: (Guitar 2 w/ Distortion (Rhythm Guitar))
E|-------------------------------------------------------------------------|
B|-------------------------------------------------------------------------|
G|-555555555555555----------------------------44444444-55555555------------|
D|-555555555555555-555555555555-4444-22222222-44444444-55555555-5555-4444--|
A|-333333333333333-555555555555-4444-22222222-22222222-33333333-5555-4444--|
E|-----------------333333333333-2222-00000000-------------------3333-2222--|

E|----------------------------------------------------------|
B|----------------------------------------------------------|
G|-----------44444444--55555555--7777777777777777777777777--|
D|-22222222--44444444--55555555--7777777777777777777777777--|
A|-22222222--22222222--33333333--5555555555555555555555555--|
E|-00000000-------------------------------------------------|

(Guitar 1 w/ Distortion (Lead Guitar))
E|--------------------------------------------------------------------------|
B|-------12-------12----12-------12-------12----12-------13-------13----13--|
G|-12-12----12-12----12----11-11----11-11----11----12-12----12-12----12-----|
D|--------------------------------------------------------------------------|
A|--------------------------------------------------------------------------|
E|--------------------------------------------------------------------------|

E|----------------------------|
B|-15-15-15-15--15-15-15-15---|
G|-12-12-12-12--11-11-11-11---|
D|----------------------------|
A|----------------------------|
E|----------------------------|

E|--------------------------------------------------------------------------|
B|-------12-------12----12-------12-------12----12-------13-------13----13--|
G|-12-12----12-12----12----11-11----11-11----11----12-12----12-12----12-----|
D|--------------------------------------------------------------------------|
A|--------------------------------------------------------------------------|
E|--------------------------------------------------------------------------|

E|----------------------------------------------------|
B|-15-15-15-15-15-15-15-15--15-15-15-15-15-15-15-15---|
G|-12-12-12-12-12-12-12-12--11-11-11-11-11-11-11-11---|
D|----------------------------------------------------|
A|----------------------------------------------------|
E|----------------------------------------------------|

E|--------------------------------------------------------|
B|-15-15-15-15-15-15-15-15--15-15-15-15-15-15-15-15--15---|
G|-12-12-12-12-12-12-12-12--11-11-11-11-11-11-11-11--12---|
D|--------------------------------------------------------|
A|--------------------------------------------------------|
E|--------------------------------------------------------|

Verse: (Guitar 2 w/ No Effects)
E|------------------------------------------------------------|
B|-----3-----3--------3-----3--------3-----3--------3-----3---|
G|---0-----0--------0-----0--------0-----0--------0-----0-----|
D|-5-----5--------5-----5--------5-----5--------5-----5-------|
A|------------------------------------------------------------|
E|------------------------------------------------------------|

E|------------------------------------------------------------|
B|-----3-----3--------3-----3--------3-----3--------3-----3---|
G|---0-----0--------0-----0--------0-----0--------0-----0-----|
D|-5-----5--------4-----4--------2-----2--------0-----0-------|
A|------------------------------------------------------------|
E|------------------------------------------------------------|

(Guitar 1 & 2 w/ Distortion)
E|--------------------------------------|
B|--------------------------------------|
G|-555555555555555----------------------|
D|-555555555555555----555555555555555---|
A|-333333333333333----555555555555555---|
E|--------------------333333333333333---|

Verse: (Guitar 2 w/ Distortion)
E|------------------------------------------------------------|
B|-----3-----3--------3-----3--------3-----3--------3-----3---|
G|---0-----0--------0-----0--------0-----0--------0-----0-----|
D|-5-----5--------4-----4--------2-----2--------0-----0-------|
A|------------------------------------------------------------|
E|------------------------------------------------------------|

(Guitar 1 & 2 w/ Distortion)
E|--------------------------------------|
B|--------------------------------------|
G|-555555555555555----------------------|
D|-555555555555555----555555555555555---|
A|-333333333333333----555555555555555---|
E|--------------------333333333333333---|

Ending: (Guitar 1 & 2 w/ Distortion)
E|--------------------------------------|
B|--------------------------------------|
G|-555555555555555----------------------|
D|-555555555555555----555555555555555---|
A|-333333333333333----555555555555555---|
E|--------------------333333333333333---|

E|--------------------------------------|
B|--------------------------------------|
G|-555555555555555----------------------|
D|-555555555555555----555555555555555---|
A|-333333333333333----555555555555555---|
E|--------------------333333333333333---|

Lyrics:
(Introduction)
Nobody Likes You
Everyone Left You
They’re All Out Without You
Having Fun

This Song's Called 'Wake Me Up When September Ends.'

(Verse)
Summer Has Come And Past
The Innocent Can Never Last
Wake Me Up When September Ends

Like My Father’s Come To Pass
Seven Years Has Gone So Fast
Wake Me Up When September Ends

(Chorus)
Here Comes The Rain Again
Falling From The Stars
Drenched In My Pain Again
Becoming Who We Are

(Verse)
As My Memory Rest
But Never Forgets What I Lost
Wake Me Up When September Ends

(Verse)
Summer Has Come And Past
The Innocent Can Never Last
Wake Me Up When September Ends

Ring Out The Bells Again
Like We Did When Spring Began
Wake Me Up When September Ends

(Chorus)
Here Comes The Rain Again
Falling From The Stars
Drenched In My Pain Again
Becoming Who We Are

(Verse)
As My Memory Rest
But Never Forgets What I Lost
Wake Me Up When September Ends

England!

(Verse)
Summer Has Come And Past
The Innocent Can Never Last
Wake Me Up When September Ends

Like My Father’s Come To Pass
Twenty Years Has Gone So Fast
Wake Me Up When September Ends

(Ending)
Wake Me Up When September Ends
Alright!
Wake Me Up When September Ends

----------------------------------------------------------------------------------
Green Day
Minority
----------------------------------------------------------------------------------

Guitar 1 - Billie Joe Armstrong (Standard Tuning)
Guitar 2 - Jason White          (Standard Tuning)

Introduction: (Guitar 1 w/ No Effects)
E|---------|---------|------0--|----------|----------|---------|-----------|
B|------1--|------3--|--1----1-|------1---|------1---|------3--|-----------|
G|---0---0-|---0---0-|----2----|--------0-|--------0-|---0---0-|-2-0---0---|
D|-----2---|----0----|-3-------|-0h2------|-0h2------|----0----|-3-2-0-2---|
A|--3------|---------|---------|-----3----|-----3----|---------|-------3---|
E|---------|-3-------|---------|----------|----------|-3-------|-----------|

Chorus: (Guitar 1 & 2 w/ No Effects)
E|------------------------------------|
B|------------------------------------|
G|-5-5-5-5----------------------------|
D|-5-5-5-5--3-3-3-3--5-5-5-5--3-3-3-3-|
A|-3-3-3-3--3-3-3-3--5-5-5-5--3-3-3-3-|
E|----------1-1-1-1--3-3-3-3--1-1-1-1-|

E|------------------------------------|
B|------------------------------------|
G|-5-5-5-5----------------------------|
D|-5-5-5-5--3-3-3-3--5-5-5-5--3-3-3-3-|
A|-3-3-3-3--3-3-3-3--5-5-5-5--3-3-3-3-|
E|----------1-1-1-1--3-3-3-3--1-1-1-1-|

E|------------------------------------|
B|------------------------------------|
G|-5-5-5-5----------------------------|
D|-5-5-5-5--3-3-3-3--5-5-5-5--3-3-3-3-|
A|-3-3-3-3--3-3-3-3--5-5-5-5--3-3-3-3-|
E|----------1-1-1-1--3-3-3-3--1-1-1-1-|

E|------------------------------------|
B|------------------------------------|
G|-5-5-5-5----------------------------|
D|-5-5-5-5--3-3-3-3--5-5-5-5--3-3-3-3-|
A|-3-3-3-3--3-3-3-3--5-5-5-5--3-3-3-3-|
E|----------1-1-1-1--3-3-3-3--1-1-1-1-|

Verse: (Guitar 2 w/ No Effects)
E|-----------------------------|
B|-----------------------------|
G|-5-5-5----------------5-5-5--|
D|-5-5-5--5-5-5--3-3-3--5-5-5--|
A|-3-3-3--5-5-5--3-3-3--3-3-3--|
E|--------3-3-3--1-1-1---------|

E|-----------------------------|
B|-----------------------------|
G|-5-5-5----------------5-5-5--|
D|-5-5-5--5-5-5--3-3-3--5-5-5--|
A|-3-3-3--5-5-5--3-3-3--3-3-3--|
E|--------3-3-3--1-1-1---------|

E|-----------------------------|
B|-----------------------------|
G|-5-5-5----------------5-5-5--|
D|-5-5-5--5-5-5--3-3-3--5-5-5--|
A|-3-3-3--5-5-5--3-3-3--3-3-3--|
E|--------3-3-3--1-1-1---------|

E|-----------------------------|
B|-----------------------------|
G|-5-5-5----------------5-5-5--|
D|-5-5-5--5-5-5--3-3-3--5-5-5--|
A|-3-3-3--5-5-5--3-3-3--3-3-3--|
E|--------3-3-3--1-1-1---------|

Chorus: (Guitar 1 & 2 w/ No Effects)
E|------------------------------------|
B|------------------------------------|
G|-5-5-5-5----------------------------|
D|-5-5-5-5--3-3-3-3--5-5-5-5--3-3-3-3-|
A|-3-3-3-3--3-3-3-3--5-5-5-5--3-3-3-3-|
E|----------1-1-1-1--3-3-3-3--1-1-1-1-|

E|------------------------------------|
B|------------------------------------|
G|-5-5-5-5----------------------------|
D|-5-5-5-5--3-3-3-3--5-5-5-5--3-3-3-3-|
A|-3-3-3-3--3-3-3-3--5-5-5-5--3-3-3-3-|
E|----------1-1-1-1--3-3-3-3--1-1-1-1-|

E|------------------------------------|
B|------------------------------------|
G|-5-5-5-5----------------------------|
D|-5-5-5-5--3-3-3-3--5-5-5-5--3-3-3-3-|
A|-3-3-3-3--3-3-3-3--5-5-5-5--3-3-3-3-|
E|----------1-1-1-1--3-3-3-3--1-1-1-1-|

E|------------------------------------|
B|------------------------------------|
G|-5-5-5-5----------------------------|
D|-5-5-5-5--3-3-3-3--5-5-5-5--3-3-3-3-|
A|-3-3-3-3--3-3-3-3--5-5-5-5--3-3-3-3-|
E|----------1-1-1-1--3-3-3-3--1-1-1-1-|

Bridge: (Guitar 1 & 2 w/ No Effects)
E|-----------------------------------|
B|-----------------------------------|
G|----------9--10101010--------------|
D|-7777777--9--10101010--10-10-10-10-|
A|-7777777--7---8-8-8-8--10-10-10-10-|
E|-5555555----------------8--8--8--8-|

E|------------------------------|
B|------------------------------|
G|------------------------------|
D|-7777777--2--3-3-3-3--5-5-5-5-|
A|-7777777--2--3-3-3-3--5-5-5-5-|
E|-5555555--0--1-1-1-1--3-3-3-3-|

E|-----------------------------------|
B|-----------------------------------|
G|----------9--10101010--------------|
D|-7777777--9--10101010--10-10-10-10-|
A|-7777777--7---8-8-8-8--10-10-10-10-|
E|-5555555----------------8--8--8--8-|

E|------------------------------|
B|------------------------------|
G|------------------------------|
D|-7777777--2--3-3-3-3--5-5-5-5-|
A|-7777777--2--3-3-3-3--5-5-5-5-|
E|-5555555--0--1-1-1-1--3-3-3-3-|

Verse: (Guitar 2 w/ No Effects)
E|-----------------------------|
B|-----------------------------|
G|-5-5-5----------------5-5-5--|
D|-5-5-5--5-5-5--3-3-3--5-5-5--|
A|-3-3-3--5-5-5--3-3-3--3-3-3--|
E|--------3-3-3--1-1-1---------|

E|-----------------------------|
B|-----------------------------|
G|-5-5-5----------------5-5-5--|
D|-5-5-5--5-5-5--3-3-3--5-5-5--|
A|-3-3-3--5-5-5--3-3-3--3-3-3--|
E|--------3-3-3--1-1-1---------|

E|-----------------------------|
B|-----------------------------|
G|-5-5-5----------------5-5-5--|
D|-5-5-5--5-5-5--3-3-3--5-5-5--|
A|-3-3-3--5-5-5--3-3-3--3-3-3--|
E|--------3-3-3--1-1-1---------|

E|-----------------------------|
B|-----------------------------|
G|-5-5-5----------------5-5-5--|
D|-5-5-5--5-5-5--3-3-3--5-5-5--|
A|-3-3-3--5-5-5--3-3-3--3-3-3--|
E|--------3-3-3--1-1-1---------|

Chorus: (Guitar 1 & 2 w/ No Effects)
E|------------------------------------|
B|------------------------------------|
G|-5-5-5-5----------------------------|
D|-5-5-5-5--3-3-3-3--5-5-5-5--3-3-3-3-|
A|-3-3-3-3--3-3-3-3--5-5-5-5--3-3-3-3-|
E|----------1-1-1-1--3-3-3-3--1-1-1-1-|

E|------------------------------------|
B|------------------------------------|
G|-5-5-5-5----------------------------|
D|-5-5-5-5--3-3-3-3--5-5-5-5--3-3-3-3-|
A|-3-3-3-3--3-3-3-3--5-5-5-5--3-3-3-3-|
E|----------1-1-1-1--3-3-3-3--1-1-1-1-|

E|------------------------------------|
B|------------------------------------|
G|-5-5-5-5----------------------------|
D|-5-5-5-5--3-3-3-3--5-5-5-5--3-3-3-3-|
A|-3-3-3-3--3-3-3-3--5-5-5-5--3-3-3-3-|
E|----------1-1-1-1--3-3-3-3--1-1-1-1-|

E|------------------------------------|
B|------------------------------------|
G|-5-5-5-5----------------------------|
D|-5-5-5-5--3-3-3-3--5-5-5-5--3-3-3-3-|
A|-3-3-3-3--3-3-3-3--5-5-5-5--3-3-3-3-|
E|----------1-1-1-1--3-3-3-3--1-1-1-1-|

Bridge: (Guitar 1 & 2 w/ No Effects)
E|-----------------------------------|
B|-----------------------------------|
G|----------9--10101010--------------|
D|-7777777--9--10101010--10-10-10-10-|
A|-7777777--7---8-8-8-8--10-10-10-10-|
E|-5555555----------------8--8--8--8-|

E|------------------------------|
B|------------------------------|
G|------------------------------|
D|-7777777--2--3-3-3-3--5-5-5-5-|
A|-7777777--2--3-3-3-3--5-5-5-5-|
E|-5555555--0--1-1-1-1--3-3-3-3-|

E|-----------------------------------|
B|-----------------------------------|
G|----------9--10101010--------------|
D|-7777777--9--10101010--10-10-10-10-|
A|-7777777--7---8-8-8-8--10-10-10-10-|
E|-5555555----------------8--8--8--8-|

E|------------------------------|
B|------------------------------|
G|------------------------------|
D|-7777777--2--3-3-3-3--5-5-5-5-|
A|-7777777--2--3-3-3-3--5-5-5-5-|
E|-5555555--0--1-1-1-1--3-3-3-3-|

Interlude: (Guitar 2 w/ No Effects)
E|-----------------------------|
B|-----------------------------|
G|-5-5-5----------------5-5-5--| (x34)
D|-5-5-5--5-5-5--3-3-3--5-5-5--|
A|-3-3-3--5-5-5--3-3-3--3-3-3--|
E|--------3-3-3--1-1-1---------|

       --Harmonica Solo--

E|-----------------------------|
B|-----------------------------|
G|-5-5-5----------------5-5-5--| (x31)
D|-5-5-5--5-5-5--3-3-3--5-5-5--|
A|-3-3-3--5-5-5--3-3-3--3-3-3--|
E|--------3-3-3--1-1-1---------|

   --Billie Joe’s Vocal Solo--

E|-----------------------------|
B|-----------------------------|
G|-5-5-5----------------5-5-5--| (x8)
D|-5-5-5--5-5-5--3-3-3--5-5-5--|
A|-3-3-3--5-5-5--3-3-3--3-3-3--|
E|--------3-3-3--1-1-1---------|

    --Tre Cool’s Drum Solo--

Verse: (Guitar 2 w/ No Effects)
E|-----------------------------|
B|-----------------------------|
G|-5-5-5----------------5-5-5--|
D|-5-5-5--5-5-5--3-3-3--5-5-5--|
A|-3-3-3--5-5-5--3-3-3--3-3-3--|
E|--------3-3-3--1-1-1---------|

E|-----------------------------|
B|-----------------------------|
G|-5-5-5----------------5-5-5--|
D|-5-5-5--5-5-5--3-3-3--5-5-5--|
A|-3-3-3--5-5-5--3-3-3--3-3-3--|
E|--------3-3-3--1-1-1---------|

E|-----------------------------|
B|-----------------------------|
G|-5-5-5----------------5-5-5--|
D|-5-5-5--5-5-5--3-3-3--5-5-5--|
A|-3-3-3--5-5-5--3-3-3--3-3-3--|
E|--------3-3-3--1-1-1---------|

E|-----------------------------|
B|-----------------------------|
G|-5-5-5----------------5-5-5--|
D|-5-5-5--5-5-5--3-3-3--5-5-5--|
A|-3-3-3--5-5-5--3-3-3--3-3-3--|
E|--------3-3-3--1-1-1---------|

Chorus: (Guitar 1 & 2 w/ No Effects)
E|------------------------------------|
B|------------------------------------|
G|-5-5-5-5----------------------------|
D|-5-5-5-5--3-3-3-3--5-5-5-5--3-3-3-3-|
A|-3-3-3-3--3-3-3-3--5-5-5-5--3-3-3-3-|
E|----------1-1-1-1--3-3-3-3--1-1-1-1-|

E|------------------------------------|
B|------------------------------------|
G|-5-5-5-5----------------------------|
D|-5-5-5-5--3-3-3-3--5-5-5-5--3-3-3-3-|
A|-3-3-3-3--3-3-3-3--5-5-5-5--3-3-3-3-|
E|----------1-1-1-1--3-3-3-3--1-1-1-1-|

E|------------------------------------|
B|------------------------------------|
G|-5-5-5-5----------------------------|
D|-5-5-5-5--3-3-3-3--5-5-5-5--3-3-3-3-|
A|-3-3-3-3--3-3-3-3--5-5-5-5--3-3-3-3-|
E|----------1-1-1-1--3-3-3-3--1-1-1-1-|

E|------------------------------------|
B|------------------------------------|
G|-5-5-5-5----------------------------|
D|-5-5-5-5--3-3-3-3--5-5-5-5--3-3-3-3-|
A|-3-3-3-3--3-3-3-3--5-5-5-5--3-3-3-3-|
E|----------1-1-1-1--3-3-3-3--1-1-1-1-|

Ending: (Guitar 1 & 2 w/ No Effects)
E|------------------------------------|
B|------------------------------------|
G|-5-5-5-5----------------------------| (x6)
D|-5-5-5-5--3-3-3-3--5-5-5-5--3-3-3-3-|
A|-3-3-3-3--3-3-3-3--5-5-5-5--3-3-3-3-|
E|----------1-1-1-1--3-3-3-3--1-1-1-1-|

E|------------------------------------|
B|------------------------------------|
G|-5-5-5-5----------------------------|
D|-5-5-5-5--3-3-3-3--5-5-5-5--3-3-3-3-|
A|-3-3-3-3--3-3-3-3--5-5-5-5--3-3-3-3-|
E|----------1-1-1-1--3-3-3-3--1-1-1-1-|

 (Guitar 1 w/ No Effects)
E|---------|---------|------0--|----------|----------|---------|-----------|
B|------1--|------3--|--1----1-|------1---|------1---|------3--|-1-1---1---|
G|---0---0-|---0---0-|----2----|--------0-|--------0-|---0---0-|-2-0---0---|
D|-----2---|----0----|-3-------|-0h2------|-0h2------|----0----|-3-2-0-2---|
A|--3------|---------|---------|-----3----|-----3----|---------|-------3---|
E|---------|-3-------|---------|----------|----------|-3-------|-----------|

Lyrics:
(Chorus)
I want to be the minority
I don't need your authority
Down with the moral majority
'Cause I want to be the minority

(Verse)
I pledge allegiance to the underworld
One nation under dog
There of which I stand alone
A face in the crowd
Unsung, against the mold
Without a doubt
Singled out
The only way I know

(Chorus)
I want to be the minority
I don't need your authority
Down with the moral majority
'Cause I want to be the minority

(Bridge)
Stepped out of the line
Like a sheep runs from the herd
Marching out of time
To my own beat now
The only way I know

(Verse)
One light, one mind
Flashing in the dark
Blinded by the silence of a thousand broken hearts
"For crying out loud" she screamed unto me
A free for all
Fuck 'em all
You are your own sight

(Verse)
I want to be the minority
I don't need your authority
Down with the moral majority
'Cause I want to be the minority

Hey!

--Harmonica Solo--

(Interlude)
We're Green Day from Oakland, California.
And I just want to say,
That England is now the official home of Green Day from now on.
Thank You!
Thank You!
Thank You!
Thank You!
Thank You!
Thank You!
Thank You!
Thank You!
Thank You!
Thank You!
Thank You!
Thank You!
Thank You!
Thank You!
Thank You!
And remember one thing.
Regardless of the powers that be are,
The people that you elect, that I elect into office, remember,
You have the fucking power.
We're the fucking leaders.
Don't let these bastards dictate your life or try to tell you what to do.
Alright!
C'mon!

--Billie Joe's Vocal Solo--

C'mon!

You guys fucking rule man!
Thank you!
I said a 1,2,1,2,3,4!
Alright!
Ladies and Gentlemen
Mike Dirnt
Jason White
Jason Freese
Ronny Blake
and Mr. Tre Cool!

(Verse)
One light, one mind
Flashing in the dark
Blinded by the silence of a thousand broken hearts
"For crying out loud" she screamed unto me
A free for all
Fuck 'em all
You are your own sight

(Chorus)
I want to be the minority
I don't need your authority
Down with the moral majority
'Cause I want to be the minority

(Ending)
The minority
The minority
The minority
The minority
The minority
I want to be the minority
I want to be the minority
I want to be the minority
'Cause I want to be the minority!

----------------------------------------------------------------------------------
Green Day
Boulevard of Broken Dreams
----------------------------------------------------------------------------------
Guitar 1 - Billie Joe Armstrong (Standard Tuning)
Guitar 2 - Jason White          (Standard Tuning)
Guitar 3 - Mike Pelino          (Standard Tuning)

The beginning of the song (the part where the crowd freaks out, because they know it's
of Broken Dreams.') is pre-recorded.  The slide is pre-recorded as well, but I am going
say that Mike Pelino, (the guitarist that played during St. Jimmy) is playing the slide 
 It makes it easier for me to tab it out.

Introduction:
E|----------------------------------------------|
B|----------------------------------------------|
G|------------"I-Walk-A-Lonely-Road."-----------|
D|----"The-Only-One-That-I-Have-Ever-Known."----|
A|----------------------------------------------|
E|----------------------------------------------|

Verse: (Guitar 2 w/ Tremolo Effects)
E|-----------------------------------|
B|-----------------------------------|
G|-------------------8-8-8-----------|
D|-3-3-3----6-6-6----8-8-8----8-8-8--|
A|-3-3-3----6-6-6----6-6-6----8-8-8--|
E|-1-1-1----4-4-4-------------6-6-6--|

Slide: (Guitar 3 w/ Distortion)
E|-------------------------------|
B|-8/9--------13\11--------8/9---|
G|-------------------------------|
D|-------------------------------|
A|-------------------------------|
E|-------------------------------|

Verse: (Guitar 2 w/ Tremolo Effect)
E|-----------------------------------|
B|-----------------------------------|
G|-------------------8-8-8-----------|
D|-3-3-3----6-6-6----8-8-8----8-8-8--|
A|-3-3-3----6-6-6----6-6-6----8-8-8--|
E|-1-1-1----4-4-4-------------6-6-6--|

E|-----------------------------------|
B|-----------------------------------|
G|-------------------8-8-8-----------|
D|-3-3-3----6-6-6----8-8-8----8-8-8--|
A|-3-3-3----6-6-6----6-6-6----8-8-8--|
E|-1-1-1----4-4-4-------------6-6-6--|

Slide: (Guitar 3 w/ Distortion)
E|-------------------------------|
B|-8/9--------13\11--------8/9---|
G|-------------------------------|
D|-------------------------------|
A|-------------------------------|
E|-------------------------------|

E|-------------------------------|
B|-8/9--------13\11--------8/9---|
G|-------------------------------|
D|-------------------------------|
A|-------------------------------|
E|-------------------------------|

Chorus: (Guitar 1 & 2 w/ Distortion)
E|-------------------------------------|
B|-------------------------------------|
G|-6-6-6-6-----------8-8-8-8-----------|
D|-6-6-6-6--6-6-6-6--8-8-8-8--3-3-3-3--|
A|-4-4-4-4--6-6-6-6--6-6-6-6--3-3-3-3--|
E|----------4-4-4-4-----------1-1-1-1--|

E|-------------------------------------|
B|-------------------------------------|
G|-6-6-6-6-----------8-8-8-8-----------|
D|-6-6-6-6--6-6-6-6--8-8-8-8--3-3-3-3--|
A|-4-4-4-4--6-6-6-6--6-6-6-6--3-3-3-3--|
E|----------4-4-4-4-----------1-1-1-1--|

E|-------------------------------------|
B|-------------------------------------|
G|-6-6-6-6-----------8-8-8-8-----------|
D|-6-6-6-6--6-6-6-6--8-8-8-8--3-3-3-3--|
A|-4-4-4-4--6-6-6-6--6-6-6-6--3-3-3-3--|
E|----------4-4-4-4-----------1-1-1-1--|

E|----------------------------|
B|----------------------------|
G|-6-6-6-6-----------5-5-5-5--|
D|-6-6-6-6--6-6-6-6--5-5-5-5--|
A|-4-4-4-4--6-6-6-6--3-3-3-3--|
E|----------4-4-4-4-----------|

Bridge: (Guitar 2 w/ Tremolo Effect)
E|-----------------------------------|
B|-----------------------------------|
G|-------------------8-8-8-----------|
D|-3-3-3----6-6-6----8-8-8----8-8-8--|
A|-3-3-3----6-6-6----6-6-6----8-8-8--|
E|-1-1-1----4-4-4-------------6-6-6--|

E|-----------------------------------|
B|-----------------------------------|
G|-------------------8-8-8-----------|
D|-3-3-3----6-6-6----8-8-8----8-8-8--|
A|-3-3-3----6-6-6----6-6-6----8-8-8--|
E|-1-1-1----4-4-4-------------6-6-6--|

Verse: (Guitar 2 w/ Tremolo Effect)
E|-----------------------------------|
B|-----------------------------------|
G|-------------------8-8-8-----------|
D|-3-3-3----6-6-6----8-8-8----8-8-8--|
A|-3-3-3----6-6-6----6-6-6----8-8-8--|
E|-1-1-1----4-4-4-------------6-6-6--|

E|-----------------------------------|
B|-----------------------------------|
G|-------------------8-8-8-----------|
D|-3-3-3----6-6-6----8-8-8----8-8-8--|
A|-3-3-3----6-6-6----6-6-6----8-8-8--|
E|-1-1-1----4-4-4-------------6-6-6--|

Slide: (Guitar 3 w/ Distortion)
E|-------------------------------|
B|-8/9--------13\11--------8/9---|
G|-------------------------------|
D|-------------------------------|
A|-------------------------------|
E|-------------------------------|

E|-----------------------------------|
B|-----------------------------------|
G|-------------------8-8-8-----------|
D|-3-3-3----6-6-6----8-8-8----8-8-8--|
A|-3-3-3----6-6-6----6-6-6----8-8-8--|
E|-1-1-1----4-4-4-------------6-6-6--|

E|-----------------------------------|
B|-----------------------------------|
G|-------------------8-8-8-----------|
D|-3-3-3----6-6-6----8-8-8----8-8-8--|
A|-3-3-3----6-6-6----6-6-6----8-8-8--|
E|-1-1-1----4-4-4-------------6-6-6--|

Slide: (Guitar 3 w/ Distortion)
E|-------------------------------|
B|-8/9--------13\11--------8/9---|
G|-------------------------------|
D|-------------------------------|
A|-------------------------------|
E|-------------------------------|

E|-------------------------------|
B|-8/9--------13\11--------8/9---|
G|-------------------------------|
D|-------------------------------|
A|-------------------------------|
E|-------------------------------|

Chorus: (Guitar 1 & 2 w/ Distortion)
E|-------------------------------------|
B|-------------------------------------|
G|-6-6-6-6-----------8-8-8-8-----------|
D|-6-6-6-6--6-6-6-6--8-8-8-8--3-3-3-3--|
A|-4-4-4-4--6-6-6-6--6-6-6-6--3-3-3-3--|
E|----------4-4-4-4-----------1-1-1-1--|

E|-------------------------------------|
B|-------------------------------------|
G|-6-6-6-6-----------8-8-8-8-----------|
D|-6-6-6-6--6-6-6-6--8-8-8-8--3-3-3-3--|
A|-4-4-4-4--6-6-6-6--6-6-6-6--3-3-3-3--|
E|----------4-4-4-4-----------1-1-1-1--|

E|-------------------------------------|
B|-------------------------------------|
G|-6-6-6-6-----------8-8-8-8-----------|
D|-6-6-6-6--6-6-6-6--8-8-8-8--3-3-3-3--|
A|-4-4-4-4--6-6-6-6--6-6-6-6--3-3-3-3--|
E|----------4-4-4-4-----------1-1-1-1--|

E|----------------------------|
B|----------------------------|
G|-6-6-6-6-----------5-5-5-5--|
D|-6-6-6-6--6-6-6-6--5-5-5-5--|
A|-4-4-4-4--6-6-6-6--3-3-3-3--|
E|----------4-4-4-4-----------|

Bridge: (Guitar 2 w/ Tremolo Effect)
E|-----------------------------------|
B|-----------------------------------|
G|-------------------8-8-8-----------|
D|-3-3-3----6-6-6----8-8-8----8-8-8--|
A|-3-3-3----6-6-6----6-6-6----8-8-8--|
E|-1-1-1----4-4-4-------------6-6-6--|

E|-----------------------------------|
B|-----------------------------------|
G|-------------------8-8-8-----------|
D|-3-3-3----6-6-6----8-8-8----8-8-8--|
A|-3-3-3----6-6-6----6-6-6----8-8-8--|
E|-1-1-1----4-4-4-------------6-6-6--|

Guitar Solo: (Guitar 1 & 3 w/ Distortion (Rhythm Guitar))
E|-------------------------------------|
B|-------------------------------------|
G|-6-6-6-6-----------8-8-8-8-----------|
D|-6-6-6-6--6-6-6-6--8-8-8-8--3-3-3-3--|
A|-4-4-4-4--6-6-6-6--6-6-6-6--3-3-3-3--|
E|----------4-4-4-4-----------1-1-1-1--|

E|-------------------------------------|
B|-------------------------------------|
G|-6-6-6-6-----------8-8-8-8-----------|
D|-6-6-6-6--6-6-6-6--8-8-8-8--3-3-3-3--|
A|-4-4-4-4--6-6-6-6--6-6-6-6--3-3-3-3--|
E|----------4-4-4-4-----------1-1-1-1--|

E|-------------------------------------|
B|-------------------------------------|
G|-6-6-6-6-----------8-8-8-8-----------|
D|-6-6-6-6--6-6-6-6--8-8-8-8--3-3-3-3--|
A|-4-4-4-4--6-6-6-6--6-6-6-6--3-3-3-3--|
E|----------4-4-4-4-----------1-1-1-1--|

E|--------------------------------------------|
B|--------------------------------------------|
G|-6-6-6-6-----------5-5-5-5-5-5-5-5-5-5-5-5--|
D|-6-6-6-6--6-6-6-6--5-5-5-5-5-5-5-5-5-5-5-5--|
A|-4-4-4-4--6-6-6-6--3-3-3-3-3-3-3-3-3-3-3-3--|
E|----------4-4-4-4---------------------------|

 (Guitar 2 w/ Distortion (Lead Guitar))
E|-------------------------------------------------------------------------------|
B|-------------------------------------------------------------------------------|
G|-11-11-12-12-12-12-12-12-12-12-12-12-12-12-12-12-12-12-16-16-12-12-12-12-12-12-|
D|-x--x--x--x--x--x--x--x--x--x--x--x--x--x--x--x--x--x--x--x--x--x--x--x--x--x--|
A|-9--9--10-10-10-10-10-10-10-10-10-10-10-10-10-10-10-10-14-14-14-14-14-14-14-14-|
E|-------------------------------------------------------------------------------|

E|----------------------------------------|
B|----------------------------------------|
G|-11-11-12-12-12-12-12-12-12-12-9-9-9-9--|
D|-x--x--x--x--x--x--x--x--x--x--x-x-x-x--|
A|-9--9--10-10-10-10-10-10-10-10-7-7-7-7--|
E|----------------------------------------|

E|-------------------------------------------------------------------------------|
B|-------------------------------------------------------------------------------|
G|-11-11-12-12-12-12-12-12-12-12-12-12-12-12-12-12-12-12-16-16-12-12-12-12-12-12-|
D|-x--x--x--x--x--x--x--x--x--x--x--x--x--x--x--x--x--x--x--x--x--x--x--x--x--x--|
A|-9--9--10-10-10-10-10-10-10-10-10-10-10-10-10-10-10-10-14-14-14-14-14-14-14-14-|
E|-------------------------------------------------------------------------------|

E|----------------------------------------|
B|----------------------------------------|
G|-11-11-12-12-12-12-12-12-12-12-9-9-9-9--|
D|-x--x--x--x--x--x--x--x--x--x--x-x-x-x--|
A|-9--9--10-10-10-10-10-10-10-10-7-7-7-7--|
E|----------------------------------------|

E|-------------------------------------------------------------------------------|
B|-------------------------------------------------------------------------------|
G|-11-11-12-12-12-12-12-12-12-12-12-12-12-12-12-12-12-12-16-16-12-12-12-12-12-12-|
D|-x--x--x--x--x--x--x--x--x--x--x--x--x--x--x--x--x--x--x--x--x--x--x--x--x--x--|
A|-9--9--10-10-10-10-10-10-10-10-10-10-10-10-10-10-10-10-14-14-14-14-14-14-14-14-|
E|-------------------------------------------------------------------------------|

E|----------------------------------------|
B|----------------------------------------|
G|-11-11-12-12-12-12-12-12-12-12-9-9-9-9--|
D|-x--x--x--x--x--x--x--x--x--x--x-x-x-x--|
A|-9--9--10-10-10-10-10-10-10-10-7-7-7-7--|
E|----------------------------------------|

E|-------------------------------------------------------------------------------|
B|-------------------------------------------------------------------------------|
G|-11-11-12-12-12-12-12-12-12-12-12-12-12-12-12-12-12-12-16-16-12-12-12-12-12-12-|
D|-x--x--x--x--x--x--x--x--x--x--x--x--x--x--x--x--x--x--x--x--x--x--x--x--x--x--|
A|-9--9--10-10-10-10-10-10-10-10-10-10-10-10-10-10-10-10-14-14-14-14-14-14-14-14-|
E|-------------------------------------------------------------------------------|

E|-------------------------------------------------------------------------------|
B|-------------------------------------------------------------------------------|
G|-16-16-16-16-16-16-16-16-16-16-16-16-16-16-16-16-16-16-16-16-16-16-16-16-16-16-|
D|-x--x--x--x--x--x--x--x--x--x--x--x--x--x--x--x--x--x--x--x--x--x--x--x--x--x--|
A|-14-14-14-14-14-14-14-14-14-14-14-14-14-14-14-14-14-14-14-14-14-14-14-14-14-14-|
E|-------------------------------------------------------------------------------|

Instrumental: (Guitar 2 w/ Tremolo Effect)
E|-----------------------------------|
B|-----------------------------------|
G|-------------------8-8-8-----------| (x2)
D|-3-3-3----6-6-6----8-8-8----8-8-8--|
A|-3-3-3----6-6-6----6-6-6----8-8-8--|
E|-1-1-1----4-4-4-------------6-6-6--|

Verse: (Guitar 2 w/ Tremolo Effect)
E|-----------------------------------|
B|-----------------------------------|
G|-------------------8-8-8-----------|
D|-3-3-3----6-6-6----8-8-8----8-8-8--|
A|-3-3-3----6-6-6----6-6-6----8-8-8--|
E|-1-1-1----4-4-4-------------6-6-6--|

E|-----------------------------------|
B|-----------------------------------|
G|-------------------8-8-8-----------|
D|-3-3-3----6-6-6----8-8-8----8-8-8--|
A|-3-3-3----6-6-6----6-6-6----8-8-8--|
E|-1-1-1----4-4-4-------------6-6-6--|

Chorus: (Guitar 1 & 3 w/ Distortion)
E|-------------------------------------|
B|-------------------------------------|
G|-6-6-6-6-----------8-8-8-8-----------|
D|-6-6-6-6--6-6-6-6--8-8-8-8--3-3-3-3--|
A|-4-4-4-4--6-6-6-6--6-6-6-6--3-3-3-3--|
E|----------4-4-4-4-----------1-1-1-1--|

E|-------------------------------------|
B|-------------------------------------|
G|-6-6-6-6-----------8-8-8-8-----------|
D|-6-6-6-6--6-6-6-6--8-8-8-8--3-3-3-3--|
A|-4-4-4-4--6-6-6-6--6-6-6-6--3-3-3-3--|
E|----------4-4-4-4-----------1-1-1-1--|

 (Guitar 2 w/ Distortion)(Lead Guitar)
E|-------------------------------------------------------------------------------|
B|-------------------------------------------------------------------------------|
G|-11-11-12-12-12-12-12-12-12-12-12-12-12-12-12-12-12-12-16-16-12-12-12-12-12-12-|
D|-x--x--x--x--x--x--x--x--x--x--x--x--x--x--x--x--x--x--x--x--x--x--x--x--x--x--|
A|-9--9--10-10-10-10-10-10-10-10-10-10-10-10-10-10-10-10-14-14-14-14-14-14-14-14-|
E|-------------------------------------------------------------------------------|

E|----------------------------------------|
B|----------------------------------------|
G|-11-11-12-12-12-12-12-12-12-12-9-9-9-9--|
D|-x--x--x--x--x--x--x--x--x--x--x-x-x-x--|
A|-9--9--10-10-10-10-10-10-10-10-7-7-7-7--|
E|----------------------------------------|

E|-------------------------------------------------------------------------------|
B|-------------------------------------------------------------------------------|
G|-11-11-12-12-12-12-12-12-12-12-12-12-12-12-12-12-12-12-16-16-12-12-12-12-12-12-|
D|-x--x--x--x--x--x--x--x--x--x--x--x--x--x--x--x--x--x--x--x--x--x--x--x--x--x--|
A|-9--9--10-10-10-10-10-10-10-10-10-10-10-10-10-10-10-10-14-14-14-14-14-14-14-14-|
E|-------------------------------------------------------------------------------|

E|-------------------------------------------------------------------------------|
B|-------------------------------------------------------------------------------|
G|-16-16-16-16-16-16-16-16-16-16-16-16-16-16-16-16-16-16-16-16-16-16-16-16-16-16-|
D|-x--x--x--x--x--x--x--x--x--x--x--x--x--x--x--x--x--x--x--x--x--x--x--x--x--x--|
A|-14-14-14-14-14-14-14-14-14-14-14-14-14-14-14-14-14-14-14-14-14-14-14-14-14-14-|
E|-------------------------------------------------------------------------------|

E|-------------------------------------|
B|-------------------------------------|
G|-6-6-6-6-----------8-8-8-8-----------|
D|-6-6-6-6--6-6-6-6--8-8-8-8--3-3-3-3--|
A|-4-4-4-4--6-6-6-6--6-6-6-6--3-3-3-3--|
E|----------4-4-4-4-----------1-1-1-1--|

E|----------------------------|
B|----------------------------|
G|-6-6-6-6-----------5-5-5-5--|
D|-6-6-6-6--6-6-6-6--5-5-5-5--|
A|-4-4-4-4--6-6-6-6--3-3-3-3--|
E|----------4-4-4-4-----------|

Ending: (Guitar 1 & 3 w/ Distortion)
E|-------------------------------------------------|
B|-------------------------------------------------|
G|---------6-6-6---8-8-8---7-7-7-------------------| (x3)
D|-3-3-3---6-6-6---8-8-8---7-7-7---6-6-6---2-2-2---|
A|-3-3-3---4-4-4---6-6-6---5-5-5---6-6-6---2-2-2---|
E|-1-1-1---------------------------4-4-4---0-0-0---|

 (Guitar 2 w/ Distortion and Wah-Wah Pedal)
E|-------------------------------------------------------------------------|
B|-------------------------------------------------------------------------|
G|-12-12-12-12-12-12-12-12-12-12-12-12-12-12-12-12-16-16-16-16-13-13-13-13-| (x3)
D|-x--x--x--x--x--x--x--x--x--x--x--x--x--x--x--x--x--x--x--x--x--x--x--x--|
A|-10-10-10-10-10-10-10-10-10-10-10-10-10-10-10-10-14-14-14-14-11-11-11-11-|
E|-------------------------------------------------------------------------|

(Guitar 1 & 3 w/ Distortion)
E|---------------------------------------------|
B|---------------------------------------------|
G|---------6-6-6---8-8-8---7-7-7---------------| (x1)
D|-3-3-3---6-6-6---8-8-8---7-7-7---6-6---2-2---|
A|-3-3-3---4-4-4---6-6-6---5-5-5---6-6---2-2---|
E|-1-1-1---------------------------4-4---0-0---|

(Guitar 2 w/ Distortion and Wah-Wah Pedal)
E|-------------------------------------------------------------|
B|-------------------------------------------------------------|
G|-12-12-12-12-12-12-12-12-12-12-12-12-12-12-12-12-16-16-12-12-| (x1)
D|-x--x--x--x--x--x--x--x--x--x--x--x--x--x--x--x--x--x--x--x--|
A|-10-10-10-10-10-10-10-10-10-10-10-10-10-10-10-10-14-14-10-10-|
E|-------------------------------------------------------------|

Lyrics:
(Introduction)
Boom!

(Verse)
I Walk A Lonely Road
The Only One That I Have Ever Known
Don’t Know Where It Goes
But It’s Home To Me And I Walk Alone

I Walk This Empty Street
On The Boulevard Of Broken Dreams
When The City Sleeps
And I’m The Only One And I Walk Alone

I Walk Alone, I Walk Alone
Hey!
I Walk Alone, I Walk A...

(Chorus)
My Shadow’s The Only One That Walks Beside Me
My Shallow Heart’s The Only Thing That’s Beating
Sometimes I Wish Someone Out There Will Find Me
‘Til Then I Walk Alone

(Bridge)
Ah Ah Ah Ah Ah Ah Ah Ah
Ah Ah Ah Ah Ah Ah

(Verse)
I’m Walking Down The Line
That Divides Me Somewhere In My Mind
On The Border Line
Of The Edge And Where I Walk Alone

Hey!

Read Between The Lines
What’s Fucked Up And Everything’s Alright
Check My Vital Signs
And Know I’m Still Alive And I Walk Alone
Hey!
I Walk Alone, I Walk Alone
I Walk Alone, I Walk A...

(Chorus)
My Shadow’s The Only One That Walks Beside Me
My Shallow Heart’s The Only Thing That’s Beating
Sometimes I Wish Someone Out There Will Find Me
‘Til Then I Walk Alone

(Bridge)
Ah Ah Ah Ah Ah Ah Ah Ah
Ah Ah Ah Ah Ah

I Walk Alone, I Walk A...

Hey!

(Verse)
I Walk This Empty Street
On The Boulevard Of Broken Dreams
When The City Sleeps
And I’m The Only One And I Walk A...

(Chorus)
My Shadow’s The Only One That Walks Beside Me
My Shallow Heart’s The Only Thing That’s Beating
Sometimes I Wish Someone Out There Will Find Me
‘Til Then I Walk Alone!

----------------------------------------------------------------------------------
Green Day
Good Riddance (Time of Your Life)
----------------------------------------------------------------------------------
Guitar 1 - Billie Joe Armstrong (Standard Tuning)

I like how Billie Joe plays this song.  It's spiffy.

Intro: (Guitar 1 w/ Distortion)(Palm Muting)
E|---------------------------------------------------------|
B|-----3-------------3-------------3-------------3---------|
G|-------0---0---------0---0---------0---0-----0---0---0---| (x2)
D|---0-----0-------0-----0-------2-----2-----2-------2-----|
A|-----------------------------3---------------------------|
E|-3-------------3-----------------------------------------|

Verse: (Guitar 1 w/ Distortion)(Palm Muting)
E|---------------------------------------------------------|
B|-----3-------------3-------------3-------------3---------|
G|-------0---0---------0---0---------0---0-----0---0---0---|
D|---0-----0-------0-----0-------2-----2-----2-------2-----|
A|-----------------------------3---------------------------|
E|-3-------------3-----------------------------------------|

E|---------------------------------------------------------|
B|-----3-------------3-------------3-------------3---------|
G|-------0---0---------0---0---------0---0-----0---0---0---|
D|---0-----0-------0-----0-------2-----2-----2-------2-----|
A|-----------------------------3---------------------------|
E|-3-------------3-----------------------------------------|

E|---------------------------------------------------------|
B|-----0-------------3-------------3-------------3---------|
G|-------0---0-----0---0---0---------0---0---------0---0---|
D|---2-----2-----2-------2-------2-----2-------0-----0-----|
A|-2---------------------------3---------------------------|
E|-------------------------------------------3-------------|

E|---------------------------------------------------------|
B|-----0-------------3-------------3-------------3---------|
G|-------0---0-----0---0---0---------0---0---------0---0---|
D|---2-----2-----2-------2-------2-----2-------0-----0-----|
A|-2---------------------------3---------------------------|
E|-------------------------------------------3-------------|

Chorus: (Guitar 1 w/ Distortion)(Palm Muting)
E|------------------------------------------------------------------------------|
B|-----0------------3------------0------------3------------0------------3-------|
G|-------0---0--------0---0--------0---0--------0---0--------0---0----0---0---0-|
D|---2-----2------0-----0------2-----2------0-----0------2-----2----2-------2---|
A|-2-------------------------2-------------------------2------------------------|
E|--------------3-------------------------3-------------------------------------|

Instrumental: (Guitar 1 w/ Distortion)
E|----------------------------------------|
B|----------------------------------------|
G|-------------------55555555--77777777---| (x2)
D|-5555555555555555--55555555--77777777---|
A|-5555555555555555--33333333--55555555---|
E|-3333333333333333-----------------------|

Verse: (Guitar 1 w/ Distortion)(Palm Muting)
E|-------------------------------------------0---0--|
B|-----3-------------3-------------3---------3---3--|
G|-------0---0---------0---0---------0---0---2---0--|
D|---0-----0-------0-----0-------2-----2-----0---0--|
A|-----------------------------3-------------0---2--|
E|-3-------------3---------------------------0---3--|

E|---------------------------------------------------------|
B|-----3-------------3-------------3-------------3---------|
G|-------0---0---------0---0---------0---0-----0---0---0---|
D|---0-----0-------0-----0-------2-----2-----2-------2-----|
A|-----------------------------3---------------------------|
E|-3-------------3-----------------------------------------|

Chorus: (Guitar 1 w/ Distortion)(Palm Muting)
E|---------------------------------------------------------|
B|-----0-------------3-------------3-------------3---------|
G|-------0---0-----0---0---0---------0---0---------0---0---|
D|---2-----2-----2-------2-------2-----2-------0-----0-----|
A|-2---------------------------3---------------------------|
E|-------------------------------------------3-------------|

E|---------------------------------------------------------|
B|-----0-------------3-------------3-------------3---------|
G|-------0---0-----0---0---0---------0---0---------0---0---|
D|---2-----2-----2-------2-------2-----2-------0-----0-----|
A|-2---------------------------3---------------------------|
E|-------------------------------------------3-------------|

Chorus: (Guitar 1 w/ Distortion)(Palm Muting)
E|------------------------------------------------------------------------------|
B|-----0------------3------------0------------3------------0------------3-------|
G|-------0---0--------0---0--------0---0--------0---0--------0---0----0---0---0-|
D|---2-----2------0-----0------2-----2------0-----0------2-----2----2-------2---|
A|-2-------------------------2-------------------------2------------------------|
E|--------------3-------------------------3-------------------------------------|

Instrumental: (Guitar 1 w/ Distortion)
E|----------------------------------------|
B|----------------------------------------|
G|-------------------55555555--77777777---| (x2)
D|-5555555555555555--55555555--77777777---|
A|-5555555555555555--33333333--55555555---|
E|-3333333333333333-----------------------|

Guitar Solo: (Guitar 1 w/ Distortion)(Palm Muting)
E|----------------------------------------|
B|----------------------------------------|
G|-------------------55555555--77777777---| (x2)
D|-5555555555555555--55555555--77777777---|
A|-5555555555555555--33333333--55555555---|
E|-3333333333333333-----------------------|

E|-----0--------------0---0------------------------------|
B|-------0----------3---3---3------3------------3--------|
G|---------0------2------------------0---0--------0---0--|
D|---2-------2--0----------------2-----2------0-----0----|
A|-2---------------------------3-------------------------|
E|------------------------------------------3------------|

E|-----0--------------0---0---------------------------|
B|-------0----------3---3---3------3------------------|
G|---------0------2------------------0---0------------|
D|---2-------2--0----------------2-----2----5-5-5555--|
A|-2---------------------------3------------5-5-5555--|
E|------------------------------------------3-3-3333--|

Chorus: (Guitar 1 w/ Distortion)(Palm Muting)
E|------------------------------------------------------------------|
B|------------------------------------------------------------------|
G|--------------------------------------------------------77777777--|
D|-22222222---55555555---22222222---55555555---22222222---77777777--|
A|-22222222---55555555---22222222---55555555---22222222---55555555--|
E|-00000000---33333333---00000000---33333333---00000000-------------|

Instrumental: (Guitar 1 w/ Distortion)
E|----------------------------------------|
B|----------------------------------------|
G|-------------------55555555--77777777---| (x2)
D|-5555555555555555--55555555--77777777---|
A|-5555555555555555--33333333--55555555---|
E|-3333333333333333-----------------------|

Chorus: (Guitar 1 w/ Distortion)(Palm Muting)
E|---------------------------------------|
B|---------------------------------------|
G|------------------------------------7--|
D|-2------5------2------5------2------7--|
A|-2------5------2------5------2------5--|
E|-0------3------0------3------0---------|

Ending: (Guitar 1 w/ Distortion)(Palm Muting)
E|---------------------------------------------------------|      |--3--|
B|-----3-------------3-------------3-------------3---------|      |--3--|
G|-------0---0---------0---0---------0---0-----0---0---0---| (x2) |--0--|
D|---0-----0-------0-----0-------2-----2-----2-------2-----|      |--0--|
A|-----------------------------3---------------------------|      |--2--|
E|-3-------------3-----------------------------------------|      |--3--|

Lyrics:
(Verse)
Another Turning Point, A Fork Stuck In The Road
Time Grabs You By The Wrists And Directs You Where To Go
So Make The Best Of This Test And Don’t Ask Why
It’s Not A Question But A Lesson Learned In Time

(Chorus)
It’s Something Unpredictable
And In The End It’s Right
I Hope You Had The Time Of Your Life

(Verse)
Take All The Photographs And Still Frames In Your Mind
Hang Them On A Shelf In Good Health And Good Time
Tattoos Of Memories And Dead Skin On Trial
For What It’s Worth
It Was Worth All The While

(Chorus)
It’s Something Unpredictable
And In The End It’s Right
I Hope You Had The Time Of Your Life

(Chorus)
It’s Something Unpredictable
And In The End It’s Right
I Hope You Had The Time Of Your Life

(Chorus)
It’s Something Unpredictable
And In The End It’s Right
I Hope You Had The Time Of Your Life

----------------------------------------------------------------------------------
/ Slide Up
\ Slide Down
h Hammer On
p Pull Off
v Vibrato
+ Harmonic
x Mute Note
----------------------------------------------------------------------------------|
----------------------------------------------------------------------------------|
Well, that's all I've got for you folks.  Due to the fact that this document is
 there may be some mistakes throughout it.  If you spot any errors that I might have 
just
me know.  Please don't tell me how you play the songs, because I could really care less. 
If you have and questions or comments, e-mail me at noodleman5@msn.com or just leave me
comment here at Ultimate-Guitar.com.  Thanks.
----------------------------------------------------------------------------------
comments
print report bad tab
12 comments total. Showing first comments.
0 reply
guitar_player5 wrote on August 16 2006, 11:46 pm

I messed up on the guitar solo for 'Boulevard of Broken Dreams.'

Incorrect: |------| Correct: |------|
|------| |------|
|--12--| |--14--|
|--x---| |--x---|
|--14--| |--12--|
|------| |------|

There you go. I fixed it.

0 reply
thestef_d wrote on September 2 2006, 05:44 pm

lol wut the hell is boom!, and [hahahaha]
lol and also did u have to put all the crap he says in solos

0 reply
guitar_player5 wrote on September 4 2006, 10:58 pm

I just wanted to make it as accurate as possible and yet someone still finds a way to bitch about something.

I want to post or [tab]
guest
You may want to rate the tab now too:
select rating
Please do not post tabs as comments. Select "correction" instead!