Oops, an error
Loading. Please wait.

Bullet In A Bible Tab

ver2
ver2

Album

More versions @911Tabs.com
27,765 views 30 this week
65 commentsread comments
1 2 3 4 5
excellent!
x 48
Autoscroll
+/-
esc
set tempo
stop
Contributor
NEW! There's an official Ultimate Guitar app which is ideal
for learning songs when you're away from computer. Get the app
WARNING: You are trying to view
                                    content from Ultimate-Guitar.com
                                    in an unauthorized application,
                                    which is prohibited.

                                    Please use an official Ultimate
                                    Guitar Tabs application for iPhone,
                                    iPad or Android to access legitimate
                                    chords, guitar, bass, and drum tabs
                                    from Ultimate-Guitar.com database.

                                    Type "ultimate guitar tabs" in Apple
                                    App Store's or Android Market's
                                    search to find the application.
Green Day Bullet in a Bible
Whole album tab
Tabbed by Liam
Email: guitar_rocker_47@hotmail.com
Tuning: individual tuning is specified on each tab

This is the whole actual bullet in a bible album tabbed fully and only by me, it has
all the extras and the added bits the guys added to each song and also shout. Please have fun,
and comment? It would be appreciated, thanks.

Additional (added while tabbing first track) I am tabbing the songs as heard, as this is easier
to read and there is no confusing order at the bottom. Also the x3 or x5 whatever means you
repeat that bar or bars where applicable that amount of times, obviously.

2nd Additional (added while tabbing minority) I am under the knowledge that the Audio CD
Bullet in a Bible, differs slightly from the DVD. As the CD cuts bits out, and I am tabbing
the CD NOT the DVD, so if it appears that there is bits missing out of the tabs, there is
not, its cos I am tabbing the Audio CD, if you should require the extra DVD bits, just email me and
request and I’ll have a go at tabbing them for you.

1.	American Idiot
2.	Jesus of Suburbia
•	Jesus of Suburbia
•	City of the Damned
•	I Don’t Care
•	Dearly Beloved
•	Tales of another Broken Home
3.	Holiday
4.	Are we Waiting
5.	St. Jimmy
6.	Longview
7.	Hitchin’ a Ride
8.	Brain stew
9.	Basket Case
10.	King for a day/Shout
11.	Wake me up when September Ends
12.	Minority
13.	Boulevard of Broken Dreams
14.	Good Riddance (Time of your Life)


-----------------------------------------------------------------------------------------
Green Day
American Idiot

Guitar 1 –EADGBe –Billie Joe Armstrong
Guitar 2 –EADGBe –Jason White

Intro
 |Guitar 1 (clean)                               |Distortion)
e|-----------------------------------------------|---------------------------4-|
B|-----------------------------------------------|---------------------------4-|
G|-------------------------------6-6--------6----|----------6-6--------6-----4-|
D|-xxxxxxxx-xxxxxxxx-xxxx--6-6---6-6---4-4--6--6-|-4--6-6---6-6---4-4--6--6--4-|
A|-xxxxxxxx-xxxxxxxx-xxxx--6-6---4-4---4-4--4--6-|-4--6-6---4-4---4-4--4--6----|
E|-xxxxxxxx-xxxxxxxx-xxxx--4-4-0-----0-2-2-----4-|-2--4-4--0----0-2-2-----4----|
 |Guitar 2
e|---------------------------------------------------------------------------4-|
B|---------------------------------------------------------------------------4-|
G|----------------------------------------------------------6-6--------6-----4-|
D|-------------------------------------------------4--6-6---6-6---4-4--6--6--4-|
A|-------------------------------------------------4--6-6---4-4---4-4--4--6----|
E|-------------------------------------------------2--4-4--0----0-2-2-----4----|

Pre Verse
 |Both guitars
e|-----------------------------------|---------------------------------4-|
B|-----------------------------------|---------------------------------4-|
G|-----------6--6----------6---------|------------6--6----------6------4-|
D|--6--6-----6--6-----4-4--6--6--4---|---6--6-----6--6-----4-4--6--6---4-|
A|--6--6-----4--4-----4-4--4--6--4---|---6--6-----4--4-----4-4--4--6-----|
E|--4--4--0--------0--2-2-----4--2---|---4--4--0--------0--2-2-----4-----|

Verse
 |Both guitars
(Pause for lyrics)
e|-4-----------------------------------------------4--------------------------4--|
B|-4-----------------------------------------------4--------------------------4--|
G|-4-------6-6---------6---------------------------4--------6-6---------6-----4--|
D|-4-6-6---6-6----4-4--6--6--4-(pause for lyrics)--4--6-6---6-6----4-4--6--6--4--|
A|---6-6---4-4----4-4--4--6--4------------------------6-6---4-4----4-4--4--6-----|
E|---4-4-0-----0--2-2-----4--2------------------------4-4-0-----0--2-2-----4-----|

(Pause for lyrics)

e|-4-----------------------------------------------4--------------------------4--|
B|-4-----------------------------------------------4--------------------------4--|
G|-4-------6-6---------6---------------------------4--------6-6---------6-----4--|
D|-4-6-6---6-6----4-4--6--6--4-(pause for lyrics)--4--6-6---6-6----4-4--6--6--4--|
A|---6-6---4-4----4-4--4--6--4------------------------6-6---4-4----4-4--4--6-----|
E|---4-4-0-----0--2-2-----4--2------------------------4-4-0-----0--2-2-----4-----|

Chorus
 |Both guitars
e|-----------------------------------------------|
B|-----------------------------------------------|
G|-6666666666-------------8888888888-------------|
D|-6666666666--6666666666-8888888888--6666666666-|
A|-4444444444--6666666666-6666666666--6666666666-|
E|-------------4444444444-------------4444444444-|

e|-----------------------------------------------|
B|---------------------------------------------4-|
G|-6666666666-------------8888888888---(drum---4-|
D|-6666666666--6666666666-8888888888----fill)--4-|
A|-4444444444--6666666666-6666666666-----------4-|
E|-------------4444444444------------------------|

Pre Verse 2
 |Both guitars
e|-----------------------------------|---------------------------------4-|
B|-----------------------------------|---------------------------------4-|
G|-----------6--6----------6---------|------------6--6----------6------4-|
D|--6--6-----6--6-----4-4--6--6--4---|---6--6-----6--6-----4-4--6--6---4-|
A|--6--6-----4--4-----4-4--4--6--4---|---6--6-----4--4-----4-4--4--6-----|
E|--4--4--0--------0--2-2-----4--2---|---4--4--0--------0--2-2-----4-----|

Verse 2
 |Both guitars
(Pause for lyrics)
e|-4-----------------------------------------------4--------------------------4--|
B|-4-----------------------------------------------4--------------------------4--|
G|-4-------6-6---------6---------------------------4--------6-6---------6-----4--|
D|-4-6-6---6-6----4-4--6--6--4-(pause for lyrics)--4--6-6---6-6----4-4--6--6--4--|
A|---6-6---4-4----4-4--4--6--4------------------------6-6---4-4----4-4--4--6-----|
E|---4-4-0-----0--2-2-----4--2------------------------4-4-0-----0--2-2-----4-----|

(Pause for lyrics)

e|-4-----------------------------------------------4--------------------------4--|
B|-4-----------------------------------------------4--------------------------4--|
G|-4-------6-6---------6---------------------------4--------6-6---------6-----4--|
D|-4-6-6---6-6----4-4--6--6--4-(pause for lyrics)--4--6-6---6-6----4-4--6--6--4--|
A|---6-6---4-4----4-4--4--6--4------------------------6-6---4-4----4-4--4--6-----|
E|---4-4-0-----0--2-2-----4--2------------------------4-4-0-----0--2-2-----4-----|

Chorus 2
 |Both guitars
e|-----------------------------------------------|
B|-----------------------------------------------|
G|-6666666666-------------8888888888-------------|
D|-6666666666--6666666666-8888888888--6666666666-|
A|-4444444444--6666666666-6666666666--6666666666-|
E|-------------4444444444-------------4444444444-|

e|-----------------------------------------------|
B|---------------------------------------------4-|
G|-6666666666-------------8888888888---(drum---4-|
D|-6666666666--6666666666-8888888888----fill)--4-|
A|-4444444444--6666666666-6666666666-----------4-|
E|-------------4444444444------------------------|

Pre solo
 |Both guitars
e|-----------------------------------|---------------------------------4-|
B|-----------------------------------|---------------------------------4-|
G|-----------6--6----------6---------|------------6--6----------6------4-|
D|--6--6-----6--6-----4-4--6--6--4---|---6--6-----6--6-----4-4--6--6---4-| x2
A|--6--6-----4--4-----4-4--4--6--4---|---6--6-----4--4-----4-4--4--6-----|
E|--4--4--0--------0--2-2-----4--2---|---4--4--0--------0--2-2-----4-----|

Solo
 |Guitar 1
e|----------------------------------------------------------|
B|----------------------------------------------------------|
G|--6-6-6-6-6-6-6-6-6-6-6-6-6-------------------------------|
D|--6-6-6-6-6-6-6-6-6-6-6-6-6---6-6-6-6-6-6-6-6-6-6-6-6-6-6-|
A|--4-4-4-4-4-4-4-4-4-4-4-4-4---6-6-6-6-6-6-6-6-6-6-6-6-6-6-|
E|------------------------------4-4-4-4-4-4-4-4-4-4-4-4-4-4-|
 |Guitar 2
e|----------------------------------------------------------|
B|----------------------------------------------------------|
G|-10101010101010101010--8--6--6/8-8-8-8-8-8-8/10--8--6--5--|
D|--x-x-x-x-x-x-x-x-x-x--x--x--x-x-x-x-x-x-x-x--x--x--x--x--|
A|--8-8-8-8-8-8-8-8-8-8--6--4--4/6-6-6-6-6-6-6/-8--6--4--3--|
E|----------------------------------------------------------|

 |Guitar 1
e|------------------------------------------------------------|
B|------------------------------------------------------------|
G|--8-8-8-8-8-8-8-8-8-8-8-8-8-8-------------------------------|
D|--8-8-8-8-8-8-8-8-8-8-8-8-8-8----6-6-6-6-6-6-6-6-6-6-6-6-6--|
A|--6-6-6-6-6-6-6-6-6-6-6-6-6-6----6-6-6-6-6-6-6-6-6-6-6-6-6--|
E|---------------------------------4-4-4-4-4-4-4-4-4-4-4-4-4--|
 |Guitar 2
e|----------------------------------------------8-------------|
B|------------------------------------9----11----------9---11-|
G|-3--3333--5--6--5--3-3-3-3-/8----88---88---88---8888---8----|
D|------------------------------------------------------------|
A|------------------------------------------------------------|
E|------------------------------------------------------------|

|Guitar 1
e|---------------------------------------------------------------------------------|
B|---------------------------------------------------------------------------------|
G|--6-6-6-6-6-6-6-6-6-6-6-6-6--------------------------------8-8-8-8-8-8-8-8-8-8-8-|
D|--6-6-6-6-6-6-6-6-6-6-6-6-6---6-6-6-6-6-6-6-6-6-6-6-6-6-6--8-8-8-8-8-8-8-8-8-8-8-|
A|--4-4-4-4-4-4-4-4-4-4-4-4-4---6-6-6-6-6-6-6-6-6-6-6-6-6-6--6-6-6-6-6-6-6-6-6-6-6-|
E|------------------------------4-4-4-4-4-4-4-4-4-4-4-4-4-4------------------------|
 |Guitar 2
e|---------------------------------------------------------------------------------|
B|------------------------------------------------------------------------------9b-|
G|-10101010101010101010-8--6--6/8-8-8-8-8-8-8/10--8--6--5---3-3333--5-6-5-3-5/8----|
D|--x-x-x-x-x-x-x-x-x-x-x--x--x-x-x-x-x-x-x-x--x--x--x--x--------------------------|
A|--8-8-8-8-8-8-8-8-8-8-6--4--4/6-6-6-6-6-6-6/-8--6--4--3--------------------------|
E|---------------------------------------------------------------------------------|

Interlude
 |Guitar 1
e|---------------------------|--------------------------|--------------------------|
B|---------------------------|--------------------------|--------------------------|
G|-13----13----13----13----13|-13----13----13----13---13|-13----13----13----13---13|
D|----13----13----13----13---|----13----13----13---13---|----13----13----13---13---|
A|---------------------------|--------------------------|--------------------------|
E|---------------------------|--------------------------|--------------------------|
 |Guitar 2
e|---------------------------|--------------------------|--------------------------|
B|---------------------------|--------------------------|--------------------------|
G|--------6-6----------6-----|--------6-6----------6----|--------6-6----------6----|
D|-6-6----6-6-----4-4--6--6--|-6-6----6-6-----4-4--6--6-|-6-6----6-6-----4-4--6--6-|
A|-6-6----4-4-----4-4--4--6--|-6-6----4-4-----4-4--4--6-|-6-6----4-4-----4-4--4--6-|
E|-4-4--0------0--2-2-----4--|-4-4--0------0--2-2-----4-|-4-4--0------0--2-2-----4-|

 |Guitar 1
e|---------------------------------------------------------------------------------|
B|--------------------------------------------|guitar one is now-------------------|
G|-13----13----13----13----13~~-----------------Tacet and us for-------------------|
D|----13----13----13----13-------------------------a while|------------------------|
A|---------------------------------------------------------------------------------|
E|---------------------------------------------------------------------------------|
 |Guitar 2
e|---------------------------|--------------------------|--------------------------|
B|---------------------------|--------------------------|--------------------------|
G|--------6-6----------6-----|--------6-6----------6----|--------6-6----------6----|
D|-6-6----6-6-----4-4--6--6--|-6-6----6-6-----4-4--6--6-|-6-6----6-6-----4-4--6--6-|
A|-6-6----4-4-----4-4--4--6--|-6-6----4-4-----4-4--4--6-|-6-6----4-4-----4-4--4--6-|
E|-4-4--0------0--2-2-----4--|-4-4--0------0--2-2-----4-|-4-4--0------0--2-2-----4-|

 |Guitar 2 now only (this is played under Billie when he talks to the crowd)
e|---------------------------|--------------------------|--------------------------|
B|---------------------------|--------------------------|--------------------------|
G|--------6-6----------6-----|--------6-6----------6----|--------6-6----------6----|
D|-6-6----6-6-----4-4--6--6--|-6-6----6-6-----4-4--6--6-|-6-6----6-6-----4-4--6--6-| x9
A|-6-6----4-4-----4-4--4--6--|-6-6----4-4-----4-4--4--6-|-6-6----4-4-----4-4--4--6-|
E|-4-4--0------0--2-2-----4--|-4-4--0------0--2-2-----4-|-4-4--0------0--2-2-----4-|

Then play:

Guitar 2
E|--------------------------|
B|--------------------------|
G|-“It’s calling out to-----|
D|-----idiot America”-------|
A|--------------------------|
E|---------------------9\---|

Chorus 3
 |Both guitars
e|-----------------------------------------------|
B|-----------------------------------------------|
G|-6666666666-------------8888888888-------------|
D|-6666666666--6666666666-8888888888--6666666666-|
A|-4444444444--6666666666-6666666666--6666666666-|
E|-------------4444444444-------------4444444444-|

e|-----------------------------------|
B|-----------------------------------|
G|-6666666666-------------8888888888-|
D|-6666666666--6666666666-8888888888-|
A|-4444444444--6666666666-6666666666-|
E|-------------4444444444------------|

Outro
 |Guitar 1 (clean)               |Distortion)
e|-----------------------------|-----------------------------|
B|-----------------------------|-----------------------------|
G|---------6-6----------6------|--------6-6----------6-------|
D|--6-6----6-6-----4-4--6--6---|-6-6----6-6-----4-4--6--6--4-|
A|--6-6----4-4-----4-4--4--6---|-6-6----4-4-----4-4--4--6--4-|
E|--4-4--0------0--2-2-----4---|-4-4--0------0--2-2-----4--2-|
 |Guitar 2
e|---------------------------4-|-----------------------------|
B|---------------------------4-|-----------------------------|
G|---------------------------4-|--------6-6----------6-------|
D|---------------------------4-|-6-6----6-6-----4-4--6--6--4-|
A|-----------------------------|-6-6----4-4-----4-4--4--6--4-|
E|-----------------------------|-4-4--0------0--2-2-----4--2-|

 |Guitar 1
e|-----------------------------|-----------------------------|
B|-----------------------------|-----------------------------|
G|--------6-6----------6-------|--------6-6----------6-------|
D|-6-6----6-6-----4-4--6--6--4-|-6-6----6-6-----4-4--6--6--4-|
A|-6-6----4-4-----4-4--4--6--4-|-6-6----4-4-----4-4--4--6--4-|
E|-4-4--0------0--2-2-----4--2-|-4-4--0------0--2-2-----4--2-|
 |Guitar 2
e|-----------------------------|-----------------------------|
B|-----------------------------|-----------------------------|
G|--------6-6----------6-------|--------6-6----------6-------|
D|-6-6----6-6-----4-4--6--6--4-|-6-6----6-6-----4-4--6--6--4-|
A|-6-6----4-4-----4-4--4--6--4-|-6-6----4-4-----4-4--4--6--4-|
E|-4-4--0------0--2-2-----4--2-|-4-4--0------0--2-2-----4--2-|

 |Guitar 1
e|---------------------------------|
B|---------------------------------|
G|---------------------------6-6---|
D|------------------------4--6-6-6-|
A|------------------------4--4-4-6-|
E|------------------------2------4-|
 |Guitar 2
e|---------------------------------|
B|---------------------------------|
G|----------6-6--------------6-6---|
D|--6-6-----6-6-----4-4---4--6-6-6-|
A|--6-6-----4-4-----4-4---4--4-4-6-|
E|--4-4--0-------0--2-2---2------4-|


Lyrics

(Verse 1)
Don't wanna’ be an American idiot
Don't want a nation under the new media
Hey, can you hear the sound of hysteria?
The subliminal mind-fuck America, alright!

(Chorus)
Welcome to a new kind of tension
All across the alien nation
Everything isn't meant to be OK
Television dreams of tomorrow
We're not the ones who're meant to follow
For that's enough to argue, England!!

(Verse 2)
Well, maybe I'm the faggot, America
I'm not a part of a redneck agenda, alright!
Now everybody do the propaganda
And sing along in the age of paranoia, alright!

(Chorus)
Welcome to a new kind of tension
All across the alien nation
Everything isn't meant to be OK
Television dreams of tomorrow
We're not the ones who're meant to follow
For that's enough to argue, C’mon!

(Interlude)
Don't wanna’ be an American idiot
One nation controlled by the media
Information - age of hysteria?
It’s calling out to idiot America

(Chorus)
Welcome to a new kind of tension
All across the alien nation
Everything isn't meant to be OK
Television dreams of tomorrow
We're not the ones who're meant to follow
Well that's enough to argue, C’mon!

-----------------------------------------------------------------------------------------
Green Day
Jesus of Suburbia

Guitar 1 –EADGBe –Billie Joe Armstrong
Guitar 2 –EADGBe –Jason White

---------------------------------------------------
I.   Jesus of Suburbia


Verse
 |Both guitars
e|----------------------------------------------------------|
B|----------------------------------------------------------|
G|-6-6-6-6--------------------------------------------------|
D|-6-6-6-6--8-8-8-8--8\-44444444-44444444-66666666-66666666-|
A|-4-4-4-4--8-8-8-8--8\-44444444-44444444-66666666-66666666-|
E|----------6-6-6-6--6\-22222222-22222222-44444444-44444444-|

e|----------------------------------------------------------|
B|----------------------------------------------------------|
G|-6-6-6-6--------------------------------------------------|
D|-6-6-6-6--8-8-8-8--8\-44444444-44444444-66666666-66666666-|
A|-4-4-4-4--8-8-8-8--8\-44444444-44444444-66666666-66666666-|
E|----------6-6-6-6--6\-22222222-22222222-44444444-44444444-|

Chorus
 |Both guitars
e|------------------------|
B|------------------------|
G|------------------------|
D|-4-4-4-4-x--6-6-6-6-6-6-| x3
A|-4-4-4-4-x--6-6-6-6-6-6-|
E|-2-2-2-2-x--4-4-4-4-4-4-|

Post Chorus
 |Both guitars
e|---------------------------|
B|---------------------------|
G|-6-6-x---------------------|
D|-6-6-x--6-6--x-4-4-4-4-4-4-| x2
A|-4-4-x--6-6--x-4-4-4-4-4-4-|
E|--------4-4--x-2-2-2-2-2-2-|

Verse 2
 |Both guitars
e|----------------------------------------------------------|
B|----------------------------------------------------------|
G|-6-6-6-6--------------------------------------------------|
D|-6-6-6-6--8-8-8-8--8\-44444444-44444444-66666666-66666666-|
A|-4-4-4-4--8-8-8-8--8\-44444444-44444444-66666666-66666666-|
E|----------6-6-6-6--6\-22222222-22222222-44444444-44444444-|

e|----------------------------------------------------------|
B|----------------------------------------------------------|
G|-6-6-6-6--------------------------------------------------|
D|-6-6-6-6--8-8-8-8--8\-44444444-44444444-66666666-66666666-|
A|-4-4-4-4--8-8-8-8--8\-44444444-44444444-66666666-66666666-|
E|----------6-6-6-6--6\-22222222-22222222-44444444-44444444-|

Chorus 2
 |Both guitars
e|------------------------|
B|------------------------|
G|------------------------|
D|-4-4-4-4-x--6-6-6-6-6-6-| x3
A|-4-4-4-4-x--6-6-6-6-6-6-|
E|-2-2-2-2-x--4-4-4-4-4-4-|

Post Chorus 2
 |Both guitars
e|---------------------------|
B|---------------------------|
G|-6-6-x---------------------|
D|-6-6-x--6-6--x-4-4-4-4-4-4-| x2
A|-4-4-x--6-6--x-4-4-4-4-4-4-|
E|--------4-4--x-2-2-2-2-2-2-|

Outro
 |Both guitars
e|----------------------------------------------------------|
B|----------------------------------------------------------|
G|-6-6-6-6--------------------------------------------------|
D|-6-6-6-6--8-8-8-8--8\-44444444-44444444-66666666-66666666-|
A|-4-4-4-4--8-8-8-8--8\-44444444-44444444-66666666-66666666-|
E|----------6-6-6-6--6\-22222222-22222222-44444444-44444444-|

e|----------------------------------------------|
B|----------------------------------------------|
G|-6-6-6-6-----------3-3-3----------------------|
D|-6-6-6-6--3-3-3-3--3-3-3--x-6-6-6--x--4~~-/6~~|
A|-4-4-4-4--3-3-3-3--1-1-1--x-6-6-6--x--4~~-/6~~|
E|----------1-1-1-1---------x-4-4-4--x--2~~-/4~~|

Lyrics

(Verse 1)
I'm the son of rage and love
The Jesus of Suburbia
The Bible of "none of the above"
On a steady diet of...

Soda pop and Ritalin
No one ever died for my sins in hell
As far as I can tell
At least the ones I've gotten away with

(Chorus)
And there's nothing wrong with me
This is how I'm supposed to be
In a land of make believe
That don't believe in me

(Verse 2)
Get my television fix
Sitting on my crucifix
The living room in my private womb
While the moms and brads are away

To fall in love and fall in debt
To alcohol and cigarettes
And Mary Jane to keep me insane
And doing someone else's cocaine

(Chorus)
And there's nothing wrong with me
This is how I'm supposed to be
In a land of make, everybody!...
That don't believe in me


---------------------------------------------------
II.     City of the damned


Initially just piano but Billie kicks in with:

Verse
 |Guitar 1 only
e|---------------------------------------|------------------------------|
B|---------------------------------------|------------------------------|
G|---------------------------------------|------------------------------|
D|---------------------------------------|------------------------------|
A|------4-4-4-4-4-4-4-4--6-6-6-6-6-6-6-6-|-4~~--4h6-4-3--1~~--1h3-1---x-|
E|-9\---2-2-2-2-2-2-2-2--4-4-4-4-4-4-4-4-|--------------------------4-x-|

Pre Chorus
 |Both guitars
e|----------------------------------|
B|----------------------------------|
G|----------------------------------|
D|----------------------------------|
A|-4-4-4-4-4-4-4-4--6-6-6-6-6-6-6-6-|
E|-2-2-2-2-2-2-2-2--4-4-4-4-4-4-4-4-|

Chorus
 |Both guitars
e|-------------------------------------------|-----------------------------|
B|-----------------------66666---------------|-----------------------------|
G|-----------------------66666---------------|-----------------------------|
D|-----------------------66666---------------|-----------------------------|
A|-88888------66666------44444--4/--44444----|-8888-x--6666-x--4444444-----|
E|-66666--6/--44444--4/-------------22222-2/-|-6666-x--4444-x--2222222--2/-|

e|-------------------------------------------|-------------------------|
B|-----------------------66666---------------|-------------------------|
G|-----------------------66666---------------|-------------------------|
D|-----------------------66666---------------|-------------------------|
A|-88888------66666------44444--4/--44444----|-8888-x--6666-x--4444444-|
E|-66666--6/--44444--4/-------------22222-2/-|-6666-x--4444-x--2222222-|

Verse 2
 |Guitar 1 only
e|---------------------------------------|------------------------------|
B|---------------------------------------|------------------------------|
G|---------------------------------------|------------------------------|
D|---------------------------------------|------------------------------|
A|------4-4-4-4-4-4-4-4--6-6-6-6-6-6-6-6-|-4~~--4h6-4-3--1~~--1h3-1---x-|
E|-9\---2-2-2-2-2-2-2-2--4-4-4-4-4-4-4-4-|--------------------------4-x-|

Pre Chorus
 |Both guitars
e|----------------------------------|
B|----------------------------------|
G|----------------------------------|
D|----------------------------------|
A|-4-4-4-4-4-4-4-4--6-6-6-6-6-6-6-6-|
E|-2-2-2-2-2-2-2-2--4-4-4-4-4-4-4-4-|

Chorus 2
 |Both guitars
e|-------------------------------------------|-----------------------------|
B|-----------------------66666---------------|-----------------------------|
G|-----------------------66666---------------|-----------------------------|
D|-----------------------66666---------------|-----------------------------|
A|-88888------66666------44444--4/--44444----|-8888-x--6666-x--4444444-----|
E|-66666--6/--44444--4/-------------22222-2/-|-6666-x--4444-x--2222222--2/-|

e|-------------------------------------------|-------------------------|
B|-----------------------66666---------------|-------------------------|
G|-----------------------66666---------------|-------------------------|
D|-----------------------66666---------------|-----------------4444444-|
A|-88888------66666------44444--4/--44444----|-8888-x--6666-x--4444444-|
E|-66666--6/--44444--4/-------------22222-2/-|-6666-x--4444-x--2222222-|

Outro
e|----------------------------------|----------------------------------|
B|----------------------------------|----------------------------------|
G|-3-3-3-3-3-3-3-3--3-3-3-3-3-3-3-x-|-3-3-3-3-3-3-3-3--3-3-3-3-3-3-3-3-|
D|-4-4-4-4-4-4-4-4--4-4-4-4-4-4-4-x-|-4-4-4-4-4-4-4-4--4-4-4-4-4-4-4-4-|
A|-4-4-4-4-4-4-4-4--4-4-4-4-4-4-4-x-|-4-4-4-4-4-4-4-4--4-4-4-4-4-4-4-4-|
E|-2-2-2-2-2-2-2-2--2-2-2-2-2-2-2-x-|-2-2-2-2-2-2-2-2--2-2-2-2-2-2-2-2-|

Lyrics

(Verse 1)
At the center of the earth
In the parking lot
Of the 7-11 were I was taught
The motto was just a lie

It says home is were your heart is
But what a shame
Cause everyone's heart doesn't beat the same
We're beating out of time; get those fists in the air!

(Chorus)
City of the dead
At the end of another lost highway
Sign misleading to nowhere
City of the damned
Lost children with dirty faces today
No one really seems to care, get those hands up

(Verse 2)
I read the graffiti
In the bathroom stall
Like the holy scriptures of a shopping mall
And so it seemed to confess

It didn't say much
But it only confirmed that
The center of the earth is the end of the world
And I could really care less; get those fists in the air!

(Chorus)
City of the dead
At the end of another lost highway
Sign misleading to nowhere, one more time
City of the damned
Lost children with dirty faces today
No one really seems to care


---------------------------------------------------
III.    I Don't Care

Intro
 |Guitar 1
e|------------------------------------------------------------------|
B|------------------------------------------------------------------|
G|----------6-6-6-----------6-6-6-----------6-6-6-------------------|
D|-6-6-6-6--6-6-6--6-6-6-6--6-6-6--4-4-4-4--6-6-6--6-6-6-6--6-6-6-6-|
A|-6-6-6-6--4-4-4--6-6-6-6--4-4-4--4-4-4-4--4-4-4--6-6-6-6--6-6-6-6-|
E|-4-4-4-4---------4-4-4-4---------2-2-2-2---------4-4-4-4--4-4-4-4-|
 |Guitar 2
e|------------------------------------------------------------------|
B|--------------------------6-4~--2--\7-7~~-7-7-7--6~-4-2--4444/—9~-|
G|----------6-6-6---------------------------------------------------|
D|-6-6-6-6---------6-6-6-6------------------------------------------|
A|------------------------------------------------------------------|
E|------------------------------------------------------------------|

Verse
 |Both guitars
e|------------------------------------------------------------------|
B|------------------------------------------------------------------|
G|----------6-6-6-----------6-6-6-----------6-6-6-------------------|
D|-6-6-6-6--6-6-6--6-6-6-6--6-6-6--4-4-4-4--6-6-6--6-6-6-6--6-6-6-6-| x4
A|-6-6-6-6--4-4-4--6-6-6-6--4-4-4--4-4-4-4--4-4-4--6-6-6-6--6-6-6-6-|
E|-4-4-4-4---------4-4-4-4---------2-2-2-2---------4-4-4-4--4-4-4-4-|

Chorus
 |Both guitars
e|-----------------------------|-----------------------|
B|-----------------------------|-----------------------|
G|-------6-6-6-6-6-6-6-6-------|-6-6-6-6-6-6-6-6-------|
D|-4--6--6-6-6-6-6-6-6-6--7--6-|-6-6-6-6-6-6-6-6--7--6-| x2
A|-4--6--4-4-4-4-4-4-4-4--7--6-|-4-4-4-4-4-4-4-4--7--6-|
E|-2--4-------------------5--4-|------------------5--4-|

Post chorus
 |Guitar 1 only
e|-----------------|
B|-----------------|
G|-----------------|
D|-------------7-6-| x8
A|-(bass riff)-7-6-|
E|-------------5-4-|

Pre Outro
 |Both guitars
e|-------------------------------------------|----------------------------------------|
B|-------------------------------------------|----------------------------------------|
G|-6-6-6-6-6-6-6-6-------6-6-6-6-6-6-6-6-----|-6-6-6-6-6-6-6-6--------6-6-6-6-6-6-6-6-|
D|-6-6-6-6-6-6-6-6--7-6--6-6-6-6-6-6-6-6--7-6|-6-6-6-6-6-6-6-6--7--6--6-6-6-6-6-6-6-6-|
A|-4-4-4-4-4-4-4-4--7-6--4-4-4-4-4-4-4-4--7-6|-4-4-4-4-4-4-4-4--7--6--4-4-4-4-4-4-4-4-|
E|------------------5-4-------------------5-4|------------------5--4------------------|

Outro
 |Both guitars
e|-----------------------|-----------------------|-----------------------|
B|-----------------------|-----------------------|-----------------------|
G|-------6-6-6-6-6-6-6-6-|-------6-6-6-6-6-6-6-6-|-------6-6-6-6-6-6-6-6-|
D|-4--6--6-6-6-6-6-6-6-6-|-4--6--6-6-6-6-6-6-6-6-|-4--6--6-6-6-6-6-6-6-6-|
A|-4--6--4-4-4-4-4-4-4-4-|-4--6--4-4-4-4-4-4-4-4-|-4--6--4-4-4-4-4-4-4-4-|
E|-2--4------------------|-2--4------------------|-2--4------------------|

e|-----------------------|-------------------------|
B|-----------------------|-------------------------|
G|-------6-6-6-6-6-6-6-6-|------6--6--6------------|
D|-4--6--6-6-6-6-6-6-6-6-|-4-6--6--6--6---7-6---6~-|
A|-4--6--4-4-4-4-4-4-4-4-|-4-6--4--4--4---7-6---6~-|
E|-2--4------------------|-2-4------------5-4---4~-|

Lyrics:

(Verse)
I don't care if you don't
I don't care if you don't
I don't care if you don't care

I don't care if you don't
I don't care if you don't
I don't care if you don't care

I don't care if you don't
I don't care if you don't
I don't care if you don't care

I don't care if you don't
I don't care if you don't
I don't care if you don't care

I don't care!

(Post Chorus)
C’mon!
Everyone so full of shit
Born and raised by hypocrites
Hearts recycled but never saved
From the cradle to the grave
We are the kids of war and peace
From England to the Middle East
We are the stories and disciples
Of the Jesus of suburbia

(Pre Outro)
Land of make believe
And it don't believe in me
Land of make believe
And I don't believe

(Outro)
And I don't care!
I don't care!
I don't care!
I don't care!
I don't care!


---------------------------------------------------
IV. Dearly Beloved

(A minor still ringing)

Intro
 |Guitar 2 only
e|------------------|---------------|-----------|
B|------------------|---------------|-----------|
G|------------------|---------------|-----------|
D|-------------4/5--|--5/6----------|--7/8------|
A|-5/6---------2/3--|--3/4----5/6---|--5/6------|
E|-3/4--------------|---------3/4---|-----------|

Verse (acoustic effects)
 |Guitar 2 only
e|--------------|----------------|-----------|---------------|
B|--------------|----------------|-----------|---------------|
G|--------------|----------------|----5----5-|----5----5-5-x-|
D|-----6------6-|-----6----6-6-x-|----5----5-|----5----5-5-x-|\
A|-----6------6-|-----6----6-6-x-|--3----3---|--3----3-------| \
E|--4------4----|--4-----4-------|-----------|---------------|  \
PM  *      *       *     *          *    *      *    *
                                                                  x5
e|--------------|----------------|-----------|-----------------|  /
B|--------------|----------------|-----------|-----------------| /
G|-----6------6-|-----6----6-6-x-|-----------|---8-----8-8-x---|
D|-----6------6-|-----6----6-6-x-|---6-----6-|---8-----8-8-x---|
A|--4------4----|--4-----4-------|---6-----6-|-6-----6---------|
E|--------------|----------------|-4----4----|-----------------|
PM  *      *       *     *         *    *      *    *

Lyrics

(Intro)
Dearly beloved are you listening?
I can’t remember a word that you were saying

(Verse)
Are we demented or am I disturbed?
The space that's in between insane and insecure
Brothers and sisters get those hands up in the air!
Oh therapy, can you please fill the void?
Am I retarded or am I just overjoyed
Nobody's perfect and I stand accused?
For lack of a better word, and that's my best excuse
England!! Ladies and gentle men, Mike Dirnt!


---------------------------------------------------
V.  Tales of Another Broken Home

Intro
 |Both guitars
e|--------------------|
B|--------------------|
G|------------------6-|
D|-6--------------4-6-| x4
A|-6--------------4-4-|
E|-4-(bass riff)--2---|

Verse
 |Both guitars
e|-------------------------|-------------------------|
B|-------------------------|-------------------------|
G|-----------------------6-|-----------------------6-|
D|-6-6-6-6-6-6-6-6-6--4--6-|-6-6-6-6-6-6-6-6-6--4--6-| x4
A|-6-6-6-6-6-6-6-6-6--4--4-|-6-6-6-6-6-6-6-6-6--4--4-|
E|-4-4-4-4-4-4-4-4-4--2----|-4-4-4-4-4-4-4-4-4--2----|

Chorus
 |Both guitars
e|------------------|------------------|------------------|------------------|
B|------------------|-8--9--8--9--8--9-|------------------|-8--9--8--9--8--9-|
G|-6-----6-----6----|-8--8--8--8--8--8-|-6-----6-----6----|-8--8--8--8--8--8-|
D|-6--6--6--6--6--6-|-8--8--8--8--8--8-|-6--6--6--6--6--6-|-8--8--8--8--8--8-|
A|-4--6--4--6--4--6-|------------------|-4--6--4--6--4--6-|------------------|
E|----4-----4-----4-|------------------|----4-----4-----4-|------------------|

Verse 2
 |Both guitars
e|-------------------------|-------------------------|
B|-------------------------|-------------------------|
G|-----------------------6-|-----------------------6-|
D|-6-6-6-6-6-6-6-6-6--4--6-|-6-6-6-6-6-6-6-6-6--4--6-| x4
A|-6-6-6-6-6-6-6-6-6--4--4-|-6-6-6-6-6-6-6-6-6--4--4-|
E|-4-4-4-4-4-4-4-4-4--2----|-4-4-4-4-4-4-4-4-4--2----|

Chorus 2
 |Both guitars
e|------------------|------------------|------------------|------------------|
B|------------------|-8--9--8--9--8--9-|------------------|-8--9--8--9--8--9-|
G|-6-----6-----6----|-8--8--8--8--8--8-|-6-----6-----6----|-8--8--8--8--8--8-|
D|-6--6--6--6--6--6-|-8--8--8--8--8--8-|-6--6--6--6--6--6-|-8--8--8--8--8--8-|
A|-4--6--4--6--4--6-|------------------|-4--6--4--6--4--6-|------------------|
E|----4-----4-----4-|------------------|----4-----4-----4-|------------------|

e|------------------|------------------|------------------|------------------|
B|------------------|-8--9--8--9--8--9-|------------------|-8--9--8--9--8--9-|
G|-6-----6-----6----|-8--8--8--8--8--8-|-6-----6-----6----|-8--8--8--8--8--8-|
D|-6--6--6--6--6--6-|-8--8--8--8--8--8-|-6--6--6--6--6--6-|-8--8--8--8--8--8-|
A|-4--6--4--6--4--6-|------------------|-4--6--4--6--4--6-|------------------|
E|----4-----4-----4-|------------------|----4-----4-----4-|------------------|

Pre solo
 |Guitar 1
e|-------------------------|-------------------------------|
B|-------------------------|-------------------------------|
G|---6---------------------|---6-------------------------6-|
D|-4-6---------------------|-4-6----------------------4--6-|
A|-4-4---------------------|-4-4----------------------4--4-|
E|-2-----------------------|-2------------------------2----|
 |Guitar 2
e|-------------------------|-------------------------------|
B|------9-9--9-9--9-9--9-9-|------9-9--9-9--9-9--9-9-------|
G|---6--x-x--x-x--x-x--x-x-|---6--x-x--x-x--x-x--x-x-----6-|
D|-4-6--6-6--6-6--6-6--6-6-|-4-6--6-6--6-6--6-6--6-6--4--6-|
A|-4-4---------------------|-4-4----------------------4--4-|
E|-2-----------------------|-2------------------------2----|

Solo part 1
 |Guitar 1
e|-------------------------|-------------------------|--------------------------|
B|-------------------------|-------------------------|--------------------------|
G|-----------------------6-|-----------------------6-|-----------------------6--|
D|-6-6-6-6-6-6-6-6-6--4--6-|-6-6-6-6-6-6-6-6-6--4--6-|-6-6-6-6-6-6-6-6-6--4--6--|
A|-6-6-6-6-6-6-6-6-6--4--4-|-6-6-6-6-6-6-6-6-6--4--4-|-6-6-6-6-6-6-6-6-6--4--4--|
E|-4-4-4-4-4-4-4-4-4--2----|-4-4-4-4-4-4-4-4-4--2----|-4-4-4-4-4-4-4-4-4--2-----|
 |Guitar 2
e|------------------------------------------------------------------------------|
B|--13----16--------14-19-14-16v-----------------16---13------------------11-14-|
G|---x-----x---------x--x--x--x-------------------x----x-------------------x--x-|
D|--10----13--------11-15-11-13v-----------------13---10-------------------8-11-|
A|------------------------------------------------------------------------------|
E|------------------------------------------------------------------------------|

 |Guitar 1
e|-------------------------|-------------------------|--------------------------|
B|-------------------------|-------------------------|--------------------------|
G|-----------------------6-|-----------------------6-|-----------------------6--|
D|-6-6-6-6-6-6-6-6-6--4--6-|-6-6-6-6-6-6-6-6-6--4--6-|-6-6-6-6-6-6-6-6-6--4--6--|
A|-6-6-6-6-6-6-6-6-6--4--4-|-6-6-6-6-6-6-6-6-6--4--4-|-6-6-6-6-6-6-6-6-6--4--4--|
E|-4-4-4-4-4-4-4-4-4--2----|-4-4-4-4-4-4-4-4-4--2----|-4-4-4-4-4-4-4-4-4--2-----|
 |Guitar 2
e|------------------------------------------------------------------------------|
B|-11-13--------------13----16--------14-19-14-16v-------------------16--13-----|
G|--x--x---------------x-----x---------x--x--x--x---------------------x---x-----|
D|--8-10--------------10----13--------11-15-11-13v-------------------13--10-----|
A|------------------------------------------------------------------------------|
E|------------------------------------------------------------------------------|

 |Guitar 1
e|-------------------------|-------------------------|
B|-------------------------|-------------------------|
G|-----------------------6-|-----------------------6-|
D|-6-6-6-6-6-6-6-6-6--4--6-|-6-6-6-6-6-6-6-6-6--4--6-|
A|-6-6-6-6-6-6-6-6-6--4--4-|-6-6-6-6-6-6-6-6-6--4--4-|
E|-4-4-4-4-4-4-4-4-4--2----|-4-4-4-4-4-4-4-4-4--2----|
 |Guitar 2
e|---------------------------------------------------|
B|-----11--14--11--13--------------------------------|
G|------x---x---x---x--------------------------------|
D|------8--11---8--10--------------------------------|
A|---------------------------------------------------|
E|---------------------------------------------------|

Solo
 |Guitar 1
e|-------------------------------------|------------------------------------|
B|-------------------------------------|-8-----9-----8-----9-----8-----9----|
G|-6-----------6------------6----------|-8-----8-----8-----8-----8-----8----|
D|-6-----6-----6-----6------6------6---|-8-----8-----8-----8-----8-----8----|
A|-4-----6-----4-----6------4------6---|------------------------------------|
E|-------4-----------4-------------4---|------------------------------------|
 |Guitar 2
e|-------------------------------------|------------------------------------|
B|-7p6----9p6----7p6----9p6----7p6-----|-9p8---11p8---9p8---11p8---9p8------|
G|-----6------6------6------6------6/8-|-----8------8-----8------8------8\6-|
D|-------------------------------------|------------------------------------|
A|-------------------------------------|------------------------------------|
E|-------------------------------------|------------------------------------|

 |Guitar 1
e|-------------------------------------|------------------------------------|
B|-------------------------------------|-8-----9-----8-----9-----8-----9----|
G|-6-----------6------------6----------|-8-----8-----8-----8-----8-----8----|
D|-6-----6-----6-----6------6------6---|-8-----8-----8-----8-----8-----8----|
A|-4-----6-----4-----6------4------6---|------------------------------------|
E|-------4-----------4-------------4---|------------------------------------|
 |Guitar 2
e|-------------------------------------|------------------------------------|
B|-7p6----9p6----7p6----9p6----7p6-----|-9p8---11p8---9p8---11p8---9p8------|
G|-----6------6------6------6------6/8-|-----8------8-----8------8------8\6-|
D|-------------------------------------|------------------------------------|
A|-------------------------------------|------------------------------------|
E|-------------------------------------|------------------------------------|

Piano Break
Piano transcribed for guitar
Fm: x355xx
Eb: x688xx
Ab: 466xxx
Db: x466xx


Fm               Eb            Ab         Db
   I don't feel any shame -I wont apologize

Db                   Eb              Ab      (play a harmonic on fret 13 then 14
    When there ain't nowhere you can go       on the b string)

Db             Eb                  Ab               Db
   Running away from pain -When you've been victimized


Db               Eb
    Tales from another broken...

Outro
 |Both guitars
e|-------------------------|-------------------------|
B|-------------------------|-------------------------|
G|-----------------------6-|-----------------------6-|
D|-6-6-6-6-6-6-6-6-6--4--6-|-6-6-6-6-6-6-6-6-6--4--6-| x2
A|-6-6-6-6-6-6-6-6-6--4--4-|-6-6-6-6-6-6-6-6-6--4--4-|
E|-4-4-4-4-4-4-4-4-4--2----|-4-4-4-4-4-4-4-4-4--2----|

 |Guitar 1
e|-------------------------------------------------------|
B|-------------------------------------------------------|
G|-----------------------6---------------------------6---|
D|---------------------4-6-6----------------------4--6-6-|
A|---------------------4-4-6----------------------4--4-6-|
E|---------------------2---4----------------------2----4-|
 |Guitar 2
e|-------------------------------------------------------|
B|-9-9--9-9--9-9--9-9---------9-9--9-9--9-9--9-9---------|
G|-x-x--x-x--x-x--x-x----6----x-x--x-x--x-x--x-x-----6---|
D|-6-6--6-6--6-6--6-6--4-6-6--6-6--6-6--6-6--6-6--4--6-6-|
A|---------------------4-4-6----------------------4--4-6-|
E|---------------------2---4----------------------2----4-|

Lyrics

(Verse 1)
To live and not to breathe
Is to die in tragedy
To run, to run away
To find what you believe

(Chorus)
C’mon
And I
Leave behind
This hurricane of fucking lies

(Verse 2)
I lost my faith to this
This town that don't exist
So I run, I run away
The light of masochist

(Chorus)
C’mon
And I
Leave behind
This hurricane of fucking lies
And I
Walked this line
A million and one fucking times

But not this time

Here we go!

(Piano Break)
I don't feel any shame
I wont apologise
When there ain't nowhere you can go
Running away from pain
When you've been victimized
Tales from another broken...

(Outro)
Home!
You're leavin'
You're leavin'
You're leavin'
You're leavin HOME!


-----------------------------------------------------------------------------------------
Green Day
Holiday

Guitar 1 –EADGBe –Billie Joe Armstrong
Guitar 2 –EADGBe –Jason White

Intro
 |Guitar 2 only
E|--------------------------------------|---------------------------------|
B|--9--9--9--6-6-6--13--13--13--8-8-8-8-|--9--9--9--6-6-6--13--13--13--8--|
G|--x--x--x--6-6-6--13--13--13--8-8-8-8-|--x--x--x--6-6-6--13--13--13--8--|
D|--x--x--x--x-x-x---x---x---x--x-x-x-x-|--x--x--x--x-x-x---x---x---x--x--| x2
A|--8--8--8--4-4-4--11--11--11--6-6-6-6-|--8--8--8--4-4-4--11--11--11--6--|
E|--------------------------------------|---------------------------------|

Intro
 |Guitar 1
E|----------|
B|----------|
G|-x-x-x-x--| (this is played just as Jason is finishing
D|-x-x-x-x--|  the second repeat of his intro)
A|-x-x-x-x--|
E|-x-x-x-x--|

Pre Verse
 |Both guitars
E|---------------------------------|---------------------------------|
B|---------------------------------|---------------------------------|
G|-10-10-10--6-6-6---------8-8-8-8-|-10-10-10--6-6-6---------8-8-8-8-|
D|-10-10-10--6-6-6--6-6-6--8-8-8-8-|-10-10-10--6-6-6--6-6-6--8-8-8-8-|
A|--8--8--8--4-4-4--6-6-6--6-6-6-6-|--8--8--8--4-4-4--6-6-6--6-6-6-6-|
E|------------------4-4-4----------|------------------4-4-4----------|

Verse
 |Guitar 2 only
E|---------------------------------|---------------------------------|
B|---------------------------------|---------------------------------|
G|-10-10-10--6-6-6---------8-8-8-8-|-10-10-10--6-6-6---------5-5-5-5-|
D|-10-10-10--6-6-6--6-6-6--8-8-8-8-|-10-10-10--6-6-6--6-6-6--5-5-5-5-|
A|--8--8--8--4-4-4--6-6-6--6-6-6-6-|--8--8--8--4-4-4--6-6-6--3-3-3-3-|
E|------------------4-4-4----------|------------------4-4-4----------|

E|----------------------------------------------------|
B|----------------------------------------------------|
G|-10-10-10--6-6-6---------8-8-8-8--5-5-5-5-5-5-5-5-5-|
D|-10-10-10--6-6-6--6-6-6--8-8-8-8--5-5-5-5-5-5-5-5-5-| x2
A|--8--8--8--4-4-4--6-6-6--6-6-6-6--3-3-3-3-3-3-3-3-3-|
E|------------------4-4-4-----------------------------|

Chorus
 |Both guitars
E|--------------------------------------|------------------------------------------|
B|--------------------------------------|------------------------------------------|
G|---------6-6-6-6----------8-8-8-8-8-8-|----------6-6-6-6----------5-5-5-5-5-5-5-5|
D|3-3-3-3--6-6-6-6-6-6-6-6--8-8-8-8-8-8-|-3-3-3-3--6-6-6-6-6-6-6-6--5-5-5-5-5-5-5-5|
A|3-3-3-3--4-4-4-4-6-6-6-6--6-6-6-6-6-6-|-3-3-3-3--4-4-4-4-6-6-6-6--3-3-3-3-3-3-3-3|
E|1-1-1-1----------4-4-4-4--------------|-1-1-1-1----------4-4-4-4-----------------|

Pre Verse 2
 |Guitar 2 only
E|--------------------------------------|---------------------------------|
B|--9--9--9--6-6-6--13--13--13--8-8-8-8-|--9--9--9--6-6-6--13--13--13--8--|
G|--x--x--x--6-6-6--13--13--13--8-8-8-8-|--x--x--x--6-6-6--13--13--13--8--|
D|--x--x--x--x-x-x---x---x---x--x-x-x-x-|--x--x--x--x-x-x---x---x---x--x--|
A|--8--8--8--4-4-4--11--11--11--6-6-6-6-|--8--8--8--4-4-4--11--11--11--6--|
E|--------------------------------------|---------------------------------|

Verse 2
 |Guitar 2 only
E|---------------------------------|---------------------------------|
B|---------------------------------|---------------------------------|
G|-10-10-10--6-6-6---------8-8-8-8-|-10-10-10--6-6-6---------5-5-5-5-|
D|-10-10-10--6-6-6--6-6-6--8-8-8-8-|-10-10-10--6-6-6--6-6-6--5-5-5-5-|
A|--8--8--8--4-4-4--6-6-6--6-6-6-6-|--8--8--8--4-4-4--6-6-6--3-3-3-3-|
E|------------------4-4-4----------|------------------4-4-4----------|

E|----------------------------------------------------|
B|----------------------------------------------------|
G|-10-10-10--6-6-6---------8-8-8-8--5-5-5-5-5-5-5-5-5-|
D|-10-10-10--6-6-6--6-6-6--8-8-8-8--5-5-5-5-5-5-5-5-5-| x2
A|--8--8--8--4-4-4--6-6-6--6-6-6-6--3-3-3-3-3-3-3-3-3-|
E|------------------4-4-4-----------------------------|

Chorus 2
 |Both guitars
E|--------------------------------------|------------------------------------------|
B|--------------------------------------|------------------------------------------|
G|---------6-6-6-6----------8-8-8-8-8-8-|----------6-6-6-6----------5-5-5-5-5-5-5-5|
D|3-3-3-3--6-6-6-6-6-6-6-6--8-8-8-8-8-8-|-3-3-3-3--6-6-6-6-6-6-6-6--5-5-5-5-5-5-5-5|
A|3-3-3-3--4-4-4-4-6-6-6-6--6-6-6-6-6-6-|-3-3-3-3--4-4-4-4-6-6-6-6--3-3-3-3-3-3-3-3|
E|1-1-1-1----------4-4-4-4--------------|-1-1-1-1----------4-4-4-4-----------------|


Bridge
|Both Guitars                        ‘hey’
E|-------------------|------------------|-------------------|--------------------|
B|-------------------|------------------|-------------------|--------------------|
G|----------6---8----|----------8----10-|----------6---8----|----------8----10---|
D|3-3---6-6-6-8-8-10-|3-3---6-6-8-10-10-|3-3---6-6-6-8-8-10-|3-3---6-6-8-10-10-10|
A|3-3---6-6-4-8-6-10-|3-3---6-6-6-10--8-|3-3---6-6-4-8-6-10-|3-3---6-6-6-10--8-10|
E|1-1-3-4-4---6----8-|1-1-3-4-4---8-----|1-1-3-4-4---6----8-|1-1-3-4-4---8------8|

Solo
 |Guitar 1
e|--------------------------------------------|
B|--------------------------------------------|
G|-6-6-6-6------------5-5-5-5--10-10-10-10-10-|
D|-6-6-6-6--6-6-6-6-6-5-5-5-5--10-10-10-10-10-|
A|-4-4-4-4--6-6-6-6-6-3-3-3-3---8--8--8--8--8-|
E|----------4-4-4-4-4-------------------------|
 |Guitar 2
E|------------------------------------8-----8-|
B|-666-8-9------------8-------------6----6----|
G|----------8-6-555-5---5--9-5---5------------|
D|--------------------------------------------|
A|--------------------------------------------|
E|--------------------------------------------|

 |Guitar 1
e|-------------------------------------------------------------------------|
B|-------------------------------------------------------------------------|
G|-6-6-6-6-------------55555555-55555555--5-5-5-5-5-5-5-5-5-5-5-5-5-5-5----|
D|-6-6-6-6--6-6-6-6-6--55555555-55555555--5-5-5-5-5-5-5-5-5-5-5-5-5-5-5----|
A|-4-4-4-4--6-6-6-6-6--33333333-33333333--3-3-3-3-3-3-3-3-3-3-3-3-3-3-3----|
E|----------4-4-4-4-4------------------------------------------------------|
 |Guitar 2
E|------------------------------99999999-121212121212121212121212121212-13~~|
B|-666-8-9-------------88888888---------------------------------------------|
G|----------8-6-555-5/------------------------------------------------------|
D|--------------------------------------------------------------------------|
A|--------------------------------------------------------------------------|
E|--------------------------------------------------------------------------|

 (Bass Interlude)
G|-------------------|----------------------|
D|-------------------|----------------------|
A|----------4---6----|----------6-----8-----| x6
E|1-1-3-4-4---6----8-|1-1-3-4-4----8-----8\-|

Guitar 2 plays this at the end of the 7th repeat of the bass interlude
E|-------------------|----------------------|
B|-------------------|----------------------|
G|-------------------|----------------------|
D|-------------------|----------------------|
A|-------------------|----------------------|
E|-------------------|------------------16\-|

Both guitars play this at the end of the 9th repeat of the bass interlude
E|-------------------|----------------------|
B|-------------------|----------------------|
G|-------------------|----------8----10-----|
D|-------------------|----------8-10-10-10\-|
A|-------------------|----------6-10--8-10\-|
E|-------------------|-------------8-----8\-|

Post interlude
 |Guitar 2 only
E|----------------------------------------------------|
B|----------------------------------------------------|
G|-3/5~~---------------------3/5~~--------------------|
D|-3/5~~-55555555-555555555--3/5~~-55555555-555555555-|
A|-1/3~~-33333333-333333333--1/3~~-33333333-333333333-|
E|----------------------------------------------------|

Chorus 3
 |Both Guitars
E|-------------------------------------------------------------------------|
B|-------------------------------------------------------------------------|
G|---------6-6-6-6----------8-8-8-8-8-8-----------6-6-6-6----------5-5-5-5-|
D|3-3-3-3--6-6-6-6-6-6-6-6--8-8-8-8-8-8--3-3-3-3--6-6-6-6-6-6-6-6--5-5-5-5-|
A|3-3-3-3--4-4-4-4-6-6-6-6--6-6-6-6-6-6--3-3-3-3--4-4-4-4-6-6-6-6--3-3-3-3-|
E|1-1-1-1----------4-4-4-4---------------1-1-1-1----------4-4-4-4----------|

E|--------------------------------------------------------------------------------|
B|--------------------------------------------------------------------------------|
G|---------6-6-6-6----------8-8-8-8-8-8-----------6-6-6-6----------5-5-5-5-5-5-5-5|
D|3-3-3-3--6-6-6-6-6-6-6-6--8-8-8-8-8-8--3-3-3-3--6-6-6-6-6-6-6-6--5-5-5-5-5-5-5-5|
A|3-3-3-3--4-4-4-4-6-6-6-6--6-6-6-6-6-6--3-3-3-3--4-4-4-4-6-6-6-6--3-3-3-3-3-3-3-3|
E|1-1-1-1----------4-4-4-4---------------1-1-1-1----------4-4-4-4-----------------|

E|---------------------------------------------------|
B|---------------------------------------------------|
G|-5-5-5-5-5-5-5-5--5-5-5-5-5-5-5-5--5-5-5-5-5-5-5-5-|
D|-5-5-5-5-5-5-5-5--5-5-5-5-5-5-5-5--5-5-5-5-5-5-5-5-|
A|-3-3-3-3-3-3-3-3--3-3-3-3-3-3-3-3--3-3-3-3-3-3-3-3-|
E|---------------------------------------------------|

Outro
 |Guitar 1
E|-------------------------------------------------------------------|
B|-------------------------------------------------------------------|
G|--------------------|Currently Tacet|------------------------------|
D|-------------------------------------------------------------------|
A|-------------------------------------------------------------------|
E|-------------------------------------------------------------------|
 |Guitar 2
E|---------------------------------|---------------------------------|
B|---------------------------------|---------------------------------|
G|-10-10-10--6-6-6---------8-8-8-8-|-10-10-10--6-6-6---------8-8-8-8-|
D|-10-10-10--6-6-6--6-6-6--8-8-8-8-|-10-10-10--6-6-6--6-6-6--8-8-8-8-|
A|--8--8--8--4-4-4--6-6-6--6-6-6-6-|--8--8--8--4-4-4--6-6-6--6-6-6-6-|
E|------------------4-4-4----------|------------------4-4-4----------|

 |Guitar 1
E|---------------------------------|---------------------------------|
B|---------------------------------|---------------------------------|
G|-10~~~~~~~~----------------------|-10-10-10--6-6-6--8----10—-------|
D|--x~~~~~~~~----------------------|-10-10-10--6-6-6--8-10-10--3~~~--|
A|--8~~~~~~~~----------------------|--8--8--8--4-4-4--6-10--8--3~~~--|
E|---------------------------------|---------------------8-----1~~~--|
 |Guitar 2
E|---------------------------------|---------------------------------|
B|---------------------------------|---------------------------------|
G|-10-10-10--6-6-6---------8-8-8-8-|-10-10-10--6-6-6--8----10—-------|
D|-10-10-10--6-6-6--6-6-6--8-8-8-8-|-10-10-10--6-6-6--8-10-10--3~~~--|
A|--8--8--8--4-4-4--6-6-6--6-6-6-6-|--8--8--8--4-4-4--6-10--8--3~~~--|
E|------------------4-4-4----------|---------------------8-----1~~~--|


(Verse 1)
Hear the sound of the falling rain
Coming down like an Armageddon flame [Hey!]
The shame, the ones who died without a name
Here the dogs howling out of key
To a hymn called ‘faith and misery’ [Hey!]
And Bleed, the company lost the war today

(Chorus)
I beg to dream and differ from the hollow lies
This is the dawning of the rest of our lives
On holiday

(Verse 2)
There's a drum pounding out of time
Another protestor has crossed the line [Hey!]
To find, the money's on the other side. Brothers and sisters!
Can I get another Amen?  [Amen!]
There's a flag wrapped around the score of men [Hey!]
A gag, A plastic bag on a monument

(Chorus)
I beg to dream and differ from the hollow lies
This is the dawning of the rest of our lives
On holiday

(Bass Interlude)
The representative of United Kingdom has the floor:
Zieg Heil! To the president gas Man
Bombs away! (Is your punishment)
Pulverize the Eiffel Towers
Criticize your (government)
Bang, Bang! Goes the broken glass man
Kill all the fags that (don't agree)
Trials by fires, setting fire
It's not a way that's (meant for me)

(Post Interlude)
Just cause... just cause - because we're outlaws yeah!
Backing vocals {hey, hey, hey, hey, hey, hey]

(Chorus 3)
I beg to dream and differ from the hollow lies
This is the dawning of the rest of our lives
On holiday
I beg to dream and differ from the hollow lies
This is the dawning of the rest of our lives
This is our lives on holiday

(Outro)
England!

-----------------------------------------------------------------------------------------
Green Day
Are we Waiting

Guitar 1 –EADGBe – Jason White
Guitar 2 –EADGBe – the other guitarist guy (don’t know his name?)

Intro
 |Guitar 1
e|------------------------------------2-----------2-------|
B|-------2-----------2--------------3---3-------3---3-----|
G|-----2---2-------2---2----------2-------2---2-------2---|
D|---2-------2---2-------2------0-----------0-------------|
A|-0-----------0------------------------------------------|
E|--------------------------------------------------------|

Verse
 |Guitar 1
e|-------------------------------------2-----------2-------|
B|--------2-----------2--------------3---3-------3---3-----|
G|------2---2-------2---2----------2-------2---2-------2---|
D|----2-------2---2-------2------0-----------0-------------|\
A|--0-----------0------------------------------------------| \
E|---------------------------------------------------------|  \
 |Guitar 2 (slide played first before A chord)                 x3
e|-----------------------------------------------------------|  /
B|-----------------------------------------------------------| /
G|--2~~~-------------------------7~~-------------------------|
D|--2~~~-------------------------7~~-------------------------|
A|--0~~~-------------------------5~~-------------------------|
E|-----------------------------------------------------------|

Pre Chorus
 |Guitar 1
e|------------------------------------------------------------|
B|---------10---------------9-------------7-------------7-----|
G|------11----11----------9---9---------7---7---------7---7---|
D|---11----------11-----9-------9-----7-------7-----7-------7-|
A|-9------------------7-------------5-------------5-----------|
E|------------------------------------------------------------|
 |Guitar 2
e|------------------------------------------------------------|
B|------------------------------------------------------------|
G|----------------------------------7~~-----------------------|
D|-4~~----------------2~~-----------7~~-----------------------|
A|-4~~----------------2~~-----------5~~-----------------------|
E|-2~~----------------0~~-------------------------------------|

 |Guitar 1
e|---------------------------------------------------------------|
B|---------10---------------9--------9\7-----7-------------7-----|
G|------11----11----------9---9------9\7-------7---------7---7---|
D|---11----------11-----9------------9\7--7------7-----7-------7-|
A|-9------------------7----------7-------------------5-----------|
E|---------------------------------------------------------------|
 |Guitar 2
e|---------------------------------------------------------------|
B|---------------------------------------------------------------|
G|----------------------------------7~~--------------------------|
D|-4~~----------------2~~-----------7~~--------------------------|
A|-4~~----------------2~~-----------5~~--------------------------|
E|-2~~----------------0~~----------------------------------------|

Chorus 1
 |Guitar 1
e|-------------------------------------2-----------2-------|
B|--------2-----------2--------------3---3-------3---3-----|
G|------2---2-------2---2----------2-------2---2-------2---|
D|----2-------2---2-------2------0-----------0-------------|\
A|--0-----------0------------------------------------------| \
E|---------------------------------------------------------|  \
 |Guitar 2 (slide played first before A chord)                 x2
e|-----------------------------------------------------------|  /
B|-----------------------------------------------------------| /
G|--2~~~-------------------------7~~-------------------------|
D|--2~~~-------------------------7~~-------------------------|
A|--0~~~-------------------------5~~-------------------------|
E|-----------------------------------------------------------|

Verse 2
 |Guitar 1
e|-------------------------------------2-----------2-------|
B|--------2-----------2--------------3---3-------3---3-----|
G|------2---2-------2---2----------2-------2---2-------2---|
D|----2-------2---2-------2------0-----------0-------------|\
A|--0-----------0------------------------------------------| \
E|---------------------------------------------------------|  \
 |Guitar 2 (slide played first before A chord)                 x3
e|-----------------------------------------------------------|  /
B|-----------------------------------------------------------| /
G|--2~~~-------------------------7~~-------------------------|
D|--2~~~-------------------------7~~-------------------------|
A|--0~~~-------------------------5~~-------------------------|

Pre Chorus 2
 |Guitar 1
e|------------------------------------------------------------|
B|---------10---------------9-------------7-------------7-----|
G|------11----11----------9---9---------7---7---------7---7---|
D|---11----------11-----9-------9-----7-------7-----7-------7-|
A|-9------------------7-------------5-------------5-----------|
E|------------------------------------------------------------|
 |Guitar 2
e|------------------------------------------------------------|
B|------------------------------------------------------------|
G|----------------------------------7~~-----------------------|
D|-4~~----------------2~~-----------7~~-----------------------|
A|-4~~----------------2~~-----------5~~-----------------------|
E|-2~~----------------0~~-------------------------------------|

 |Guitar 1
e|---------------------------------------------------------------|
B|---------10---------------9--------9\7-----7-------------7-----|
G|------11----11----------9---9------9\7-------7---------7---7---|
D|---11----------11-----9------------9\7--7------7-----7-------7-|
A|-9------------------7----------7-------------------5-----------|
E|---------------------------------------------------------------|
 |Guitar 2
e|---------------------------------------------------------------|
B|---------------------------------------------------------------|
G|----------------------------------7~~--------------------------|
D|-4~~----------------2~~-----------7~~--------------------------|
A|-4~~----------------2~~-----------5~~--------------------------|
E|-2~~----------------0~~----------------------------------------|

Chorus 2
 |Guitar 1
e|-------------------------------------2-----------2-------|
B|--------2-----------2--------------3---3-------3---3-----|
G|------2---2-------2---2----------2-------2---2-------2---|
D|----2-------2---2-------2------0-----------0-------------|\
A|--0-----------0------------------------------------------| \
E|---------------------------------------------------------|  \
 |Guitar 2 (slide played first before A chord)                 x5
e|-----------------------------------------------------------|  /
B|-----------------------------------------------------------| /
G|--2~~~-------------------------7~~-------------------------|
D|--2~~~-------------------------7~~-------------------------|
A|--0~~~-------------------------5~~-------------------------|

Lyrics

(Verse 1)
Starry nights city lights
Coming down over me
Skyscrapers and stargazers
In my head
Are we, we are, Are we, we are
The waiting unknown

(Pre-Chorus)
This dirty town is burning down in my dreams
Lost and found city bound in my dreams. C’mon!

(Chorus)
And screaming
Are we, we are, Are we, we are the waiting
And screaming
Are we, we are, Are we, we are the waiting

(Verse 2)
Forget me nots and second thoughts
Live in isolation
Heads or tails, fairytales
In my mind. C’mon!
Are we, we are, Are we, we are
The waiting unknown

(Pre-Chorus)
The rage and love, story of my life
The Jesus of suburbia is a lie. C’mon!

(Chorus 2)
And screaming
Are we, we are, Are we, we are the waiting
And screaming
Are we, we are, Are we, we are the waiting unknown
Are we, we are, Are we, we are the waiting
And screaming
Are we, we are, Are we, we are the waiting unknown
Are we, we are, Are we, we are the waiting unknown


-----------------------------------------------------------------------------------------
Green Day St. Jimmy
American Idiot

Guitar 1 –EADGBe – Jason White
Guitar 2 –EADGBe – the other guitarist guy (don’t know his name?)

Intro
 |Guitar 1
e|-----------------------------------------------------------------------------|
B|-----------------------------------------------------------------------------|
G|-----------------------------------------------------------------------------|
D|-----------------------------------------------------------------------------|
A|---00000000000000000000000000000000-----00000000000000000000000000000000-----|
E|-----------------------------------------------------------------------------|
PM   ********************************     ********************************
 |Guitar 2
e|-----------------------------------------------------------------------------|
B|-----------------------------------------------------------------------------|
G|------------------------------------7------------------------------------7---|
D|-7----------------------------------7-7----------------------------------7-7-|
A|-7----------------------------------5-7----------------------------------5-7-|
E|-5------------------------------------5------------------------------------5-|

 |Guitar 1
e|------------------------------------------------------------------------------|
B|------------------------------------------------------------------------------|
G|------------------------------------------------------------------------------|
D|------------------------------------------------------------------------------|
A|-00000000000000000000000000000000----0000000000000000----0000000000000000-----|
E|------------------------------------------------------------------------------|
PM ********************************    ****************    ****************
 |Guitar 2
e|------------------------------------------------------------------------------|
B|------------------------------------------------------------------------------|
G|----------------------------------7-------------------7-------------------7---|
D|----------------------------------7-7-----------------7-7-----------------7-7-|
A|----------------------------------5-7-----------------5-7-----------------5-7-|
E|------------------------------------5-------------------5-------------------5-|

 |Guitar 1
e|------------------|
B|------------------|
G|------------------|
D|------------------|
A|-00000000---------|
E|------------------|
PM ********
 |Guitar 2
e|------------------|
B|------------------|
G|-------------9----| ‘1,2,3,4!’
D|----------7--9-10-|
A|----------7--7-10-|
E|----------5-----8-|

Verse
 |Both guitars
e|------------------------------------|------------------------------------|
B|------------------------------------|------------------------------------|
G|----------7-7-7-7--9-9-9-9----------|----------7-7-7-7--9-9-9-9----------|
D|-7-7-7-7--7-7-7-7--9-9-9-9--7-7-7-7-|-7-7-7-7--7-7-7-7--9-9-9-9--7-7-7-7-|
A|-7-7-7-7--5-5-5-5--7-7-7-7--7-7-7-7-|-7-7-7-7--5-5-5-5--7-7-7-7--7-7-7-7-|
E|-5-5-5-5--------------------5-5-5-5-|-5-5-5-5--------------------5-5-5-5-|

Chorus
 |Both guitars
e|-----------------------------------------------------------------------------|
B|-----------------------------------------------------------------------------|
G|-7-7-7-7-7-7-7-7-7-7-----------------------7-7-7-7-7-7-7-7-7-7--9-9--9-9-9-9-|
D|-7-7-7-7-7-7-7-7-7-7--7-7-7-7-7-7-7-7-7-7--7-7-7-7-7-7-7-7-7-7--9-9--9-9-9-9-|
A|-5-5-5-5-5-5-5-5-5-5--7-7-7-7-7-7-7-7-7-7--5-5-5-5-5-5-5-5-5-5--7-7--7-7-7-7-|
E|----------------------5-5-5-5-5-5-5-5-5-5------------------------------------|

Pre Verse 2
 |Both Guitars
e|------------------------------------|---------------------------------------|
B|------------------------------------|---------------------------10-10-10-10-|
G|----------7-7-7-7--9-9-9-9----------|----------7-7-7-7--9-9-9-9--9--9--9--9-|
D|-7-7-7-7--7-7-7-7--9-9-9-9--7-7-7-7-|-7-7-7-7--7-7-7-7--9-9-9-9--7--7--7--7-|
A|-7-7-7-7--5-5-5-5--7-7-7-7--7-7-7-7-|-7-7-7-7--5-5-5-5--7-7-7-7-------------|
E|-5-5-5-5--------------------5-5-5-5-|-5-5-5-5-------------------------------|

Verse 2
 |Both guitars
e|------------------------------------|------------------------------------|
B|------------------------------------|------------------------------------|
G|----------7-7-7-7--9-9-9-9----------|----------7-7-7-7--9-9-9-9----------|
D|-7-7-7-7--7-7-7-7--9-9-9-9--7-7-7-7-|-7-7-7-7--7-7-7-7--9-9-9-9--7-7-7-7-|
A|-7-7-7-7--5-5-5-5--7-7-7-7--7-7-7-7-|-7-7-7-7--5-5-5-5--7-7-7-7--7-7-7-7-|
E|-5-5-5-5--------------------5-5-5-5-|-5-5-5-5--------------------5-5-5-5-|

Chorus 2
 |Both guitars
e|-----------------------------------------------------------------------------|
B|-----------------------------------------------------------------------------|
G|-7-7-7-7-7-7-7-7-7-7-----------------------7-7-7-7-7-7-7-7-7-7--9-9--9-9-9-9-|
D|-7-7-7-7-7-7-7-7-7-7--7-7-7-7-7-7-7-7-7-7--7-7-7-7-7-7-7-7-7-7--9-9--9-9-9-9-|
A|-5-5-5-5-5-5-5-5-5-5--7-7-7-7-7-7-7-7-7-7--5-5-5-5-5-5-5-5-5-5--7-7--7-7-7-7-|
E|----------------------5-5-5-5-5-5-5-5-5-5------------------------------------|

Bridge part 1
 |Both guitars
e|------------------------------|
B|------------------------------|
G|----7-----7--9-9-9-9-9-9-9-9--|
D|-7--7--7--7--9-9-9-9-9-9-9-9--| x4
A|-7--5--7--5--7-7-7-7-7-7-7-7--|
E|-5-----5----------------------|

Bridge part 2
 |Both guitars
e|------------------------------------|
B|------------------------------------|
G|----------9-9-9-9--5-5-5-5--8-8-8-8-|
D|-7-7-7-7--9-9-9-9--5-5-5-5--8-8-8-8-| x4
A|-7-7-7-7--7-7-7-7--3-3-3-3--6-6-6-6-|
E|-5-5-5-5----------------------------|

Pre solo
E|------------------------------------------------------------------------------|
B|---------------------------10-10-10-10--10-10-10-10---------------------------|
G|----------7-7-7-7--9-9-9-9--9--9--9--9---9--9--9--9--7777--999999999999999-9~-|
D|-7-7-7-7--7-7-7-7--9-9-9-9--7--7--7--7---7--7--7--7--7777--999999999999999-9~-|
A|-7-7-7-7--5-5-5-5--7-7-7-7---------------------------5555--777777777777777-7~-|
E|-5-5-5-5----------------------------------------------------------------------|

Solo
 |Guitar 1
e|--------------------------------------------------------12---12\--|
B|-----------------------------------------8---7--10--10------------|
G|---------------4/9--9~--9--7--7--7~--7-7--------------------------|
D|------------------------------------------------------------------|
A|------------------------------------------------------------------|
E|-(pick-slide)-----------------------------------------------------|
 |Guitar 2
e|------------------------------------------------------------------|
B|------------------------------------------------------------------|
G|----------------------------7-7--7-7-7----------7---7-------------|
D|----------------7-7--7-7-7--7-7--7-7-7--5--5----7---7---7-7-7-7-7-|
A|---(Wait for----7-7--7-7-7--5-5--5-5-5--5--5----5---5---7-7-7-7-7-|
E|--Pick-slide)---5-5--5-5-5--------------3--3------------5-5-5-5-5-|

Pre Outro
 |Guitar 1 only
e|-------------------------------------------|
B|-------------------------------------------|
G|------------7-7-7-7-7-------7-7------------|
D|-7-7-7-7-7--7-7-7-7-7--5-5--7-7--7-7-7-7-7-| x4
A|-7-7-7-7-7--5-5-5-5-5--5-5--5-5--7-7-7-7-7-|
E|-5-5-5-5-5-------------3-3-------5-5-5-5-5-|

Outro
 |Guitar 1 only
e|-------------------------------------------------------|
B|-------------------------------------------------------|
G|---------7~--9-9-------------7~--9-9-9-9-9-9-9-9--9~~~-|
D|--7~-7~--7~--9-9---7~-7~-7~--7~--9-9-9-9-9-9-9-9--9~~~-|
A|--7~-7~--5~--7-7---7~-7~-7~--5~--7-7-7-7-7-7-7-7--7~~~-|
E|--5~-5~------------5~-5~-5~----------------------------|

End (‘and don’t you fucking wear it out’)
e|---------------------|
B|---------------------|
G|---------------------|
D|--7----7-----7----7--|
A|--7----7-----7----7--|
E|--5----5-----5----5--|

Lyrics

(Intro)
St. Jimmy's comin' down across the alleyway
Up on the boulevard like a zip gun on parade
Life on the silhouette
He's insubordinate
Coming at you on account of 1,2
! 1, 2, 3, 4 !

(Verse 1)
My name is Jimmy and you better not wear it out
Suicide commando that your momma talked about
King of the forty thieves I'm here to represent
That needle in the vein of the establishment

(Chorus)
I'm the patron saint of the denial
With an angel face and a taste for suicidal

(Pre Verse 2)
England!

(Verse 2)
Cigarettes and ramen and a little bag of dope
I am the son of a bitch and Edgar Allen Poe
Raised in the city under a halo of rights
The product of war and fear that we've been victimized

(Chorus)
I'm the patron saint of the denial
With an angel face and a taste for suicidal

(Bridge part 1)
You talking to me?
I'll give you something to cry about.

(Bridge part 2)
ST. JIMMY!

(Solo)
Hey lets go!

(Pre Outro)
My name is St. Jimmy I'm a son of a gun
I am the one that's from the way outside now
A teenage assassin executing some fun
In the cult of the life of crime now

I really hate to say it but I told you so
So shut your mouth before I shoot you down old boy
Welcome to the club and give me some bud
I'm the resident leader at the, everybody!

(End)
It's comedy and tragedy
It's St. Jimmy
And that's my name.
...And don't you fucking wear it out!

-----------------------------------------------------------------------------------------
Green Day
Longview

Guitar 1 –EbAbDbGbBbe –Billie Joe Armstrong
Bass     -EbAbDbGb    -Mike Dirnt

Intro
G|----------------------------|B
D|----------------------------|A
A|----------------------------|S
E|-0~-xx--xxxxx--xx--19/5-----|S

Verse
G|---------------------------------------9-7-6-7--------|B
D|------9-7-6-------7--6----------9-7-6--0-0-0-0--------|A
A|-5h7---------7p5-------5---9p7-----------------|S-----| x6
E|------------------------------------------------------|S

Pre Chorus
G|------------------------------------------|B
D|------9-7-6-------7--6----------9-7-6-----|A
A|-5h7---------7p5-------5---9p7------------|S
E|------------------------------------------|S

Pre Chorus
 |Guitar 1
e|----------------------------------|
B|----------------------------------|
G|-7-7-7-7-7-7-7-7--7-7-7-7-7-7-7-7-|
D|-7-7-7-7-7-7-7-7--7-7-7-7-7-7-7-7-|
A|-5-5-5-5-5-5-5-5--5-5-5-5-5-5-5-5-|
E|----------------------------------|

Chorus
 |Guitar 1
e|----------------------------------|----------------------------------|
B|----------------------------------|----------------------------------|
G|--------------------------9-9-9-9-|--------------------------9-9-9-9-|
D|-9-9-9-9-9-9-9-9--7-7-7-7-9-9-9-9-|-9-9-9-9-9-9-9-9--7-7-7-7-9-9-9-9-|
A|-9-9-9-9-9-9-9-9--7-7-7-7-7-7-7-7-|-9-9-9-9-9-9-9-9--7-7-7-7-7-7-7-7-|
E|-7-7-7-7-7-7-7-7--5-5-5-5---------|-7-7-7-7-7-7-7-7--5-5-5-5---------|

e|----------------------------------|----------------------------------------|
B|----------------------------------|----------------------------------------|
G|--------------------------9-9-9-9-|------------------------------------8/9-|
D|-9-9-9-9-9-9-9-9--7-7-7-7-9-9-9-9-|-9-9-9-9-9-9-9-9--7-7-7-7--7-7-7-7--8/9-|
A|-9-9-9-9-9-9-9-9--7-7-7-7-7-7-7-7-|-9-9-9-9-9-9-9-9--7-7-7-7--7-7-7-7--6/7-|
E|-7-7-7-7-7-7-7-7--5-5-5-5---------|-7-7-7-7-7-7-7-7--5-5-5-5--5-5-5-5------|

Fill 1
G|------7---------9----7--6-------|------7---------9----7--6---------------|B
D|---------7--7h9---9--------9--7-|---------7--7h9---9--------9--7---------|A
A|-9p7----------------------------|-9p7------------------------------------|S
E|--------------------------------|----------------------------------------|S

Verse 2
G|---------------------------------------9-7-6-7--------|B
D|------9-7-6-------7--6----------9-7-6--0-0-0-0--------|A
A|-5h7---------7p5-------5---9p7-----------------|S-----| x3
E|------------------------------------------------------|S

Pre Chorus 2
G|------------------------------------------|B
D|------9-7-6-------7--6----------9-7-6-----|A
A|-5h7---------7p5-------5---9p7------------|S
E|------------------------------------------|S

Pre Chorus
 |Guitar 1
e|----------------------------------|
B|----------------------------------|
G|-7-7-7-7-7-7-7-7--7-7-7-7-7-7-7-7-|
D|-7-7-7-7-7-7-7-7--7-7-7-7-7-7-7-7-|
A|-5-5-5-5-5-5-5-5--5-5-5-5-5-5-5-5-|
E|----------------------------------|

Chorus
 |Guitar 1
e|----------------------------------|----------------------------------|
B|----------------------------------|----------------------------------|
G|--------------------------9-9-9-9-|--------------------------9-9-9-9-|
D|-9-9-9-9-9-9-9-9--7-7-7-7-9-9-9-9-|-9-9-9-9-9-9-9-9--7-7-7-7-9-9-9-9-|
A|-9-9-9-9-9-9-9-9--7-7-7-7-7-7-7-7-|-9-9-9-9-9-9-9-9--7-7-7-7-7-7-7-7-|
E|-7-7-7-7-7-7-7-7--5-5-5-5---------|-7-7-7-7-7-7-7-7--5-5-5-5---------|

e|----------------------------------|----------------------------------------|
B|----------------------------------|----------------------------------------|
G|--------------------------9-9-9-9-|------------------------------------8/9-|
D|-9-9-9-9-9-9-9-9--7-7-7-7-9-9-9-9-|-9-9-9-9-9-9-9-9--7-7-7-7--7-7-7-7--8/9-|
A|-9-9-9-9-9-9-9-9--7-7-7-7-7-7-7-7-|-9-9-9-9-9-9-9-9--7-7-7-7--7-7-7-7--6/7-|
E|-7-7-7-7-7-7-7-7--5-5-5-5---------|-7-7-7-7-7-7-7-7--5-5-5-5--5-5-5-5------|

Bridge (‘ive got no motivation’)
 |Guitar 1
e|---------------------------------|---------------------------------|
B|---------------------------------|---------------------------------|
G|-9~-9~-99--7777---9~-9~-99--7777-|-9~-9~-99--7777---9~-9~-99--7777-|
D|-9~-9~-99--7777---9~-9~-99--7777-|-9~-9~-99--7777---9~-9~-99--7777-|
A|-7~-7~-77--5555---7~-7~-77--5555-|-7~-7~-77--5555---7~-7~-77--5555-|
E|---------------------------------|---------------------------------|

Chorus
 |Guitar 1
e|----------------------------------|----------------------------------|
B|----------------------------------|----------------------------------|
G|--------------------------9-9-9-9-|--------------------------9-9-9-9-|
D|-9-9-9-9-9-9-9-9--7-7-7-7-9-9-9-9-|-9-9-9-9-9-9-9-9--7-7-7-7-9-9-9-9-|
A|-9-9-9-9-9-9-9-9--7-7-7-7-7-7-7-7-|-9-9-9-9-9-9-9-9--7-7-7-7-7-7-7-7-|
E|-7-7-7-7-7-7-7-7--5-5-5-5---------|-7-7-7-7-7-7-7-7--5-5-5-5---------|

e|----------------------------------|----------------------------------------|
B|----------------------------------|----------------------------------------|
G|--------------------------9-9-9-9-|------------------------------------8/9-|
D|-9-9-9-9-9-9-9-9--7-7-7-7-9-9-9-9-|-9-9-9-9-9-9-9-9--7-7-7-7--7-7-7-7--8/9-|
A|-9-9-9-9-9-9-9-9--7-7-7-7-7-7-7-7-|-9-9-9-9-9-9-9-9--7-7-7-7--7-7-7-7--6/7-|
E|-7-7-7-7-7-7-7-7--5-5-5-5---------|-7-7-7-7-7-7-7-7--5-5-5-5--5-5-5-5------|

Fill 1
G|------7---------9----7--6-------|------7---------9----7--6------------------|B
D|---------7--7h9---9--------9--7-|---------7--7h9---9--------9--7------------|A
A|-9p7----------------------------|-9p7--------------------------------|S-----| x5
E|--------------------------------|-------------------------------------------|S

Verse 2
G|---------------------------------------9-7-6-7-----|B
D|------9-7-6-------7--6----------9-7-6--0-0-0-0-----|A
A|-5h7---------7p5-------5---9p7---------------------|S
E|---------------------------------------------------|S

Pre Chorus 2
G|------------------------------------------|B
D|------9-7-6-------7--6----------9-7-6-----|A
A|-5h7---------7p5-------5---9p7------------|S
E|------------------------------------------|S

Pre Chorus 2
 |Guitar 1
e|--------------------------------------------------------------------|
B|--------------------------------------------------------------------|
G|-7-7-7-7-7-7-7-7--7-7-7-7-7-7-7-7--7-7-7-7-7-7-7-7--7-7-7-7-7-7-7-7-|
D|-7-7-7-7-7-7-7-7--7-7-7-7-7-7-7-7--7-7-7-7-7-7-7-7--7-7-7-7-7-7-7-7-|
A|-5-5-5-5-5-5-5-5--5-5-5-5-5-5-5-5--5-5-5-5-5-5-5-5--5-5-5-5-5-5-5-5-|
E|--------------------------------------------------------------------|

Chorus 2
 |Guitar 1
e|----------------------------------|----------------------------------|
B|----------------------------------|----------------------------------|
G|--------------------------9-9-9-9-|--------------------------9-9-9-9-|
D|-9-9-9-9-9-9-9-9--7-7-7-7-9-9-9-9-|-9-9-9-9-9-9-9-9--7-7-7-7-9-9-9-9-|
A|-9-9-9-9-9-9-9-9--7-7-7-7-7-7-7-7-|-9-9-9-9-9-9-9-9--7-7-7-7-7-7-7-7-|
E|-7-7-7-7-7-7-7-7--5-5-5-5---------|-7-7-7-7-7-7-7-7--5-5-5-5---------|

e|----------------------------------|----------------------------------|
B|----------------------------------|----------------------------------|
G|--------------------------9-9-9-9-|--------------------------9-9-9-9-|
D|-9-9-9-9-9-9-9-9--7-7-7-7-9-9-9-9-|-9-9-9-9-9-9-9-9--7-7-7-7-9-9-9-9-|
A|-9-9-9-9-9-9-9-9--7-7-7-7-7-7-7-7-|-9-9-9-9-9-9-9-9--7-7-7-7-7-7-7-7-|
E|-7-7-7-7-7-7-7-7--5-5-5-5---------|-7-7-7-7-7-7-7-7--5-5-5-5---------|

e|----------------------------------|----------------------------------|
B|----------------------------------|----------------------------------|
G|--------------------------9-9-9-9-|--------------------------9-9-9-9-|
D|-9-9-9-9-9-9-9-9--7-7-7-7-9-9-9-9-|-9-9-9-9-9-9-9-9--7-7-7-7-9-9-9-9-|
A|-9-9-9-9-9-9-9-9--7-7-7-7-7-7-7-7-|-9-9-9-9-9-9-9-9--7-7-7-7-7-7-7-7-|
E|-7-7-7-7-7-7-7-7--5-5-5-5---------|-7-7-7-7-7-7-7-7--5-5-5-5---------|

e|----------------------------------|----------------------------------------|
B|----------------------------------|----------------------------------------|
G|--------------------------9-9-9-9-|------------------------------------8/9-|
D|-9-9-9-9-9-9-9-9--7-7-7-7-9-9-9-9-|-9-9-9-9-9-9-9-9--7-7-7-7--7-7-7-7--8/9-|
A|-9-9-9-9-9-9-9-9--7-7-7-7-7-7-7-7-|-9-9-9-9-9-9-9-9--7-7-7-7--7-7-7-7--6/7-|
E|-7-7-7-7-7-7-7-7--5-5-5-5---------|-7-7-7-7-7-7-7-7--5-5-5-5--5-5-5-5------|

Outro
 |Guitar 1
e|---------------|-----------12--12*|---------------|-----------12--12*|
B|-9h10--10--7~--|----9h10---12--12*|-9h10--10--7~--|----9h10---12--12*|
G|-9------9--7~--|--9---------9-----|-9------9--7~--|--9---------9-----|
D|---------------|------------------|---------------|------------------|
A|---------------|------------------|---------------|------------------|
E|---------------|------------------|---------------|------------------|

e|---------------|-----------12--12*|---------------|-----------12--12*|-------------|
B|-9h10--10--7~--|----9h10---12--12*|-9h10--10--7~--|----9h10---12--12*|-9h10-10--7~-|
G|-9------9--7~--|--9---------9-----|-9------9--7~--|--9---------9-----|-9-----9--7~-|
D|---------------|------------------|---------------|------------------|-------------|
A|---------------|------------------|---------------|------------------|-------------|
E|---------------|------------------|---------------|------------------|-------------|

End
 |Guitar 1
e|------------------------------------------------------------------------------|
B|------------------------------------------------------------------------------|
G|-9999999999999999-9999999999999999-9999999999999999-9999999999999999-99999999-|
D|-xxxxxxxxxxxxxxxx-xxxxxxxxxxxxxxxx-xxxxxxxxxxxxxxxx-xxxxxxxxxxxxxxxx-xxxxxxxx-|
A|-7777777777777777-7777777777777777-7777777777777777-7777777777777777-77777777-|
E|------------------------------------------------------------------------------|

e|------------------------------------------------------------------------------|
B|------------------------------------------------------------------------------|
G|-99999999-9999999999999999-9999999999999999-9999999999999999-9999999999999999-|
D|-xxxxxxxx-xxxxxxxxxxxxxxxx-xxxxxxxxxxxxxxxx-xxxxxxxxxxxxxxxx-xxxxxxxxxxxxxxxx-|
A|-77777777-7777777777777777-7777777777777777-7777777777777777-7777777777777777-|
E|------------------------------------------------------------------------------|

e|----------------------------------------------------------------------------|
B|----------------------------------------------------------------------------|
G|-9----9----9----9----9----9----9----9-----9999999999999999-9999999999999999-|
D|-x-9--x-9--x-9--x-9--x-9--x-9--x-9--x-9---xxxxxxxxxxxxxxxx-xxxxxxxxxxxxxxxx-|
A|-7-x--7-x--7-x--7-x--7-x--7-x--7-x--7-x---7777777777777777-7777777777777777-|
E|---7----7----7----7----7----7----7----7-------------------------------------|

e|------------------------------------------------------------------------------|
B|------------------------------------------------------------------------------|
G|-9999999999999999-9999999999999999-9999999999999999-9999999999999999-99999999-|
D|-xxxxxxxxxxxxxxxx-xxxxxxxxxxxxxxxx-xxxxxxxxxxxxxxxx-xxxxxxxxxxxxxxxx-xxxxxxxx-|
A|-7777777777777777-7777777777777777-7777777777777777-7777777777777777-77777777-|
E|------------------------------------------------------------------------------|

e|--------------------------------------------|
B|--------------------------------------------|
G|-99999999-9999999999999999-9999999999999999-|
D|-xxxxxxxx-xxxxxxxxxxxxxxxx-xxxxxxxxxxxxxxxx-|
A|-77777777-7777777777777777-7777777777777777-|
E|--------------------------------------------|

Final
 |Guitar 1
e|-------12-------------12------|--------12-----------|
B|-9-10--12--10---9-10--12--10--|--9-10--12--10---9~~-|
G|-9--9---9---9---9--9---9---9--|--9--9---9---9---9~~-|
D|------------------------------|---------------------|
A|------------------------------|---------------------|
E|------------------------------|---------------------|


Lyrics

alright! come on!

(Verse 1)
Sit around and watch the tube but nothing's on
I Change the channels for an hour or two. C’mon!
Twiddle my thumbs just for a bit
I'm sick of all the same old shit
In a house with unlocked doors
And I'm fucking lazy!

(Chorus)
Bite my lip and close my eyes
Take me away to paradise
I'm so damn bored I'm going blind
And I smell like shit

(Verse 2)
Peel me off this Velcro seat and get me moving
I sure as hell can't do it by myself
I'm feeling like a dog in heat
Barred indoors from a summer street
I locked the door to my own cell
And I lost the key

(Chorus)
Bite my lip and close my eyes
Take me away to paradise
I'm so damn bored I'm going blind
And I smell like shit


(Bridge)
I got no motivation
Where is my motivation?
No time for my motivation
Smoking my inspiration

(Verse 3)
Sit around and watch the phone, no one's calling
Call me pathetic, call me what you will
My mother says to get a job
But she don't like the one she's got
When masturbation's lost it's fun
You're fuckin lazy

(Pre chorus 2)
Sing....

(Chorus 2)
Bite my lip and close my eyes
Take me away to paradise
I'm so damn bored I'm goin blind
And none of this has to suffice
Bite my lip and close my eyes
Oh slippin’ away to paradise
Some say quit or I'll go blind
But it's just a myth

(Outro)

-----------------------------------------------------------------------------------------
Green Day
Hitchin’ a Ride

This is actually played without a second guitar, tis strange?

Guitar 1 – EbAbDbGbBbe –Billie Joe Armstrong

Verse 1
 |Guitar 1
E|------------------------|------------------------|
B|------------------------|------------------------|
G|------------------------|------------------------| x5 then play
D|------------------------|------------------------| that below
A|-9-9--7-7--6-6--5-5-5-5-|-9-9--7-7--6-6--5-5-5-5-|
E|-7-7--5-5--4-4--3-3-3-3-|-7-7--5-5--4-4--3-3-3-3-|
PM * *  * *  * *  * * * *   * *  * *  * *  * * * *

E|------------------------|----------------------------|
B|------------------------|----------------------------|
G|------------------------|----------------------------|
D|------------------------|-----------6-6-6-6--5-5-5-5-|
A|-9-9--7-7--6-6--5-5-5-5-|-9-9--7-7--6-6-6-6--5-5-5-5-|
E|-7-7--5-5--4-4--3-3-3-3-|-7-7--5-5--4-4-4-4--3-3-3-3-|
PM * *  * *  * *  * * * *   * *  * *

Chorus
 |Guitar 1
E|----------------------|----------------------|----------------------|---------------|
B|----------------------|----------------------|----------------------|---------------|
G|----------------------|----------------------|----------------------|---------------|
D|-9-9--7-7--6-6--5-55-5|-9-9--7-7--6-6--5-55-5|-9-9--7-7--6-6--5-55-5|-9-9--7-7--6-6-|
A|-9-9--7-7--6-6--5-55-5|-9-9--7-7--6-6--5-55-5|-9-9--7-7--6-6--5-55-5|-9-9--7-7--6-6-|
E|-7-7--5-5--4-4--3-33-3|-7-7--5-5--4-4--3-33-3|-7-7--5-5--4-4--3-33-3|-7-7--5-5--4-4-|

Verse 2
 |Guitar 1
E|------------------------|------------------------|
B|------------------------|------------------------|
G|------------------------|------------------------| x3 then play
D|------------------------|------------------------| that below
A|-9-9--7-7--6-6--5-5-5-5-|-9-9--7-7--6-6--5-5-5-5-|
E|-7-7--5-5--4-4--3-3-3-3-|-7-7--5-5--4-4--3-3-3-3-|
PM * *  * *  * *  * * * *   * *  * *  * *  * * * *

E|------------------------|----------------------------|
B|------------------------|----------------------------|
G|------------------------|----------------------------|
D|------------------------|-----------6-6-6-6--5-5-5-5-|
A|-9-9--7-7--6-6--5-5-5-5-|-9-9--7-7--6-6-6-6--5-5-5-5-|
E|-7-7--5-5--4-4--3-3-3-3-|-7-7--5-5--4-4-4-4--3-3-3-3-|
PM * *  * *  * *  * * * *   * *  * *

Chorus 2
 |Guitar 1
E|------------------------|------------------------|------------------------|
B|------------------------|------------------------|------------------------|
G|------------------------|------------------------|------------------------|
D|-9-9--7-7--6-6--5-5-5-5-|-9-9--7-7--6-6--5-5-5-5-|-9-9--7-7--6-6--5-5-5-5-|
A|-9-9--7-7--6-6--5-5-5-5-|-9-9--7-7--6-6--5-5-5-5-|-9-9--7-7--6-6--5-5-5-5-|
E|-7-7--5-5--4-4--3-3-3-3-|-7-7--5-5--4-4--3-3-3-3-|-7-7--5-5--4-4--3-3-3-3-|

E|-----------------------|----------------------------------------|-----------------|
B|-----------------------|----------------------------------------|-----------------|
G|-----------------------|-111-1-1--------------------------------|-111-1-1---------|
D|9999-7777-6666--5-5-5-5|-222-2-2--4444-4--9-9--7-7--6-6--5-5-5-5|-222-2-2--4444-4-|
A|9999-7777-6666--5-5-5-5|-222-2-2--4444-4--9-9--7-7--6-6--5-5-5-5|-222-2-2--4444-4-|
E|7777-5555-4444--3-3-3-3|-000-0-0--2222-2--7-7--5-5--4-4--3-3-3-3|-000-0-0--2222-2-|

Pre Solo

(Just bass here for quite a while and Billie saying a lot of crap!
But guitar hits back in, with that below)

Solo
 |Guitar 1
E|------------------------------------------------|
B|------------------------------------------------|
G|------------------------------------------------|
D|-99999999-1212121212121212--99999999--5555-4444-|
A|-xxxxxxxx--x-x-x-x-x-x-x-x--xxxxxxxx--xxxx-xxxx-|
E|-77777777-1010101010101010--77777777--3333-2222-|

E|-----------------------------------------------------------|
B|-----------------------------------------------------------|
G|-----------------------------------------------------------|
D|-99999999-1212121212121212-14141414141414141414141414141414|
A|-xxxxxxxx--x-x-x-x-x-x-x-x--x-x-x-x-x-x-x-x-x-x-x-x-x-x-x-x|
E|-77777777-1010101010101010-12121212121212121212121212121212|

E|--------------------|--------------------|--------------------|
B|--------------------|--------------------|--------------------|
G|-11-9-6-9--11-9-6-9-|-11-9-6-4---6-9-6-4-|-6-9-11-9--6-9-11-9-|
D|--x-x-x-x---x-x-x-x-|--x-x-x-x---x-x-x-x-|-x-x--x-x--x-x--x-x-|
A|--9-7-4-7---9-7-4-7-|--9-7-4-2---4-7-4-2-|-4-7--9-7--4-7--9-7-|
E|--------------------|--------------------|--------------------|

E|---------------------------------|
B|---------------------------------|
G|---------------------------------|
D|-14141414141414141414141414141414|
A|--x-x-x-x-x-x-x-x-x-x-x-x-x-x-x-x|
E|-12121212121212121212121212121212|

Post Solo
 |Guitar 1
E|----------------------|-------------------------|----------------------|
B|----------------------|-------------------------|----------------------|
G|-1-1-1-1-1------------|-------------------------|-1-1-1-1-1------------|
D|-2-2-2-2-2--4-4-4-4-4-|--9-9--7-7--6-6--5-5-5-5-|-2-2-2-2-2--4-4-4-4-4-|
A|-2-2-2-2-2--4-4-4-4-4-|--9-9--7-7--6-6--5-5-5-5-|-2-2-2-2-2--4-4-4-4-4-|
E|-0-0-0-0-0--2-2-2-2-2-|--7-7--5-5--4-4--3-3-3-3-|-0-0-0-0-0--2-2-2-2-2-|

Outro
E|----------------------|----------------------|----------------------|
B|----------------------|----------------------|----------------------|
G|------7-7-------------|------7-7-------------|------7-7-------------|
D|-9-9--7-7--5-5--4-4-4-|-9-9--7-7--5-5--4-4-4-|-9-9--7-7--5-5--4-4-4-|
A|-9-9--5-5--5-5--4-4-4-|-9-9--5-5--5-5--4-4-4-|-9-9--5-5--5-5--4-4-4-|
E|-7-7-------3-3--2-2-2-|-7-7-------3-3--2-2-2-|-7-7-------3-3--2-2-2-|

E|----------------------|---------------------------|
B|----------------------|---------------------------|
G|------7-7-------------|---------------------------|
D|-9-9--7-7--5-5--4-4-4-|-99999999-1212121212121212-|
A|-9-9--5-5--5-5--4-4-4-|-xxxxxxxx--x-x-x-x-x-x-x-x-|
E|-7-7-------3-3--2-2-2-|-77777777-1010101010101010-|

E|------------------------------------------------|-----------------------|
B|------------------------------------------------|-----------------------|
G|------------------------------------------------|-----------------------|
D|-99999999--5555-4444--99999999-1212121212121212-|-1414141414141414141414|
A|-xxxxxxxx--xxxx-xxxx--xxxxxxxx--x-x-x-x-x-x-x-x-|--x-x-x-x-x-x-x-x-x-x-x|
E|-77777777--3333-2222--77777777-1010101010101010-|-1212121212121212121212|

End (clean)
 |Guitar 1
E|----------|
B|----------|
G|-8~~~~~~~-|
D|-9~~~~~~~-|
A|-9~~~~~~~-|
E|-7~~~~~~~-|

(Lyrics)

(Verse)
Hey mister, where you headed?
Are you in a hurry?
I need a lift to happy hour.
Say oh no.
Do you brake for distilled spirits?
I need a break as well.
The well that inebriates the guilt.
1, 2...

1, 2, 3, 4.


(Verse)
Cold turkey's getting stale,
Tonight I'm eating crow.
Fermented salmonella poison oak no.
There's a drought at the fountain of youth
And I'm dehydrated
My tongue is swelling up,
A say 1, 2...

1, 2, 3, 4.


(Chorus 2)
Troubled times, you know I cannot lie.
I'm off the wagon and I'm hitchin' a ride.

(Pre-Solo)
There's a drought at the fountain of youth
And I'm dehydrated
My tongue is swelling up,
A say, shite!

Solo

(Post solo)
Troubled times, you know I cannot lie.
I'm off the wagon and I'm hitchin' a ride.


(Outro)
(Don't know where im going) Hitchin’ a ride
(Don't know where im going) Hitchin’ a ride
(Don't know where im going) Hitchin’ a ride
(Don't know where im going) Hitchin’ a ride
(Don't know where im going) Hitchin’ a ride
(Don't know where im going) Hitchin’ a ride
(Don't know where im going) Hitchin’ a ride


-----------------------------------------------------------------------------------------
Green Day
Brain Stew

Guitar 1 – EbAbDbGbBbe –Billie Joe Armstrong

Riff 1
 |Guitar 1
e|--------------------------|
B|--------------------------|
G|--------------------------| x5
D|--7-7--5-5--4-4--3-3--2-2-|
A|--7-7--5-5--4-4--3-3--2-2-|
E|--5-5--3-3--2-2--1-1--0-0-|

Riff 1a
 |Guitar 1
e|-----------------|
B|-----------------|
G|-----------------|
D|--7-7--5-5--4-4--|
A|--7-7--5-5--4-4--|
E|--5-5--3-3--2-2--|
PM  * *  * *  * *

Riff 1
 |Guitar 1
e|--------------------------|
B|--------------------------|
G|--------------------------| x6
D|--7-7--5-5--4-4--3-3--2-2-|
A|--7-7--5-5--4-4--3-3--2-2-|
E|--5-5--3-3--2-2--1-1--0-0-|

Riff 2
 |Guitar 1
e|------------------------------------------------------------------|
B|------------------------------------------------------------------|
G|------------------------------------------------------------------|
D|--7-7-x-x-x-x-x-x-5-5-x-x-x-x-x-x-4-4-x-x-x-x-x-x-3-3-x-x-2-2-x-x-| x2
A|--7-7-x-x-x-x-x-x-5-5-x-x-x-x-x-x-4-4-x-x-x-x-x-x-3-3-x-x-2-2-x-x-|
E|--5-5-x-x-x-x-x-x-3-3-x-x-x-x-x-x-2-2-x-x-x-x-x-x-1-1-x-x-0-0-x-x-|

Riff 1
 |Guitar 1
e|--------------------------|
B|--------------------------|
G|--------------------------| x4
D|--7-7--5-5--4-4--3-3--2-2-|
A|--7-7--5-5--4-4--3-3--2-2-|
E|--5-5--3-3--2-2--1-1--0-0-|

Riff 2
 |Guitar 1
e|------------------------------------------------------------------|
B|------------------------------------------------------------------|
G|------------------------------------------------------------------|
D|--7-7-x-x-x-x-x-x-5-5-x-x-x-x-x-x-4-4-x-x-x-x-x-x-3-3-x-x-2-2-x-x-| x2
A|--7-7-x-x-x-x-x-x-5-5-x-x-x-x-x-x-4-4-x-x-x-x-x-x-3-3-x-x-2-2-x-x-|
E|--5-5-x-x-x-x-x-x-3-3-x-x-x-x-x-x-2-2-x-x-x-x-x-x-1-1-x-x-0-0-x-x-|

Riff 1
 |Guitar 1
e|--------------------------|
B|--------------------------|
G|--------------------------| x3
D|--7-7--5-5--4-4--3-3--2-2-|
A|--7-7--5-5--4-4--3-3--2-2-|
E|--5-5--3-3--2-2--1-1--0-0-|

Riff 3
 |Guitar 1
e|--------------------------------------------------|
B|--------------------------------------------------|
G|--------------------------------------------------|
D|-7-7-7-7--5-5-5---------4-4-4---------3-3-3-2-2-2-| x1
A|-7-7-7-7--5-5-5---------4-4-4---------3-3-3-2-2-2-|
E|-5-5-5-5--3-3-3-3/15\3--2-2-2-2/14\2--1-1-1-0-0-0-|

Riff 4
 |Guitar 1
e|---------0--------------0--------------0-----------0--------0-|
B|-------0--------------0--------------0------------------------|
G|--------------------------------------------------------------|
D|--7-7-------7----5-5-------5----4-4-------4----3-3-----2-2----| x6
A|--7-7-------7----5-5-------5----4-4-------4----3-3-----2-2----|
E|--5-5-------5-0--3-3-------3-0--2-2-------2-0--1-1-----0-0----|

(Verse 1)
I'm having trouble trying to sleep
I'm countin sheep but running out
As time ticks by, still I try
No rest for cross tops in my mind
On my own, here we go

(Verse 2)
My eyes feel like they're gonna bleed
Dried up and bulging out my skull
My mouth is dry; my face is numb
Fucked up and spun out in my room
On my own, here we go

(Verse 3)
My mind is set on overdrive
The clock is laughing in my face
Crooked spine, senses dulled
Passed the point of delirium
On my own, here we go

(Verse 2)
My eyes feel like they're gonna bleed
Dried up and bulging out my skull
My mouth is dry; my face is numb
Fucked up and spun out in my room
On my own, here we go


-----------------------------------------------------------------------------------------
Green Day
Basket Case

Guitar 1 – EbAbDbGbBbe –Billie Joe Armstrong

Verse
e|---------------------------|------------------------------|
b|---------------------------|------------------------------|
g|-9-------9-----------------|-6-----6-----6----------------|
D|-9-9999999--9-----9------9-|-6-66--6-66--6-6------6-----6-|
a|-7-7777777--9--99-9-999--9-|-4-44--4-44--4-6--66--6-666-6-|
e|------------7--77-7-777--7-|---------------4--44--4-444-4-|
PM   ******      **   ***        **    **       **    ***

e|-------------------------------|-----------------------------|
b|-------------------------------|-----------------------------|
g|---------------9------9------9-|-----------------------------|
D|-----7-----7--99--99--9-999--9-|-----9------9------9------9-9| x2
a|-77--7-77--7--77--77--7-777--7-|-99--9-9999-9--99--9-999--9-7|
e|-55--5-55--5-------------------|-77--7-7777-7--77--7-777--7--|
PM **    **     *   **    ***      **    ****    **    ***    *

Chorus
e|-----------------------------------|----------------------------------------------|
b|-----------------------------------|----------------------------------------------|
g|-----------------------------------|----9-------9-----9------9--------------------|
d|-----7-----7----9------9------9--9-|99--9-9999--9--99-9--999-9-9-----7-----7----9-|
a|-77--7-77--7--9-9--99--9-999--9--7-|77--7-7777--7--77-7--777-7-7--77-7--77-7--9-9-|
e|-55--5-55--5--7-7--77--7-777--7----|------------------------------55-5--55-5--7-7-|
PM **    **     *    **    ***     *  **    ****     **    ***   *  **    **    *

e|-------------------------------|----------------|
b|-------------------------------|----------------|
g|---------------------9-------9-|----9------9----|
d|-----9------9-9--99--9-9999--9-|-99-9--999-9-9--|
a|-99--9-999--9-7--77--7-7777--7-|-77-7--777-7-7--|
e|-77--7-777--7------------------|----------------|
PM **    ***    *  **    ****      **    ***   *

Post Chorus
e|------------------------------------------------------------------|
B|-9--7-7--x--5--5--5--5--5--5--5-----------------------------------|
G|-9--7-7--x--6--6--6--6--6--6--6-------------------------------9-9-|
D|-9--7-7--x--6--6--6--6--6--6--6--7-7-------------9-9-9-9-9-9--9-9-|
A|-7--5-5--x--4--4--4--4--4--4--4--7-7--7-7-7-7-7--9-9-9-9-9-9--7-7-|
E|---------------------------------5-5--5-5-5-5-5--7-7-7-7-7-7------|

Coda
e|----------------------------|----------------------------|
B|-9-x-x--4-x-x--5-x-x--4-4-4-|-9-x-x--4-x-x--5-x-x--4-4-4-|
G|-9-x-x--4-x-x--6-x-x--4-4-4-|-9-x-x--4-x-x--6-x-x--4-4-4-|
D|-9-x-x--4-x-x--6-x-x--4-4-4-|-9-x-x--4-x-x--6-x-x--4-4-4-|
A|-7-x-x--2-x-x--4-x-x--2-2-2-|-7-x-x--2-x-x--4-x-x--2-2-2-|
E|----------------------------|----------------------------|

Verse 2
e|-0-0-0-0----------------|-----------------------------0-0-0-0-0-0-------------|
B|-0-0-0-0--x-444444--x-x-|-----------------------------0-0-0-0-0-0--4444444444-|
G|-1-1-1-1--x-444444--x-x-|-6-6-6-6-----------2-2-2-2-x-1-1-1-1-1-1--4444444444-|
D|-2-2-2-2--x-444444--x-x-|-6-6-6-6-x-666666--2-2-2-2-x-2-2-2-2-2-2--4444444444-| x2
A|-2-2-2-2--x-222222--x-x-|-4-4-4-4-x-666666--0-0-0-0-x-2-2-2-2-2-2--2222222222-|
E|-0-0-0-0----------------|---------x-444444------------0-0-0-0-0-0-------------|

Chorus 2
e|--------------------------------|-------------------------------|
B|--------------------------------|9--9--9--9-x-10-10-10-10-10-10-|
G|--------------------------------|9--9--9--9-x--9--9--9--9--9--9-|
D|-7--7--7--7-----9--9-9-9--9--9--|9--9--9--9-x--9--9--9--9--9--9-|
A|-7--7--7--7-----9--9-9-9--9--9--|7--7--7--7-x--7--7--7--7--7--7-|
E|-5--5--5--5--0--7--7-7-7--7--7--|-------------------------------|

e|----------------------|-------------------------------|---------------------|
B|----------------------|9--9--9--9-x-10-10-10-10-10-10-|---------------------|
G|----------------------|9--9--9--9-x--9--9--9--9--9--9-|---------------------|
D|7-7-7-7---9-9-9-9-9-9-|9--9--9--9-x--9--9--9--9--9--9-|7-7-7-7---9-9-9-9-9-9|
A|7-7-7-7---9-9-9-9-9-9-|7--7--7--7-x--7--7--7--7--7--7-|7-7-7-7---9-9-9-9-9-9|
E|5-5-5-5-0-7-7-7-7-7-7-|-------------------------------|5-5-5-5-0-7-7-7-7-7-7|

Post Chorus
e|------------------------------------------------------------------|
B|-9--7-7--x--5--5--5--5--5--5--5-----------------------------------|
G|-9--7-7--x--6--6--6--6--6--6--6-------------------------------9-9-|
D|-9--7-7--x--6--6--6--6--6--6--6--7-7-------------9-9-9-9-9-9--9-9-|
A|-7--5-5--x--4--4--4--4--4--4--4--7-7--7-7-7-7-7--9-9-9-9-9-9--7-7-|
E|---------------------------------5-5--5-5-5-5-5--7-7-7-7-7-7------|

Coda
e|----------------------------|----------------------------|
B|-9-x-x--4-x-x--5-x-x--4-4-4-|-9-x-x--4-x-x--5-x-x--4-4-4-|
G|-9-x-x--4-x-x--6-x-x--4-4-4-|-9-x-x--4-x-x--6-x-x--4-4-4-|
D|-9-x-x--4-x-x--6-x-x--4-4-4-|-9-x-x--4-x-x--6-x-x--4-4-4-| x2
A|-7-x-x--2-x-x--4-x-x--2-2-2-|-7-x-x--2-x-x--4-x-x--2-2-2-|
E|----------------------------|----------------------------|

Bridge
e|-----------------------------------|-------------------|
B|-----------------------------------|-------------------|
G|-----------------------------------|-------------------|
D|-7---------------------------------|-9-9-9-9-9-9-9-9-9-|
A|-7---7-7-7-7-7-7-7-7-7-7-7-7-7-7-7-|-9-9-9-9-9-9-9-9-9-|
E|-5---5-5-5-5-5-5-5-5-5-5-5-5-5-5-5-|-7-7-7-7-7-7-7-7-7-|
PM     *****************************

Verse 2
e|-0-0-0-0----------------|-----------------------------0-0-0-0-0-0-------------|
B|-0-0-0-0--x-444444--x-x-|-----------------------------0-0-0-0-0-0--4444444444-|
G|-1-1-1-1--x-444444--x-x-|-6-6-6-6-----------2-2-2-2-x-1-1-1-1-1-1--4444444444-|
D|-2-2-2-2--x-444444--x-x-|-6-6-6-6-x-666666--2-2-2-2-x-2-2-2-2-2-2--4444444444-| x2
A|-2-2-2-2--x-222222--x-x-|-4-4-4-4-x-666666--0-0-0-0-x-2-2-2-2-2-2--2222222222-|
E|-0-0-0-0----------------|---------x-444444------------0-0-0-0-0-0-------------|

Chorus
e|-----------------------------------|----------------------------------------------|
b|-----------------------------------|----------------------------------------------|
g|-----------------------------------|----9-------9-----9------9--------------------|
d|-----7-----7----9------9------9--9-|99--9-9999--9--99-9--999-9-9-----7-----7----9-|
a|-77--7-77--7--9-9--99--9-999--9--7-|77--7-7777--7--77-7--777-7-7--77-7--77-7--9-9-|
e|-55--5-55--5--7-7--77--7-777--7----|------------------------------55-5--55-5--7-7-|
PM **    **     *    **    ***     *  **    ****     **    ***   *  **    **    *

e|-------------------------------|-----------------------------------------------|
b|-------------------------------|-----------------------------------------------|
g|---------------------9-------9-|----9------9-----------------------------------|
d|-----9------9-9--99--9-9999--9-|-99-9--999-9-9-----7-----7----9-----9------9-9-|
a|-99--9-999--9-7--77--7-7777--7-|-77-7--777-7-7--77-7--77-7--9-9--99-9--999-9-7-|
e|-77--7-777--7------------------|----------------55-5--55-5--7-7--77-7--777-7---|
PM **    ***    *  **    ****      **    ***   *  **    **    *    **    ***   *

Post Chorus
e|------------------------------------------------------------------|
B|-9--7-7--x--5--5--5--5--5--5--5-----------------------------------|
G|-9--7-7--x--6--6--6--6--6--6--6-------------------------------9-9-|
D|-9--7-7--x--6--6--6--6--6--6--6--7-7-------------9-9-9-9-9-9--9-9-|
A|-7--5-5--x--4--4--4--4--4--4--4--7-7--7-7-7-7-7--9-9-9-9-9-9--7-7-|
E|---------------------------------5-5--5-5-5-5-5--7-7-7-7-7-7------|

Pre Outro
E|-------------------------|------------------------------|
B|-------------------------|------------------------------|
G|--9-9-9-9-9---6-6-6-6-6--|-------9-9-x------------------|
D|--9-9-9-9-9---6-6-6-6-6--|-7--7--9-9-x--9-9-9-9-9-9-9-9-| x3
A|--7-7-7-7-7---4-4-4-4-4--|-7--7--7-7-x--9-9-9-9-9-9-9-9-|
E|-------------------------|-5--5---------7-7-7-7-7-7-7-7-|

Outro
E|-------------------------|-------------------------------|
B|-------------------------|-------------------------------|
G|-9-9-9-9-9---6-6-6-6-6---|-----9---------------2-----4~~-|
D|-9-9-9-9-9---6-6-6-6-6---|-7---9--9~~----------2--2--4~~-|
A|-7-7-7-7-7---4-4-4-4-4---|-7---7--9~~----------0--2--2~~-|
E|-------------------------|-5------7~~--16\7p0-----0------|

End
E|----------------------------------------------------|
B|----------------------------------------------------|
G|-4444444444444444-4444444444444444-4444444444444444-| x2
D|-xxxxxxxxxxxxxxxx-xxxxxxxxxxxxxxxx-xxxxxxxxxxxxxxxx-|
A|-2222222222222222-2222222222222222-2222222222222222-|
E|----------------------------------------------------|

(Lyrics)

(Verse)
Do you have the time, to listen to me whine?
About nothing and everything, all at once
I am one of those - Melodramatic fools
Neurotic to the bone - No doubt about it

(Chorus)
Sometimes I give myself the creeps
Sometimes my mind plays tricks on me
It all keeps adding up

(Post chorus)
I think I'm crackin’ up
Am I just paranoid?
Am I just stoned?

(Coda)

(Verse 2)
I went to a shrink - To analyse my dreams
She says it's lack of sex - That's bringing me down
I went to a whore - He said my life's a bore
So quit my whining – Cos’ it's bringing her down

(Chorus 2)
Sometimes I give myself the creeps
Sometimes my mind plays tricks on me
It all keeps adding up

(Post chorus)
I think I'm crackin’ up
Am I just paranoid?
Am I just a ya ya yeah!

(Coda)
Oi, oi

(Bridge)
Grasping to control – so I better hold on

(Verse with no lyrics)

(Chorus)
Sometimes I give myself the creeps
Sometimes my mind plays tricks on me
It all keeps adding up

(Post chorus)
I think I'm crackin’ up
Am I just paranoid?
Am I just stoned?


-----------------------------------------------------------------------------------------
Green Day
King for a Day/Shout

Guitar 1 –EADGBe –Jason White

I will tab these songs separately even though they are played right after each other
because it is easier to tab them like that

Verse
E|----------------------------|----------------------------|
B|----------------------------|----------------------------|
G|-9-x-x---------9-x-x--------|-6-x-x---------6-x-x--------|
D|-9-x-x--9-9-9--9-x-x--9-9-9-|-6-x-x--6-6-6--6-x-x--6-6-6-| x6
A|-7-x-x--9-9-9--7-x-x--9-9-9-|-4-x-x--6-6-6--4-x-x--6-6-6-|
E|--------7-7-7---------7-7-7-|--------4-4-4---------4-4-4-|
PM * * *  * * *  * * *  * * *   * * *  * * *  * * *  * * *

Fill 1
E|---------------------|
B|---------------------|
G|-6-6-6-6-6-6-6-6-6-6-|
D|-6-6-6-6-6-6-6-6-6-6-|
A|-4-4-4-4-4-4-4-4-4-4-|
E|---------------------|

Pre Chorus
E|------------------------------------------|
B|------------------------------------------|
G|------------------------------------------|
D|-7-7-7-7-7-7-7-7-7-7--9-9-9-9-9-9-9-9-9-9-| x4
A|-7-7-7-7-7-7-7-7-7-7--9-9-9-9-9-9-9-9-9-9-|
E|-5-5-5-5-5-5-5-5-5-5--7-7-7-7-7-7-7-7-7-7-|

Chorus
E|----------------------------|----------------------------|
B|----------------------------|----------------------------|
G|-9-x-x---------9-x-x--------|-6-x-x---------6-x-x--------|
D|-9-x-x--9-9-9--9-x-x--9-9-9-|-6-x-x--6-6-6--6-x-x--6-6-6-| x3
A|-7-x-x--9-9-9--7-x-x--9-9-9-|-4-x-x--6-6-6--4-x-x--6-6-6-|
E|--------7-7-7---------7-7-7-|--------4-4-4---------4-4-4-|

Post chorus
E|------------------------------------------|
B|------------------------------------------|
G|------------------------------------------|
D|-7-7-7-7-7-7-7-7-7-7--9-9-9-9-9-9-9-9-9-9-|
A|-7-7-7-7-7-7-7-7-7-7--9-9-9-9-9-9-9-9-9-9-|
E|-5-5-5-5-5-5-5-5-5-5--7-7-7-7-7-7-7-7-7-7-|

Verse 2
E|----------------------------|----------------------------|
B|----------------------------|----------------------------|
G|-9-x-x---------9-x-x--------|-6-x-x---------6-x-x--------|
D|-9-x-x--9-9-9--9-x-x--9-9-9-|-6-x-x--6-6-6--6-x-x--6-6-6-| x6
A|-7-x-x--9-9-9--7-x-x--9-9-9-|-4-x-x--6-6-6--4-x-x--6-6-6-|
E|--------7-7-7---------7-7-7-|--------4-4-4---------4-4-4-|
PM * * *  * * *  * * *  * * *   * * *  * * *  * * *  * * *

Fill 1
E|---------------------|
B|---------------------|
G|-6-6-6-6-6-6-6-6-6-6-|
D|-6-6-6-6-6-6-6-6-6-6-|
A|-4-4-4-4-4-4-4-4-4-4-|
E|---------------------|

Pre Chorus 2
E|------------------------------------------|
B|------------------------------------------|
G|------------------------------------------|
D|-7-7-7-7-7-7-7-7-7-7--9-9-9-9-9-9-9-9-9-9-| x4
A|-7-7-7-7-7-7-7-7-7-7--9-9-9-9-9-9-9-9-9-9-|
E|-5-5-5-5-5-5-5-5-5-5--7-7-7-7-7-7-7-7-7-7-|

Chorus 2
E|----------------------------|----------------------------|
B|----------------------------|----------------------------|
G|-9-x-x---------9-x-x--------|-6-x-x---------6-x-x--------|
D|-9-x-x--9-9-9--9-x-x--9-9-9-|-6-x-x--6-6-6--6-x-x--6-6-6-| x3
A|-7-x-x--9-9-9--7-x-x--9-9-9-|-4-x-x--6-6-6--4-x-x--6-6-6-|
E|--------7-7-7---------7-7-7-|--------4-4-4---------4-4-4-|

Post chorus 2
E|------------------------------------------|
B|------------------------------------------|
G|------------------------------------------|
D|-7-7-7-7-7-7-7-7-7-7--9-9-9-9-9-9-9-9-9-9-|
A|-7-7-7-7-7-7-7-7-7-7--9-9-9-9-9-9-9-9-9-9-|
E|-5-5-5-5-5-5-5-5-5-5--7-7-7-7-7-7-7-7-7-7-|

Bridge
E|----------------------------|----------------------------|
B|----------------------------|----------------------------|
G|-9-x-x---------9-x-x--------|-6-x-x---------6-x-x--------|
D|-9-x-x--9-9-9--9-x-x--9-9-9-|-6-x-x--6-6-6--6-x-x--6-6-6-| x8
A|-7-x-x--9-9-9--7-x-x--9-9-9-|-4-x-x--6-6-6--4-x-x--6-6-6-|
E|--------7-7-7---------7-7-7-|--------4-4-4---------4-4-4-|
PM * * *  * * *  * * *  * * *   * * *  * * *  * * *  * * *

Fill 1
E|---------------------|
B|---------------------|
G|-6-6-6-6-6-6-6-6-6-6-|
D|-6-6-6-6-6-6-6-6-6-6-|
A|-4-4-4-4-4-4-4-4-4-4-|
E|---------------------|

Post chorus
E|------------------------------------------|
B|------------------------------------------|
G|------------------------------------------|
D|-7-7-7-7-7-7-7-7-7-7--9-9-9-9-9-9-9-9-9-9-| x4
A|-7-7-7-7-7-7-7-7-7-7--9-9-9-9-9-9-9-9-9-9-|
E|-5-5-5-5-5-5-5-5-5-5--7-7-7-7-7-7-7-7-7-7-|

Chorus 2
E|----------------------------|----------------------------|
B|----------------------------|----------------------------|
G|-9-x-x---------9-x-x--------|-6-x-x---------6-x-x--------|
D|-9-x-x--9-9-9--9-x-x--9-9-9-|-6-x-x--6-6-6--6-x-x--6-6-6-| x7
A|-7-x-x--9-9-9--7-x-x--9-9-9-|-4-x-x--6-6-6--4-x-x--6-6-6-|
E|--------7-7-7---------7-7-7-|--------4-4-4---------4-4-4-|

Post chorus
E|------------------------------------------|
B|------------------------------------------|
G|------------------------------------------|
D|-7-7-7-7-7-7-7-7-7-7--9-9-9-9-9-9-9-9-9-9-| x3
A|-7-7-7-7-7-7-7-7-7-7--9-9-9-9-9-9-9-9-9-9-|
E|-5-5-5-5-5-5-5-5-5-5--7-7-7-7-7-7-7-7-7-7-|

End
E|----------------------------|----------------------------|
B|----------------------------|----------------------------|
G|-9-x-x---------9-x-x--------|-6-x-x---------6-x-x--------|
D|-9-x-x--9-9-9--9-x-x--9-9-9-|-6-x-x--6-6-6--6-x-x--6-6-6-| x12
A|-7-x-x--9-9-9--7-x-x--9-9-9-|-4-x-x--6-6-6--4-x-x--6-6-6-|
E|--------7-7-7---------7-7-7-|--------4-4-4---------4-4-4-|
PM * * *  * * *  * * *  * * *   * * *  * * *  * * *  * * *


(Verse)
Started at the age of 4
My mother went to the grocery store
Went sneaking through her bedroom door
To find something in a size 4

(Pre Chorus)
Sugar and spice and everything nice wasn't made for only girls
G.I Joe in panty hose is making room for the one and only

(Chorus)
King for a day, princess by dawn
King for a day, in a leather thong
King for a day, princess by dawn

(Post chorus)
Just wait 'till all the guys get a load of me.

(Verse)
My daddy threw me in therapy
He thinks I'm not a real man
Who put the drag in the drag queen?
Don’t knock it, until you’ve try it

(Pre Chorus)
Sugar and spice and everything nice wasn't made for only girls
G.I Joe in panty hose is making room for the one and only

(Chorus)
King for a day, princess by dawn
King for a day, in a leather thong
King for a day, princess by dawn

(Post Chorus)
Just wait 'till all the guys get a load of me.
England get those hands up in the air!

(Pre Chorus)
Sugar and spice and everything nice wasn't made for only girls
G.I Joe in panty hose is making room for the one and only

(Chorus)
King for a day, princess by dawn
King for a day, in a leather thong
King for a day, princess by dawn

King for a day, in a leather thong
King for a day, princess by dawn

King for a day, in a leather thong
King for a day, princess by dawn

(Post Chorus)
Just wait 'till all the guys...
Just wait 'till all the guys...
Just wait 'till all the guys...
Get a load of me
Thank you!

-------------------------------------------
Shout

Verse
 |Guitar 1
E|------------------------|------------------------|------------------------|
B|------------------------|------------------------|------------------------|
G|---99----99----66----66-|---99----99----66----66-|---99----99----66----66-|
D|-9-99--9-99--6-66--6-66-|-9-99--9-99--6-66--6-66-|-9-99--9-99--6-66--6-66-|
A|-9-77--9-77--6-44--6-44-|-9-77--9-77--6-44--6-44-|-9-77--9-77--6-44--6-44-|
E|-7-----7-----4-----4----|-7-----7-----4-----4----|-7-----7-----4-----4----|
PM *     *     *     *      *     *     *     *      *     *     *     *

E|----------------------------------------------------------------------|
B|----------------------------------------------------------------------|
G|---99----99---------(“you been------(“you been--------(“you been------|
D|-9-99--9-99--6--------so good---9~----so good----9~------so good---9~-|
A|-9-77--9-77--6--------to me”)---9~----to me”)----9~------to me”)---9~-|
E|-7-----7-----4------------------7~---------------7~----------------7~-|
PM *     *

Chorus (“you know you make me wanna...”)
 |Guitar 1
E|-------------------------|-------------------------|
B|-------------------------|-------------------------|
G|-9-----9------6-----6----|-9-----9------6-----6----| x5 but gradually
D|-9-99--9-99---6-66--6-66-|-9-99--9-99---6-66--6-66-| start to get quieter
A|-7-99--7-99---4-66--4-66-|-7-99--7-99---4-66--4-66-| on the 4th repeat
E|---77----77-----44----44-|---77----77-----44----44-|
PM * **  * **   * **  * **   * **  * **   * **  * **

Bridge (played really quiet)
E|-------------------------|-------------------------|
B|-------------------------|-------------------------|
G|-9-----9------6-----6----|-9-----9------6-----6----|
D|-9-99--9-99---6-66--6-66-|-9-99--9-99---6-66--6-66-| x10
A|-7-99--7-99---4-66--4-66-|-7-99--7-99---4-66--4-66-|
E|---77----77-----44----44-|---77----77-----44----44-|
   * **  * **   * **  * **   * **  * **   * **  * **

Chorus (“little bit louder now...”)
E|-------------------------|-------------------------|
B|-------------------------|-------------------------|
G|-9-----9------6-----6----|-9-----9------6-----6----| x8 but gradually
D|-9-99--9-99---6-66--6-66-|-9-99--9-99---6-66--6-66-| start to get louder
A|-7-99--7-99---4-66--4-66-|-7-99--7-99---4-66--4-66-| as you play
E|---77----77-----44----44-|---77----77-----44----44-|
   * **  * **   * **  * **   * **  * **   * **  * **
Break
E|-------------------------|-------------------------|
B|-------------------------|-------------------------|
G|-9-----9------6-----6----|-9-----9------6-----6----|
D|-9-99--9-99---6-66--6-66-|-9-99--9-99---6-66--6-66-| x7
A|-7-99--7-99---4-66--4-66-|-7-99--7-99---4-66--4-66-|
E|---77----77-----44----44-|---77----77-----44----44-|

(Then loads of drums, trumpets etc and in the mix you
 can here this towards the end of it

E|--------------------------------------------------------------------|
B|--------------------------------------------------------------------|
G|-6666666666666666-6666666666666666-6666666666666666-6666666666666666|
D|-xxxxxxxxxxxxxxxx-xxxxxxxxxxxxxxxx-xxxxxxxxxxxxxxxx-xxxxxxxxxxxxxxxx|
A|-4444444444444444-4444444444444444-4444444444444444-4444444444444444|
E|--------------------------------------------------------------------|

Then:

 |Guitar 1 (clean)
E|----------------------------------------------------------------------------------|
B|-9999-------9999-------9999-------9-9-----------9-9-----------9-9----------9-9----|
G|-9999-------9999-------9999-------9--9----------9--9----------9--9---------9--9---|
D|-9999-9999--9999-9999--9999-9999--9---9--9--9---9---9--9--9---9---9--9--9--9---9~-|
A|-7777-9999--7777-9999--7777-9999--7-----7--7----7-----7--7----7----7--7----7------|
E|------7777-------7777-------7777--------------------------------------------------|

End on a
 |Guitar 1
E|----|
B|-9~-|
G|-9~-|
D|-9~-|
A|-7~-|
E|----|

Lyrics

Now wait___ a minute, yeah, yeah, yeah, yeah, yeah, yeah, yeah, yeah

(Verse)
I want you to know, I want you to know now
You been so good, with a matter of myself
You been so good to me
You been so good to me
You been so good to me

(Chorus)
You know you make me wanna shout, kick my hands up and shout
Get my hands up and shout, get my hands up and shout
Get my hands up and yeah, yea, yeah yeah
Yeah, yea, yeah yeah
Yeah yey, yey, yey yeah
Yeah yey, yey, yey yeah

A little bit softer now
A little bit softer now
A little bit softer now
A little bit softer now
A little bit softer now
A little bit softer now
A little bit softer now
A little bit softer now
A little bit softer now

(Bridge)
A little bit softer now
A little bit softer now
A little bit softer now
Um bah, bah bah
Shu be do ba, bah bah
Shu be do ba, bah bah

Always look on the bright side of life
Always look on the bright side of life
Always look on the bright side of life
Say, yeah, yea, yeah yeah
yeah, yea, yeah yeah
Yeah yey, yey, yey yeah
Yeah yey, yey, yey yeah

(Chorus)
Little bit louder now
Little bit louder now
Little bit louder now
Little bit louder now
Little bit louder now
Little bit louder now
Little bit louder now
Little bit louder now
Little bit louder now
Little bit louder now
Little bit louder now
Little bit louder now
Jump and shout now
Jump and shout now
Jump and shout now
Jump and shout now

Go, go, go, go, go, go, go, go

Say, yeah, yea, yeah yeah
yeah, yea, yeah yeah
Yeah yey, yey, yey yeah
Yeah yey, yey, yey yeah
Yeah yey, yey, yey yeah

Shout, shout, shout, shout, shout, shout

(Break)

Oo! Oo!


-----------------------------------------------------------------------------------------
Green Day
Wake me up when September Ends

Guitar 1 –EADGBe –Billie Joe Armstrong
Guitar 2 –EADGBe –Jason White

Intro
 |Guitar 1 only
e|-------------------|-------------------|-------------------|------------------|
B|--------3--------3-|-------3---------3-|-------3---------3-|-------3--------3-|
G|-----0--------0----|-----0--------0----|-----0--------0----|-----0--------0---|
D|--5--------5-------|--5--------5-------|--5--------5-------|--5--------5------|
A|-------------------|-------------------|-------------------|------------------|
E|-------------------|-------------------|-------------------|------------------|

Verse
 |Guitar 1 only
e|--------------------|-----------------|----------------|----------------|
B|--------3-------3---|-------3-------3-|------3-------3-|------3------3--|
G|-----0--------0-----|----0-------0----|----0-------0---|----0------0----|
D|--5--------5--------|--4-------4------|--2-------2-----|--0------0------|
A|--------------------|-----------------|----------------|----------------|
E|--------------------|-----------------|----------------|----------------|

e|--------------------|-----------------|----------------|----------------|
B|------5--------5----|-----4-------4---|-----3------3---|-----3------3---|
G|------5--5-----5--5-|-----5-5-----5-5-|-----0-0----0-0-|-----0-0----0-0-|
D|---5----------------|---5-------------|---0------------|---0------------|
A|-3---------3--------|-3-------3-------|----------------|----------------|
E|--------------------|-----------------|-3-------3------|-3-------3------|

Verse part 2
 |Guitar 1
e|-------------------|-----------------|----------------|-----------------|
B|--------3-------3--|-------3-------3-|------3-------3-|-------3------3--|
G|-----0--------0----|----0-------0----|----0-------0---|-----0------0----|
D|--5--------5-------|--4-------4------|--2-------2-----|---0------0------|
A|-------------------|-----------------|----------------|-----------------|
E|-------------------|-----------------|----------------|-----------------|
 |Guitar 2
e|-------------------|-----------------|----------------|-----------------|
B|-20----------------|-19--------------|-17-------------|-15--------------|
G|-------------------|-----------------|----------------|-----------------|
D|-------------------|-----------------|----------------|-----------------|
A|-------------------|-----------------|----------------|-----------------|
E|-------------------|-----------------|----------------|-----------------|

 |Guitar 1
e|--------------------|-----------------|----------------|----------------|
B|------5--------5----|-----4-------4---|-----3------3---|-----3------3---|
G|------5--5-----5--5-|-----5-5-----5-5-|-----0-0----0-0-|-----0-0----0-0-|
D|---5----------------|---5-------------|---0------------|---0------------|
A|-3---------3--------|-3-------3-------|----------------|----------------|
E|--------------------|-----------------|-3-------3------|-3-------2------|
 |Guitar 2
e|--------------------|-----------------|---------------------------------|
B|-13-----------------|-16--------------|-20--------------(20)------------|
G|--------------------|-----------------|---------------------------------|
D|--------------------|-----------------|---------------------------------|
A|--------------------|-----------------|---------------------------------|
E|--------------------|-----------------|---------------------------------|

Chorus
 |Guitar 1
e|----------------|----------------|----------------|-------------------|
B|-----0------0---|-----3------3---|-----5------5---|-----3---------3-0-|
G|-----0-0----0---|-----4-4----4-4-|-----5-5----5-5-|-----0-0-------0---|
D|--------------0-|---4------------|---5------------|---0---------0-----|
A|---2------------|-2--------2-----|-3--------3-----|-------------------|
E|-0--------0-----|----------------|----------------|-3---------2-------|
 |Guitar 2
e|----------------|----------------|----------------|-------------------|
B|-17-------------|----------------|-17-------------|-15----------------|
G|----------------|-16-------------|----------17----|-------------------|
D|----------------|----------------|----------------|-------------------|
A|----------------|----------------|----------------|-------------------|
E|----------------|----------------|----------------|-------------------|

 |Guitar 1
e|----------------|----------------|----------------|-------------------|
B|-----0------0---|-----3------3---|-----5------5---|-----7------7------|
G|-----0-0----0---|-----4-4----4---|-----5-5----5--5|-----7-7----7--7-0-|
D|--------------0-|---4-----------4|---5------------|---7---------------|
A|---2------------|-2--------2-----|-3--------3-----|-5--------5--------|
E|-0--------0-----|----------------|----------------|-------------------|
 |Guitar 2
e|----------------|----------------|----------------|-------------------|
B|-17-------------|----------------|-17-------------|-15----------------|
G|----------------|-16-------------|----------17----|-------------------|
D|----------------|----------------|----------------|-------------------|
A|----------------|----------------|----------------|-------------------|
E|----------------|----------------|----------------|-------------------|

Verse 2
 |Guitar 1
e|-------------------|-----------------|----------------|-----------------|
B|--------3-------3--|-------3-------3-|------3-------3-|-------3------3--|
G|-----0--------0----|----0-------0----|----0-------0---|-----0------0----|
D|--5--------5-------|--4-------4------|--2-------2-----|---0------0------|
A|-------------------|-----------------|----------------|-----------------|
E|-------------------|-----------------|----------------|-----------------|
 |Guitar 2
e|-------------------|-----------------|----------------|-----------------|
B|-20----------------|-19--------------|-17-------------|-15--------------|
G|-------------------|-----------------|----------------|-----------------|
D|-------------------|-----------------|----------------|-----------------|
A|-------------------|-----------------|----------------|-----------------|
E|-------------------|-----------------|----------------|-----------------|

 |Guitar 1
e|--------------------|-----------------|----------------|----------------|
B|------5--------5----|-----4-------4---|-----3------3---|-----3------3---|
G|------5--5-----5--5-|-----5-5-----5-5-|-----0-0----0-0-|-----0-0----0-0-|
D|---5----------------|---5-------------|---0------------|---0------------|
A|-3---------3--------|-3-------3-------|----------------|----------------|
E|--------------------|-----------------|-3-------3------|-3-------3------|
 |Guitar 2
e|--------------------|-----------------|----------------|----------------|
B|-13-----------------|-16--------------|-20-------------|----------------|
G|--------------------|-----------------|----------------|----------------|
D|--------------------|-----------------|----------------|----------------|
A|--------------------|-----------------|----------------|----------------|
E|--------------------|-----------------|----------------|----------------|

Pre Verse 3
 |Guitar 1 (clean)
e|-------------------|-----------------|----------------|-----------------|
B|--------3-------3--|-------3-------3-|----------------|-----------------|
G|-----0--------0----|----0-------0----|----------------|-----------------|
D|--5--------5-------|--5-------5------|----------------|-----------------|
A|-------------------|-----------------|----------------|-----------------|
E|-------------------|-----------------|----------------|-----------------|
 |Guitar 2 (distortion)
e|-------------------|-----------------|----------------|-----------------|
B|-------------------|-----------------|------3-------3-|-------3------3--|
G|-------------------|-----------------|----0-------0---|-----0------0----|
D|-------------------|-----------------|--5-------5-----|---5------5------|
A|-------------------|-----------------|----------------|-----------------|
E|-------------------|-----------------|----------------|-----------------|

 |Guitar 1 (distortion)
e|-------------------|-----------------|
B|--8~~~-------------|--8~~~-----------|
G|--x----------------|--x~~~-----------|
D|--5~~~-------------|--5~~~-----------|
A|-------------------|-----------------|
E|-------------------|-----------------|
 |Guitar 2 (distortion)
e|-------------------|-----------------|
B|--------3-------3--|-------3-------3-|
G|-----0--------0----|----0-------0----|
D|--5--------5-------|--5-------5------|
A|-------------------|-----------------|
E|-------------------|-----------------|

Verse 3
 |Guitar 1
e|-------------------|-----------------|----------------|-----------------|
B|--8~~~-------------|--7~~~-----------|--5~~~----------|---3~~~----------|
G|--x----------------|--x--------------|--x-------------|---x-------------|
D|--5~~~-------------|--4~~~-----------|--2~~~----------|---0~~~----------|
A|-------------------|-----------------|----------------|-----------------|
 |Guitar 2
e|-------------------|-----------------|----------------|-----------------|
B|--------3-------3--|-------3-------3-|------3-------3-|-------3------3--|
G|-----0--------0----|----0-------0----|----0-------0---|-----0------0----|
D|--5--------5-------|--4-------4------|--2-------2-----|---0------0------|
A|-------------------|-----------------|----------------|-----------------|
E|-------------------|-----------------|----------------|-----------------|

 |Guitar 1
e|------------------------------|-----------------------------|
B|-5-5-5-5-5-5-5--4-4-4-4-4-4-4-|-----------------------------|
G|-5-5-5-5-5-5-5--5-5-5-5-5-5-5-|-----------------------------|
D|-5-5-5-5-5-5-5--5-5-5-5-5-5-5-|-5-5-5-5-5-5-5-5-5-5-5-5-5-5-|
A|-3-3-3-3-3-3-3--3-3-3-3-3-3-3-|-5-5-5-5-5-5-5-5-5-5-5-5-5-5-|
E|------------------------------|-3-3-3-3-3-3-3-3-3-3-3-3-3-3-|
 |Guitar 2
e|------------------------------|-----------------------------|
B|-5-5-5-5-5-5-5--4-4-4-4-4-4-4-|-----------------------------|
G|-5-5-5-5-5-5-5--5-5-5-5-5-5-5-|-----------------------------|
D|-5-5-5-5-5-5-5--5-5-5-5-5-5-5-|-5-5-5-5-5-5-5-5-5-5-5-5-5-5-|
A|-3-3-3-3-3-3-3--3-3-3-3-3-3-3-|-5-5-5-5-5-5-5-5-5-5-5-5-5-5-|
E|------------------------------|-3-3-3-3-3-3-3-3-3-3-3-3-3-3-|

Verse 3 part 2
 |Guitar 1
e|------------------------------------------------------------------------|
B|------------------------------------------------------------------------|
G|------------------------------------------------------------------------|
D|-----------------------------|Currently TACET|--------------------------|
A|------------------------------------------------------------------------|
E|------------------------------------------------------------------------|
 |Guitar 2
e|-------------------|-----------------|----------------|-----------------|
B|--------3-------3--|-------3-------3-|------3-------3-|-------3------3--|
G|-----0--------0----|----0-------0----|----0-------0---|-----0------0----|
D|--5--------5-------|--4-------4------|--2-------2-----|---0------0------|
A|-------------------|-----------------|----------------|-----------------|
E|-------------------|-----------------|----------------|-----------------|

 |Guitar 1
e|------------------------------|------------------------------|
B|-5-5-5-5-5-5-5--4-4-4-4-4-4-4-|------------------------------|
G|-5-5-5-5-5-5-5--5-5-5-5-5-5-5-|------------------------------|
D|-5-5-5-5-5-5-5--5-5-5-5-5-5-5-|-5-5-5-5-5-5-5-5-5-5----------|
A|-3-3-3-3-3-3-3--3-3-3-3-3-3-3-|-5-5-5-5-5-5-5-5-5-5--5-5-5-5-|
E|------------------------------|-3-3-3-3-3-3-3-3-3-3--2-2-2-2-|
 |Guitar 2
e|------------------------------|------------------------------|
B|-5-5-5-5-5-5-5--4-4-4-4-4-4-4-|------------------------------|
G|-5-5-5-5-5-5-5--5-5-5-5-5-5-5-|------------------------------|
D|-5-5-5-5-5-5-5--5-5-5-5-5-5-5-|-5-5-5-5-5-5-5-5-5-5----------|
A|-3-3-3-3-3-3-3--3-3-3-3-3-3-3-|-5-5-5-5-5-5-5-5-5-5--5-5-5-5-|
E|------------------------------|-3-3-3-3-3-3-3-3-3-3--2-2-2-2-|

Chorus 2
 |Both guitars
e|-----------------------------------------------------------------|
B|----------------4-4-4-4-4-4-4------------------------------------|
G|-0-0-0-0-0-0-0--4-4-4-4-4-4-4--5-5-5-5-5-5-5-5-------------------|
D|-2-2-2-2-2-2-2--4-4-4-4-4-4-4--5-5-5-5-5-5-5-5--5-5-5-5--4-4-4-4-|
A|-2-2-2-2-2-2-2--2-2-2-2-2-2-2--3-3-3-3-3-3-3-3--5-5-5-5--4-4-4-4-|
E|-0-0-0-0-0-0-0----------------------------------3-3-3-3--2-2-2-2-|

e|--------------------------------------------------------------|
B|----------------4-4-4-4-4-4-4---------------------------------|
G|-0-0-0-0-0-0-0--4-4-4-4-4-4-4--5-5-5-5-5-5-5--7-7-7-7-7-7-7-7-|
D|-2-2-2-2-2-2-2--4-4-4-4-4-4-4--5-5-5-5-5-5-5--7-7-7-7-7-7-7-7-|
A|-2-2-2-2-2-2-2--2-2-2-2-2-2-2--3-3-3-3-3-3-3--5-5-5-5-5-5-5-5-|
E|-0-0-0-0-0-0-0------------------------------------------------|

Verse 4
 |Guitar 1
e|------------------------------------------------------------------------|
B|------------------------------------------------------------------------|
G|------------------------------------------------------------------------|
D|-----------------------------|Currently TACET|--------------------------|
A|------------------------------------------------------------------------|
E|------------------------------------------------------------------------|
 |Guitar 2
e|-------------------|-----------------|----------------|-----------------|
B|--------3-------3--|-------3-------3-|------3-------3-|-------3------3--|
G|-----0--------0----|----0-------0----|----0-------0---|-----0------0----|
D|--5--------5-------|--4-------4------|--2-------2-----|---0------0------|
A|-------------------|-----------------|----------------|-----------------|
E|-------------------|-----------------|----------------|-----------------|

 |Guitar 1
e|------------------------------|------------------------------|
B|-5-5-5-5-5-5-5--4-4-4-4-4-4-4-|------------------------------|
G|-5-5-5-5-5-5-5--5-5-5-5-5-5-5-|------------------------------|
D|-5-5-5-5-5-5-5--5-5-5-5-5-5-5-|-5-5-5-5-5-5-5-5-5-5----------|
A|-3-3-3-3-3-3-3--3-3-3-3-3-3-3-|-5-5-5-5-5-5-5-5-5-5--5-5-5-5-|
E|------------------------------|-3-3-3-3-3-3-3-3-3-3--2-2-2-2-|
 |Guitar 2
e|------------------------------|------------------------------|
B|-5-5-5-5-5-5-5--4-4-4-4-4-4-4-|------------------------------|
G|-5-5-5-5-5-5-5--5-5-5-5-5-5-5-|------------------------------|
D|-5-5-5-5-5-5-5--5-5-5-5-5-5-5-|-5-5-5-5-5-5-5-5-5-5----------|
A|-3-3-3-3-3-3-3--3-3-3-3-3-3-3-|-5-5-5-5-5-5-5-5-5-5--5-5-5-5-|
E|------------------------------|-3-3-3-3-3-3-3-3-3-3--2-2-2-2-|

Solo
 |Guitar 1
e|-----7-----7---7|-----7-----7---7|-----8------8---8|-10----10---10-10-10-10-|
B|-8-8---8-8---8--|-7-7---7-7---7--|-8-8----8-8---8--|--8--8--8-8--7--7--7--7-|
G|----------------|----------------|-----------------|------------------------|
D|----------------|----------------|-----------------|------------------------|
A|----------------|----------------|-----------------|------------------------|
E|----------------|----------------|-----------------|------------------------|
 |Guitar 2
e|----------------------------------------------------------------------------|
B|------------------4-4-4-4-4-4-4-4-------------------------------------------|
G|-0-0-0-0-0-0-0-0--4-4-4-4-4-4-4-4--5-5-5-5-5-5-5-5--------------------------|
D|-2-2-2-2-2-2-2-2--4-4-4-4-4-4-4-4--5-5-5-5-5-5-5-5---5--5--5--5--4--4--4--4-|
A|-2-2-2-2-2-2-2-2--2-2-2-2-2-2-2-2--3-3-3-3-3-3-3-3---5--5--5--5--4--4--4--4-|
E|-0-0-0-0-0-0-0-0-------------------------------------3--3--3--3--2--2--2--2-|

 |Guitar 1
e|-----7-----7---7|-----7-----7---7|-----8------8---8|-10-10-10-10-10-10-10-10|
B|-8-8---8-8---8--|-7-7---7-7---7--|-8-8----8-8---8--|--8--8--8--8--8--8--8--8|
G|----------------|----------------|-----------------|------------------------|
D|----------------|----------------|-----------------|------------------------|
A|----------------|----------------|-----------------|------------------------|
E|----------------|----------------|-----------------|------------------------|
 |Guitar 2
e|----------------------------------------------------------------------------|
B|------------------4-4-4-4-4-4-4-4-------------------------------------------|
G|-0-0-0-0-0-0-0-0--4-4-4-4-4-4-4-4--5-5-5-5-5-5-5-5---5--5--5--5--5--5--5--5-|
D|-2-2-2-2-2-2-2-2--4-4-4-4-4-4-4-4--5-5-5-5-5-5-5-5---5--5--5--5--5--5--5--5-|
A|-2-2-2-2-2-2-2-2--2-2-2-2-2-2-2-2--3-3-3-3-3-3-3-3---3--3--3--3--3--3--3--3-|
E|-0-0-0-0-0-0-0-0------------------------------------------------------------|

 |Guitar 1
e|-10-10-10-10-10-10-10-10-|-10-10-10-10-10-10-10-10-|-10-10-10-10-10-10-10-10-|
B|--7--7--7--7--7--7--7--7-|--8--8--8--8--8--8--8--8-|--7--7--7--7--7--7--7--7-|
G|-------------------------|-------------------------|-------------------------|
D|-------------------------|-------------------------|-------------------------|
A|-------------------------|-------------------------|-------------------------|
E|-------------------------|-------------------------|-------------------------|
 |Guitar 2
e|-----------------------------------------------------------------------------|
B|-----------------------------------------------------------------------------|
G|--5--5--5--5--5--5--5--5----5--5--5--5--5--5--5--5---5--5--5--5--5--5--5--5--|
D|--5--5--5--5--5--5--5--5----5--5--5--5--5--5--5--5---5--5--5--5--5--5--5--5--|
A|--3--3--3--3--3--3--3--3----3--3--3--3--3--3--3--3---3--3--3--3--3--3--3--3--|
E|-----------------------------------------------------------------------------|

Post Solo
 |Guitar 2 only
e|----------------|-----------------|----------------|---------------|
B|-------3------3-|-------3-------3-|------3-------3-|------3------3-|
G|----0-------0---|----0-------0----|----0-------0---|----0------0---|
D|-5-------5------|--5-------5------|--5-------5-----|--5------5-----|
A|----------------|-----------------|----------------|---------------|
E|----------------|-----------------|----------------|---------------|

Pre Outro
 |Guitar 1
e|------------------------------------------------------------------------|
B|------------------------------------------------------------------------|
G|------------------------------------------------------------------------|
D|-----------------------------|Currently TACET|--------------------------|
A|------------------------------------------------------------------------|
E|------------------------------------------------------------------------|
 |Guitar 2
e|-------------------|-----------------|----------------|-----------------|
B|--------3-------3--|-------3-------3-|------3-------3-|-------3------3--|
G|-----0--------0----|----0-------0----|----0-------0---|-----0------0----|
D|--5--------5-------|--4-------4------|--2-------2-----|---0------0------|
A|-------------------|-----------------|----------------|-----------------|
E|-------------------|-----------------|----------------|-----------------|

 |Guitar 1
e|------------------------------|-----------------------------|
B|-5-5-5-5-5-5-5--4-4-4-4-4-4-4-|-----------------------------|
G|-5-5-5-5-5-5-5--5-5-5-5-5-5-5-|-----------------------------|
D|-5-5-5-5-5-5-5--5-5-5-5-5-5-5-|-5-5-5-5-5-5-5-5-5-5-5-5-5-5-|
A|-3-3-3-3-3-3-3--3-3-3-3-3-3-3-|-5-5-5-5-5-5-5-5-5-5-5-5-5-5-|
E|------------------------------|-3-3-3-3-3-3-3-3-3-3-3-3-3-3-|
 |Guitar 2
e|------------------------------|-----------------------------|
B|-5-5-5-5-5-5-5--4-4-4-4-4-4-4-|-----------------------------|
G|-5-5-5-5-5-5-5--5-5-5-5-5-5-5-|-----------------------------|
D|-5-5-5-5-5-5-5--5-5-5-5-5-5-5-|-5-5-5-5-5-5-5-5-5-5-5-5-5-5-|
A|-3-3-3-3-3-3-3--3-3-3-3-3-3-3-|-5-5-5-5-5-5-5-5-5-5-5-5-5-5-|
E|------------------------------|-3-3-3-3-3-3-3-3-3-3-3-3-3-3-|

 |Guitar 1
e|-------------------|-----------------|----------------|-----------------|
B|--------3-------3--|-------3-------3-|------3-------3-|-------3------3--|
G|-----0--------0----|----0-------0----|----0-------0---|-----0------0----|
D|--5--------5-------|--4-------4------|--2-------2-----|---0------0------|
A|-------------------|-----------------|----------------|-----------------|
E|-------------------|-----------------|----------------|-----------------|
 |Guitar 2
e|-------------------|-----------------|----------------|-----------------|
B|--------3-------3--|-------3-------3-|------3-------3-|-------3------3--|
G|-----0--------0----|----0-------0----|----0-------0---|-----0------0----|
D|--5--------5-------|--4-------4------|--2-------2-----|---0------0------|
A|-------------------|-----------------|----------------|-----------------|
E|-------------------|-----------------|----------------|-----------------|

 |Guitar 1
e|------------------------------|-----------------------------|
B|-5-5-5-5-5-5-5--4-4-4-4-4-4-4-|-----------------------------|
G|-5-5-5-5-5-5-5--5-5-5-5-5-5-5-|-----------------------------|
D|-5-5-5-5-5-5-5--5-5-5-5-5-5-5-|-5-5-5-5-5-5-5-5-5-5-5-5-5-5-|
A|-3-3-3-3-3-3-3--3-3-3-3-3-3-3-|-5-5-5-5-5-5-5-5-5-5-5-5-5-5-|
E|------------------------------|-3-3-3-3-3-3-3-3-3-3-3-3-3-3-|
 |Guitar 2
e|------------------------------|-----------------------------|
B|-5-5-5-5-5-5-5--4-4-4-4-4-4-4-|-----------------------------|
G|-5-5-5-5-5-5-5--5-5-5-5-5-5-5-|-----------------------------|
D|-5-5-5-5-5-5-5--5-5-5-5-5-5-5-|-5-5-5-5-5-5-5-5-5-5-5-5-5-5-|
A|-3-3-3-3-3-3-3--3-3-3-3-3-3-3-|-5-5-5-5-5-5-5-5-5-5-5-5-5-5-|
E|------------------------------|-3-3-3-3-3-3-3-3-3-3-3-3-3-3-|

 |Guitar 1
e|------------------------------|-----------------------------|
B|-5-5-5-5-5-5-5--4-4-4-4-4-4-4-|-----------------------------|
G|-5-5-5-5-5-5-5--5-5-5-5-5-5-5-|-----------------------------|
D|-5-5-5-5-5-5-5--5-5-5-5-5-5-5-|-5-5-5-5-5-5-5-5-5-5-5-5-5-5-|
A|-3-3-3-3-3-3-3--3-3-3-3-3-3-3-|-5-5-5-5-5-5-5-5-5-5-5-5-5-5-|
E|------------------------------|-3-3-3-3-3-3-3-3-3-3-3-3-3-3-|
 |Guitar 2
e|------------------------------|-----------------------------|
B|-5-5-5-5-5-5-5--4-4-4-4-4-4-4-|-----------------------------|
G|-5-5-5-5-5-5-5--5-5-5-5-5-5-5-|-----------------------------|
D|-5-5-5-5-5-5-5--5-5-5-5-5-5-5-|-5-5-5-5-5-5-5-5-5-5-5-5-5-5-|
A|-3-3-3-3-3-3-3--3-3-3-3-3-3-3-|-5-5-5-5-5-5-5-5-5-5-5-5-5-5-|
E|------------------------------|-3-3-3-3-3-3-3-3-3-3-3-3-3-3-|

 |Guitar 1
e|----------------------------------------------------|---------------------------------|
B|-5-5-5-5-5-5-5--4-4-4-4-4-4-4-----------------------|---------------------------------|
G|-5-5-5-5-5-5-5--5-5-5-5-5-5-5-----------------------|---------------------------------|
D|-5-5-5-5-5-5-5--5-5-5-5-5-5-5--5-5-5-5-5-5-5-5--5~~-|-5555555555555555555555555555555-|
A|-3-3-3-3-3-3-3--3-3-3-3-3-3-3--5-5-5-5-5-5-5-5--5~~-|-xxxxxxxxxxxxxxxxxxxxxxxxxxxxxxx-|
E|-------------------------------3-3-3-3-3-3-3-3--3~~-|-3333333333333333333333333333333-|
 |Guitar 2
e|----------------------------------------------------|
B|-5-5-5-5-5-5-5--4-4-4-4-4-4-4-----------------------|
G|-5-5-5-5-5-5-5--5-5-5-5-5-5-5-----------------------|
D|-5-5-5-5-5-5-5--5-5-5-5-5-5-5--5-5-5-5-5-5-5-5--5~~-|
A|-3-3-3-3-3-3-3--3-3-3-3-3-3-3--5-5-5-5-5-5-5-5--5~~-|
E|-------------------------------3-3-3-3-3-3-3-3--3~~-|

Outro
 |Guitar 1 only (clean)
e|-------------------------------------------------------0~~--|
B|-5-5-5-5-5-5-5--5-5-5-5-5-5-5--4-4-4-4-4-4-4-----4-----3~~--|
G|-5-5-5-5-5-5-5--5-5-5-5-5-5-5--5-5-5-5-5-5-5----5-5----0~~--|
D|-5-5-5-5-5-5-5--5-5-5-5-5-5-5--5-5-5-5-5-5-5---5---5---0~~--|
A|-3-3-3-3-3-3-3--3-3-3-3-3-3-3--3-3-3-3-3-3-3--3-----3--0~~--|
E|-------------------------------------------------------3~~--|


Lyrics

Nobody likes you
Everyone left you
There’ all out without you
Having fun

(Verse)
Summer has come and passed
The innocent can never last
Wake me up when September ends

(Verse part 2)
Like my fathers come to pass
Seven years has gone so fast
Wake me up when September ends

(Chorus)
Here comes the rain again
Falling from the stars
Drenched in my pain again
Becoming who we are

(Verse 2)
As my memory rests
But never forgets what I lost
Wake me up when September ends

(Verse 3)
Summer has come and passed
The innocent can never last
Wake me up when September ends

(Verse 3 part 2)
Ring out the bells again
Like we did when spring began
Wake me up when September ends

(Chorus 2)
Here comes the rain again
Falling from the stars
Drenched in my pain again
Becoming who we are

(Verse 4)
As my memory rests
But never forgets what I lost
Wake me up when September ends

(Solo)

(Post solo)
Summer has come and passed
The innocent can never last
Wake me up when September ends

(Pre Outro)
Like my fathers come to pass
Seven years has gone so fast
Wake me up when September ends
Wake me up when September Ends
Wake me up when September Ends
Wake me up when September Ends

-----------------------------------------------------------------------------------------
Green Day
Minority

Guitar 1 –EbAbDbGbBbe –Billie Joe Armstrong
Guitar 2 –EbAbDbGbBbe –Jason White


Intro
 |Guitar 1 (clean)
E|---------|---------|------0--|----------|----------|---------|-----------|
B|------1--|------3--|--1----1-|------1---|------1---|------3--|-----------|
G|---0---0-|---0---0-|----2----|--------0-|--------0-|---0---0-|-2-0---0---|
D|-----2---|----0----|-3-------|-0h2------|-0h2------|----0----|-3-2-0-2---|
A|--3------|---------|---------|-----3----|-----3----|---------|-------3---|
E|---------|-3-------|---------|----------|----------|-3-------|-----------|

Chorus
 |Both guitars
E|------------------------------------|------------------------------------|
B|------------------------------------|------------------------------------|
G|-5-5-5-5----------------------------|-5-5-5-5----------------------------|
D|-5-5-5-5--3-3-3-3--5-5-5-5--3-3-3-3-|-5-5-5-5--3-3-3-3--5-5-5-5--3-3-3-3-|
A|-3-3-3-3--3-3-3-3--5-5-5-5--3-3-3-3-|-3-3-3-3--3-3-3-3--5-5-5-5--3-3-3-3-|
E|----------1-1-1-1--3-3-3-3--1-1-1-1-|----------1-1-1-1--3-3-3-3--1-1-1-1-|

E|------------------------------------|------------------------------------|
B|------------------------------------|------------------------------------|
G|-5-5-5-5----------------------------|-5-5-5-5----------------------------|
D|-5-5-5-5--3-3-3-3--5-5-5-5--3-3-3-3-|-5-5-5-5--3-3-3-3--5-5-5-5--3-3-3-3-|
A|-3-3-3-3--3-3-3-3--5-5-5-5--3-3-3-3-|-3-3-3-3--3-3-3-3--5-5-5-5--3-3-3-3-|
E|----------1-1-1-1--3-3-3-3--1-1-1-1-|----------1-1-1-1--3-3-3-3--1-1-1-1-|

Verse
 |Guitar 2 only (clean)
E|-0-0-0--3-3-3-3--0-0-0--0-0-0-0--0-0-0-0--3-3-3-3--0-0-0-0--3-3-3-3-|
B|-1-1-1--3-3-3-3--1-1-1--1-1-1-1--1-1-1-1--3-3-3-3--1-1-1-1--3-3-3-3-|
G|-0-0-0--0-0-0-0--2-2-2--0-0-0-0--0-0-0-0--0-0-0-0--2-2-2-2--0-0-0-0-|
D|-2-2-2--0-0-0-0--3-3-3--2-2-2-2--2-2-2-2--0-0-0-0--3-3-3-3--0-0-0-0-|
A|-3-3-3--2-2-2-2---------3-3-3-3--3-3-3-3--2-2-2-2-----------2-2-2-2-|
E|--------3-3-3-3---------------------------3-3-3-3-----------3-3-3-3-|

E|-0-0-0--3-3-3-3--0-0-0--0-0-0-0--0-0-0-0--0-0-0-0--3-3-3-3--0--|
B|-1-1-1--3-3-3-3--1-1-1--1-1-1-1--1-1-1-1--1-1-1-1--3-3-3-3--1--|
G|-0-0-0--0-0-0-0--2-2-2--0-0-0-0--0-0-0-0--2-2-2-2--0-0-0-0--0--|
D|-2-2-2--0-0-0-0--3-3-3--2-2-2-2--2-2-2-2--3-3-3-3--0-0-0-0--2--|
A|-3-3-3--2-2-2-2---------3-3-3-3--3-3-3-3-----------2-2-2-2--3--|
E|--------3-3-3-3------------------------------------3-3-3-3-----|

Chorus 2
 |Both guitars
E|-----------------------------------------|------------------------------------|
B|-----------------------------------------|------------------------------------|
G|-xxx--5-5-5-5----------------------------|-5-5-5-5----------------------------|
D|-xxx--5-5-5-5--3-3-3-3--5-5-5-5--3-3-3-3-|-5-5-5-5--3-3-3-3--5-5-5-5--3-3-3-3-|
A|-xxx--3-3-3-3--3-3-3-3--5-5-5-5--3-3-3-3-|-3-3-3-3--3-3-3-3--5-5-5-5--3-3-3-3-|
E|---------------1-1-1-1--3-3-3-3--1-1-1-1-|----------1-1-1-1--3-3-3-3--1-1-1-1-|

E|------------------------------------|------------------------------------|
B|------------------------------------|------------------------------------|
G|-5-5-5-5----------------------------|-5-5-5-5----------------------------|
D|-5-5-5-5--3-3-3-3--5-5-5-5--3-3-3-3-|-5-5-5-5--3-3-3-3--5-5-5-5--3-3-3-3-|
A|-3-3-3-3--3-3-3-3--5-5-5-5--3-3-3-3-|-3-3-3-3--3-3-3-3--5-5-5-5--3-3-3-3-|
E|----------1-1-1-1--3-3-3-3--1-1-1-1-|----------1-1-1-1--3-3-3-3--1-1-1-1-|

Bridge
 |Both guitars
E|-----------------------------------|------------------------------|
B|-----------------------------------|------------------------------|
G|----------9--10101010--------------|------------------------------|
D|-7777777--9--10101010--10-10-10-10-|-7777777--2--3-3-3-3--5-5-5-5-|
A|-7777777--7---8-8-8-8--10-10-10-10-|-7777777--2--3-3-3-3--5-5-5-5-|
E|-5555555----------------8--8--8--8-|-5555555--0--1-1-1-1--3-3-3-3-|

E|--------------------------------------------------------------------|
B|--------------------------------------------------------------------|
G|----------9--10101010----------------------------------------------4|
D|-7777777--9--10101010--10101010--7777777--3--5-5-xxx-5-5-xxx-55-55-4|
A|-7777777--7---8-8-8-8--10101010--7777777--3--5-5-xxx-5-5-xxx-55555-2|
E|-5555555----------------8-8-8-8--5555555--1--3-3-xxx-3-3-xxx-33333--|

Verse 2
 |Guitar 2 only
E|-0-0-0--3-3-3-3--0-0-0--0-0-0-0--0-0-0-0--3-3-3-3--0-0-0-0--3-3-3-3-|
B|-1-1-1--3-3-3-3--1-1-1--1-1-1-1--1-1-1-1--3-3-3-3--1-1-1-1--3-3-3-3-|
G|-0-0-0--0-0-0-0--2-2-2--0-0-0-0--0-0-0-0--0-0-0-0--2-2-2-2--0-0-0-0-|
D|-2-2-2--0-0-0-0--3-3-3--2-2-2-2--2-2-2-2--0-0-0-0--3-3-3-3--0-0-0-0-|
A|-3-3-3--2-2-2-2---------3-3-3-3--3-3-3-3--2-2-2-2-----------2-2-2-2-|
E|--------3-3-3-3---------------------------3-3-3-3-----------3-3-3-3-|

E|-0-0-0--3-3-3-3--0-0-0--0-0-0-0--0-0-0-0--0-0-0-0--3-3-3-3--0--|
B|-1-1-1--3-3-3-3--1-1-1--1-1-1-1--1-1-1-1--1-1-1-1--3-3-3-3--1--|
G|-0-0-0--0-0-0-0--2-2-2--0-0-0-0--0-0-0-0--2-2-2-2--0-0-0-0--0--|
D|-2-2-2--0-0-0-0--3-3-3--2-2-2-2--2-2-2-2--3-3-3-3--0-0-0-0--2--|
A|-3-3-3--2-2-2-2---------3-3-3-3--3-3-3-3-----------2-2-2-2--3--|
E|--------3-3-3-3------------------------------------3-3-3-3-----|

Chorus 3
 |Both Guitars
E|-----------------------------------------|------------------------------------|
B|-----------------------------------------|------------------------------------|
G|-xxx--5-5-5-5----------------------------|-5-5-5-5----------------------------|
D|-xxx--5-5-5-5--3-3-3-3--5-5-5-5--3-3-3-3-|-5-5-5-5--3-3-3-3--5-5-5-5--3-3-3-3-|
A|-xxx--3-3-3-3--3-3-3-3--5-5-5-5--3-3-3-3-|-3-3-3-3--3-3-3-3--5-5-5-5--3-3-3-3-|
E|---------------1-1-1-1--3-3-3-3--1-1-1-1-|----------1-1-1-1--3-3-3-3--1-1-1-1-|

E|------------------------------------|------------------------------------|
B|------------------------------------|------------------------------------|
G|-5-5-5-5----------------------------|-5-5-5-5----------------------------|
D|-5-5-5-5--3-3-3-3--5-5-5-5--3-3-3-3-|-5-5-5-5--3-3-3-3--5-5-5-5--3-3-3-3-|
A|-3-3-3-3--3-3-3-3--5-5-5-5--3-3-3-3-|-3-3-3-3--3-3-3-3--5-5-5-5--3-3-3-3-|
E|----------1-1-1-1--3-3-3-3--1-1-1-1-|----------1-1-1-1--3-3-3-3--1-1-1-1-|

Bridge 2
 |Both guitars
E|-----------------------------------|------------------------------|
B|-----------------------------------|------------------------------|
G|----------9--10101010--------------|------------------------------|
D|-7777777--9--10101010--10-10-10-10-|-7777777--2--3-3-3-3--5-5-5-5-|
A|-7777777--7---8-8-8-8--10-10-10-10-|-7777777--2--3-3-3-3--5-5-5-5-|
E|-5555555----------------8--8--8--8-|-5555555--0--1-1-1-1--3-3-3-3-|

E|--------------------------------------------------------------------|
B|--------------------------------------------------------------------|
G|----------9--10101010----------------------------------------------4|
D|-7777777--9--10101010--10101010--7777777--3--5-5-xxx-5-5-xxx-55555-4|
A|-7777777--7---8-8-8-8--10101010--7777777--3--5-5-xxx-5-5-xxx-55555-2|
E|-5555555----------------8-8-8-8--5555555--1--3-3-xxx-3-3-xxx-33333--|

Big interlude
 |Guitar 2 only
E|-0-0-0--3-3-3-3--0-0-0--0-0-0-0--0-0-0-0--3-3-3-3--0-0-0-0--3-3-3-3-|
B|-1-1-1--3-3-3-3--1-1-1--1-1-1-1--1-1-1-1--3-3-3-3--1-1-1-1--3-3-3-3-|
G|-0-0-0--0-0-0-0--2-2-2--0-0-0-0--0-0-0-0--0-0-0-0--2-2-2-2--0-0-0-0-|
D|-2-2-2--0-0-0-0--3-3-3--2-2-2-2--2-2-2-2--0-0-0-0--3-3-3-3--0-0-0-0-| x12
A|-3-3-3--2-2-2-2---------3-3-3-3--3-3-3-3--2-2-2-2-----------2-2-2-2-|
E|--------3-3-3-3---------------------------3-3-3-3-----------3-3-3-3-|

(Tre now does a drum solo)

Chorus/pre Outro
 |Both Guitars
E|----------------------------------------------|------------------------------------|
B|----------------------------------------------|------------------------------------|
G|-xxxxxxxx--5-5-5-5----------------------------|-5-5-5-5----------------------------|
D|-xxxxxxxx--5-5-5-5--3-3-3-3--5-5-5-5--3-3-3-3-|-5-5-5-5--3-3-3-3--5-5-5-5--3-3-3-3-|
A|-xxxxxxxx--3-3-3-3--3-3-3-3--5-5-5-5--3-3-3-3-|-3-3-3-3--3-3-3-3--5-5-5-5--3-3-3-3-|
E|-xxxxxxxx-----------1-1-1-1--3-3-3-3--1-1-1-1-|----------1-1-1-1--3-3-3-3--1-1-1-1-|

E|------------------------------------|------------------------------------|
B|------------------------------------|------------------------------------|
G|-5-5-5-5----------------------------|-5-5-5-5----------------------------|
D|-5-5-5-5--3-3-3-3--5-5-5-5--3-3-3-3-|-5-5-5-5--3-3-3-3--5-5-5-5--3-3-3-3-|
A|-3-3-3-3--3-3-3-3--5-5-5-5--3-3-3-3-|-3-3-3-3--3-3-3-3--5-5-5-5--3-3-3-3-|
E|----------1-1-1-1--3-3-3-3--1-1-1-1-|----------1-1-1-1--3-3-3-3--1-1-1-1-|

(Rhythm changes here)
E|------------------------------------|------------------------------------|
B|------------------------------------|------------------------------------|
G|-5-5-5-5----------------------------|-5-5-5-5----------------------------|
D|-5-5-5-5--3-3-3-3--5-5-5-5--3-3-3-3-|-5-5-5-5--3-3-3-3--5-5-5-5--3-3-3-3-|
A|-3-3-3-3--3-3-3-3--5-5-5-5--3-3-3-3-|-3-3-3-3--3-3-3-3--5-5-5-5--3-3-3-3-|
E|----------1-1-1-1--3-3-3-3--1-1-1-1-|----------1-1-1-1--3-3-3-3--1-1-1-1-|

E|------------------------------------|------------------------------------|
B|------------------------------------|------------------------------------|
G|-5-5-5-5----------------------------|-5-5-5-5----------------------------|
D|-5-5-5-5--3-3-3-3--5-5-5-5--3-3-3-3-|-5-5-5-5--3-3-3-3--5-5-5-5--3-3-3-3-|
A|-3-3-3-3--3-3-3-3--5-5-5-5--3-3-3-3-|-3-3-3-3--3-3-3-3--5-5-5-5--3-3-3-3-|
E|----------1-1-1-1--3-3-3-3--1-1-1-1-|----------1-1-1-1--3-3-3-3--1-1-1-1-|

E|------------------------------------|------------------------------------|
B|------------------------------------|------------------------------------|
G|-5-5-5-5----------------------------|-5-5-5-5----------------------------|
D|-5-5-5-5--3-3-3-3--5-5-5-5--3-3-3-3-|-5-5-5-5--3-3-3-3--5-5-5-5--3-3-3-3-|
A|-3-3-3-3--3-3-3-3--5-5-5-5--3-3-3-3-|-3-3-3-3--3-3-3-3--5-5-5-5--3-3-3-3-|
E|----------1-1-1-1--3-3-3-3--1-1-1-1-|----------1-1-1-1--3-3-3-3--1-1-1-1-|

E|------------------------------------|---------------------------------------|
B|------------------------------------|---------------------------------------|
G|-5-5-5-5----------------------------|-5-5-5-5-------------------------------|
D|-5-5-5-5--3-3-3-3--5-5-5-5--3-3-3-3-|-5-5-5-5--3-3-3-3--5-5-5-5--3-3-3-3-3-3|
A|-3-3-3-3--3-3-3-3--5-5-5-5--3-3-3-3-|-3-3-3-3--3-3-3-3--5-5-5-5--3-3-3-3-3-3|
E|----------1-1-1-1--3-3-3-3--1-1-1-1-|----------1-1-1-1--3-3-3-3--1-1-1-1-1-1|

Outro
 |Guitar one only (clean)
E|---------|---------|------0--|----------|----------|---------|-----------|
B|------1--|------3--|--1----1-|------1---|------1---|------3--|-1-1---1---|
G|---0---0-|---0---0-|----2----|--------0-|--------0-|---0---0-|-2-0---0---|
D|-----2---|----0----|-3-------|-0h2------|-0h2------|----0----|-3-2-0-2---|
A|--3------|---------|---------|-----3----|-----3----|---------|-------3---|
E|---------|-3-------|---------|----------|----------|-3-------|-----------|


Lyrics
------

(Chorus)
I wanna be the minority
I don’t need your authority
Down with the moral of majority, cos
I wanna be the minority

(Verse)
I pledge, allegiance to the underworld
One nation under dog of which I stand-alone
A face in the crowd a song against the mould
With out a doubt single doubt the only way I know cos

(Chorus)
I wanna be the minority
I don’t need your authority
Down with the moral of majority, cos
I wanna be the minority

(Bridge)
Stepped out of the line, like a sheep runs from the herd
Marching out of time, to my own beat now!, the only way I know

(Verse)
One light, one mind flashing in the dark
Blinded by the silence of a thousand broken hearts
For crying out loud she screams unto me
A free for all fuck um’ all
You or your own sight, cos

(Chorus)
I wanna be the minority
I don’t need your authority
Down with the moral of majority, cos
I wanna be the minority

(Bridge)
Hey!

(Big interlude at the drum solo bit)
One light, one mind flashing in the dark
Blinded by the silence of a thousand broken hearts
For crying out loud she screams unto me
A free for all fuck um’ all
You or your own sight, cos

(Chorus/Pre Outro)
I wanna be the minority
I don’t need your authority
Down with the moral of majority, cos
I wanna be the minority

I wanna be the minority
I wanna be the minority
I wanna be the minority
I wanna be the minority, England!

I wanna be the minority
(one light, one mind, one light, one mind)

I wanna be the minority
(one light, one mind, one light, one mind)

I wanna be the minority
(hey, ho, hey ho, hey ho, hey ho)
cos’ I wanna be the minority!


-----------------------------------------------------------------------------------------
Green Day
Boulevard of Broken Dreams

Guitar 1                    –EADGBe –Billie Joe Armstrong
Guitar 2 (capo at fret one) –EADGBe –Jason White

Note: Billie Joe doesn’t play anything in the verses, Jason plays the rhythm part and
lead bit is pre recorded but for this tab I will say it is Billie Joe okay! (Cos its just
confusing otherwise)


Backing Track (capo at fret 1) (this is played throughout most of the song in the
use your whammy bar to bend each chord if you don’t have a whammy bar use some tremolo
If you don’t have tremolo effects than God bless you. If you want to play this song live 
pre-record this and play over the top of it with your two guitarists or if you have 3
then you’re in luck.

e|---------------------------|
B|---------------------------|
G|-9--9---12--12--7-7--------|
D|-9--9---12--12--7-7--7-7-7-|
A|-7--7---10--10--5-5--7-7-7-|
E|---------------------5-5-5-|
(With tremolo effect)

Verse
 |Guitar 1
E|-----------------------------------------------------------------------------|
B|-----------------------------------------------------------------------------|
G|--------------------|Currently Tacet|----------------------------------------|
D|-----------------------------------------------------------------------------|
A|-----------------------------------------------------------------------------|
E|-----------------------------------------------------------------------------|
 |Guitar 2   ‘I walk a lonely road’
e|-0--0-0-0--3--3-3-3--2--2-2-2--0---0--|-0--0-0-0--3--3-3-3--2--2-2-2--0---0--|
B|-0--0-0-0--3--3-3-3--3--3-3-3--2---2--|-0--0-0-0--3--3-3-3--3--3-3-3--2---2--|
G|-0--0-0-0--0--0-0-0--2--2-2-2--2---2--|-0--0-0-0--0--0-0-0--2--2-2-2--2---2--|
D|-2--2-2-2--0--0------0--0------2-2-2-2|-2--2-2-2--0--0------0--0------2-2-2-2|
A|-2--2------2--2----------------0-0-0-0|-2--2------2--2----------------0-0-0-0|
E|-0--0------3--3-----------------------|-0--0------3--3-----------------------|

 |Guitar 1
e|-----2--3-----/7--5------2h3----------|--------------------------------------|
B|--------------------------------------|--------------------------------------|
G|--------------------------------------|--------------------------------------|
D|--------------------------------------|--------------------------------------|
A|--------------------------------------|--------------------------------------|
E|--------------------------------------|--------------------------------------|
 |Guitar 2
e|-0--0-0-0--3--3-3-3--2--2-2-2--0---0--|-0--0-0-0--3--3-3-3--2--2-2-2--0---0--|
B|-0--0-0-0--3--3-3-3--3--3-3-3--2---2--|-0--0-0-0--3--3-3-3--3--3-3-3--2---2--|
G|-0--0-0-0--0--0-0-0--2--2-2-2--2---2--|-0--0-0-0--0--0-0-0--2--2-2-2--2---2--|
D|-2--2-2-2--0--0------0--0------2-2-2-2|-2--2-2-2--0--0------0--0------2-2-2-2|
A|-2--2------2--2----------------0-0-0-0|-2--2------2--2----------------0-0-0-0|
E|-0--0------3--3-----------------------|-0--0------3--3-----------------------|

 |Guitar 1
e|--------------------------------------|-----2--3-----/7--5------2h3--------|
B|--------------------------------------|------------------------------------|
G|--------------------------------------|------------------------------------|
D|--------------------------------------|------------------------------------|
A|--------------------------------------|------------------------------------|
E|--------------------------------------|------------------------------------|
 |Guitar 2   ‘Where the city sleeps’
e|-0--0-0-0--3--3-3-3--2--2-2-2--0---0--|-0--0-0-0--3--3-3-3--2--2-2-2--0---0--|
B|-0--0-0-0--3--3-3-3--3--3-3-3--2---2--|-0--0-0-0--3--3-3-3--3--3-3-3--2---2--|
G|-0--0-0-0--0--0-0-0--2--2-2-2--2---2--|-0--0-0-0--0--0-0-0--2--2-2-2--2---2--|
D|-2--2-2-2--0--0------0--0------2-2-2-2|-2--2-2-2--0--0------0--0------2-2-2-2|
A|-2--2------2--2----------------0-0-0-0|-2--2------2--2----------------0-0-0-0|
E|-0--0------3--3-----------------------|-0--0------3--3-----------------------|

 |Guitar 1
e|----2--3-----/7--5-----2h3--------------|
B|----------------------------------------|
G|-------------------------------2-2-2----|
D|-------------------------------2-2-2----|
A|-------------------------------0-0-0--2-|
E|----------------------------------------|
 |Guitar 2  ‘I walk alone I walk alone
           I walk alone I walk a-‘
e|-0--0-0-0--3--3-3-3--2--2-2-2-----------|
B|-0--0-0-0--3--3-3-3--3--3-3-3-----------|
G|-0--0-0-0--0--0-0-0--2--2-2-2--2-2-2----|
D|-2--2-2-2--0--0------0--0------2-2-2----|
A|-2--2------2--2----------------0-0-0--2-|
E|-0--0------3--3-------------------------|

Chorus
 |Both guitars
e|------------------------------------|------------------------------------|
B|------------------------------------|------------------------------------|
G|-6-6-6-6-----------8-8-8-8----------|-6-6-6-6-----------8-8-8-8----------|
D|-6-6-6-6--6-6-6-6--8-8-8-8--3-3-3-3-|-6-6-6-6--6-6-6-6--8-8-8-8--3-3-3-3-|
A|-4-4-4-4--6-6-6-6--6-6-6-6--3-3-3-3-|-4-4-4-4--6-6-6-6--6-6-6-6--3-3-3-3-|
E|----------4-4-4-4-----------1-1-1-1-|----------4-4-4-4-----------1-1-1-1-|

e|------------------------------------|------------------------------------|
B|------------------------------------|------------------------------------|
G|-6-6-6-6-----------8-8-8-8----------|-6-6-6-6-------------5-5-5-5---5----|
D|-6-6-6-6--6-6-6-6--8-8-8-8--3-3-3-3-|-6-6-6-6--6-6-6-6----5-5-5-5---5----|
A|-4-4-4-4--6-6-6-6--6-6-6-6--3-3-3-3-|-4-4-4-4--6-6-6-6----3-3-3-3---3----|
E|----------4-4-4-4-----------1-1-1-1-|----------4-4-4-4-------------------|

Post Chorus
 |Guitar 2 only  ‘ aha aha aha’
e|-0--0-0-0--3--3-3-3--2--2-2-2--0---0--|-0--0-0-0--3--3-3-3--2--2-2-2--0---0--|
B|-0--0-0-0--3--3-3-3--3--3-3-3--2---2--|-0--0-0-0--3--3-3-3--3--3-3-3--2---2--|
G|-0--0-0-0--0--0-0-0--2--2-2-2--2---2--|-0--0-0-0--0--0-0-0--2--2-2-2--2---2--|
D|-2--2-2-2--0--0------0--0------2-2-2-2|-2--2-2-2--0--0------0--0------2-2-2-2|
A|-2--2------2--2----------------0-0-0-0|-2--2------2--2----------------0-0-0-0|
E|-0--0------3--3-----------------------|-0--0------3--3-----------------------|

Verse 2
 |Guitar 1
E|-----------------------------------------------------------------------------|
B|-----------------------------------------------------------------------------|
G|--------------------|Currently Tacet|----------------------------------------|
D|-----------------------------------------------------------------------------|
A|-----------------------------------------------------------------------------|
E|-----------------------------------------------------------------------------|
 |Guitar 2   ‘I walk a lonely road’
e|-0--0-0-0--3--3-3-3--2--2-2-2--0---0--|-0--0-0-0--3--3-3-3--2--2-2-2--0---0--|
B|-0--0-0-0--3--3-3-3--3--3-3-3--2---2--|-0--0-0-0--3--3-3-3--3--3-3-3--2---2--|
G|-0--0-0-0--0--0-0-0--2--2-2-2--2---2--|-0--0-0-0--0--0-0-0--2--2-2-2--2---2--|
D|-2--2-2-2--0--0------0--0------2-2-2-2|-2--2-2-2--0--0------0--0------2-2-2-2|
A|-2--2------2--2----------------0-0-0-0|-2--2------2--2----------------0-0-0-0|
E|-0--0------3--3-----------------------|-0--0------3--3-----------------------|

 |Guitar 1
e|-----2--3-----/7--5------2h3----------|--------------------------------------|
B|--------------------------------------|--------------------------------------|
G|--------------------------------------|--------------------------------------|
D|--------------------------------------|--------------------------------------|
A|--------------------------------------|--------------------------------------|
E|--------------------------------------|--------------------------------------|
 |Guitar 2
e|-0--0-0-0--3--3-3-3--2--2-2-2--0---0--|-0--0-0-0--3--3-3-3--2--2-2-2--0---0--|
B|-0--0-0-0--3--3-3-3--3--3-3-3--2---2--|-0--0-0-0--3--3-3-3--3--3-3-3--2---2--|
G|-0--0-0-0--0--0-0-0--2--2-2-2--2---2--|-0--0-0-0--0--0-0-0--2--2-2-2--2---2--|
D|-2--2-2-2--0--0------0--0------2-2-2-2|-2--2-2-2--0--0------0--0------2-2-2-2|
A|-2--2------2--2----------------0-0-0-0|-2--2------2--2----------------0-0-0-0|
E|-0--0------3--3-----------------------|-0--0------3--3-----------------------|

 |Guitar 1
e|--------------------------------------|-----2--3-----/7--5------2h3--------|
B|--------------------------------------|------------------------------------|
G|--------------------------------------|------------------------------------|
D|--------------------------------------|------------------------------------|
A|--------------------------------------|------------------------------------|
E|--------------------------------------|------------------------------------|
 |Guitar 2   ‘Where the city sleeps’
e|-0--0-0-0--3--3-3-3--2--2-2-2--0---0--|-0--0-0-0--3--3-3-3--2--2-2-2--0---0--|
B|-0--0-0-0--3--3-3-3--3--3-3-3--2---2--|-0--0-0-0--3--3-3-3--3--3-3-3--2---2--|
G|-0--0-0-0--0--0-0-0--2--2-2-2--2---2--|-0--0-0-0--0--0-0-0--2--2-2-2--2---2--|
D|-2--2-2-2--0--0------0--0------2-2-2-2|-2--2-2-2--0--0------0--0------2-2-2-2|
A|-2--2------2--2----------------0-0-0-0|-2--2------2--2----------------0-0-0-0|
E|-0--0------3--3-----------------------|-0--0------3--3-----------------------|

 |Guitar 1
e|----2--3-----/7--5-----2h3--------------|
B|----------------------------------------|
G|-------------------------------2-2-2----|
D|-------------------------------2-2-2----|
A|-------------------------------0-0-0--2-|
E|----------------------------------------|
 |Guitar 2  ‘I walk alone I walk alone
           I walk alone I walk a-‘
e|-0--0-0-0--3--3-3-3--2--2-2-2-----------|
B|-0--0-0-0--3--3-3-3--3--3-3-3-----------|
G|-0--0-0-0--0--0-0-0--2--2-2-2--2-2-2----|
D|-2--2-2-2--0--0------0--0------2-2-2----|
A|-2--2------2--2----------------0-0-0--2-|
E|-0--0------3--3-------------------------|

Chorus 2
 |Both guitars
e|------------------------------------|------------------------------------|
B|------------------------------------|------------------------------------|
G|-6-6-6-6-----------8-8-8-8----------|-6-6-6-6-----------8-8-8-8----------|
D|-6-6-6-6--6-6-6-6--8-8-8-8--3-3-3-3-|-6-6-6-6--6-6-6-6--8-8-8-8--3-3-3-3-|
A|-4-4-4-4--6-6-6-6--6-6-6-6--3-3-3-3-|-4-4-4-4--6-6-6-6--6-6-6-6--3-3-3-3-|
E|----------4-4-4-4-----------1-1-1-1-|----------4-4-4-4-----------1-1-1-1-|

e|------------------------------------|------------------------------------|
B|------------------------------------|------------------------------------|
G|-6-6-6-6-----------8-8-8-8----------|-6-6-6-6-------------5-5-5-5---5----|
D|-6-6-6-6--6-6-6-6--8-8-8-8--3-3-3-3-|-6-6-6-6--6-6-6-6----5-5-5-5---5----|
A|-4-4-4-4--6-6-6-6--6-6-6-6--3-3-3-3-|-4-4-4-4--6-6-6-6----3-3-3-3---3----|
E|----------4-4-4-4-----------1-1-1-1-|----------4-4-4-4-------------------|


Post Chorus 2
 |Guitar 2 only   ‘ aha aha aha’
e|-0--0-0-0--3--3-3-3--2--2-2-2--0---0--|-0--0-0-0--3--3-3-3--2--2-2-2---------|
B|-0--0-0-0--3--3-3-3--3--3-3-3--2---2--|-0--0-0-0--3--3-3-3--3--3-3-3---------|
G|-0--0-0-0--0--0-0-0--2--2-2-2--2---2--|-0--0-0-0--0--0-0-0--2--2-2-2--2-2-2--|
D|-2--2-2-2--0--0------0--0------2-2-2-2|-2--2-2-2--0--0------0--0------2-2-2--|
A|-2--2------2--2----------------0-0-0-0|-2--2------2--2----------------0-0-0-2|
E|-0--0------3--3-----------------------|-0--0------3--3-----------------------|


Solo  (there are two tracks in the solo – they are tabbed separately below)
Guitar 2
e|-------------------------------------------------------------------------------|
B|-------------------------------------------------------------------------------|
G|12-11--12-12-12-12-12-12/16-16-14-14-14-14-14-14-11-11-12-12-12-12-12-12-12-12-|
D|-x--x---x--x--x--x--x--x--x--x--x--x--x--x--x--x--x--x--x--x--x--x--x--x--x--x-|
A|10--9--10-10-10-10-10-10/14-14-12-12-12-12-12-12--9--9-10-10-10-10-10-10-10-10-|
E|-------------------------------------------------------------------------------|

e|-----------------------------------------------------|------------------------|
B|-----------------------------------------------------|------------------------|
G|-12-12---9-9-9-9-11-11-12-12-12-12-12-12/16-16-14-14-|14-14-14-14-11-11-12-12-|
D|--x--x---x-x-x-x--x--x--x--x--x--x--x--x--x--x--x--x-|-x--x--x--x--x--x--x--x-|
A|-10-10---7-7-7-7--9--9-10-10-10-10-10-10/14-14-12-12-|12-12-12-12--9--9-10-10-|
E|-----------------------------------------------------|------------------------|

e|-------------------------|--------------------------------------------------|
B|-------------------------|--------------------------------------------------|
G|-12-12-12-12-12-12-12-12-|-14-14-14-14-11-11-12-12--12-12-12-12-12-12-12-12-|
D|--x--x--x--x--x--x--x--x-|--x--x--x--x--x--x--x--x---x--x--x--x--x--x--x--x-|
A|-10-10-10-10-10-10-10-10-|-12-12-12-12--9--9-10-10--10-10-10-10-10-10-10-10-|
E|-------------------------|--------------------------------------------------|

e|---------------------------------------------------------------------------|
B|---------------------------------------------------------------------------|
G|16-16-16-16-16-16-16-16-16-16-16-16-16-16-16-16-16-16-16-16-16-16-16-16-16-|
D|-x--x--x--x--x--x--x--x--x--x--x--x--x--x--x--x--x--x--x--x--x--x--x--x--x-|
A|14-14-14-14-14-14-14-14-14-14-14-14-14-14-14-14-14-14-14-14-14-14-14-14-14-|
E|---------------------------------------------------------------------------|

Guitar 1
e|------------------------------------|-----------------------------------------|
B|------------------------------------|-----------------------------------------|
G|-6-6-6-6-----------8-8-8-8----------|---6-6-6-6-------------8-8-8-8-----------|
D|-6-6-6-6--6-6-6-6--8-8-8-8--3-3-3-3-|---6-6-6-6---6-6-6-6---8-8-8-8---3-3-3-3-|
A|-4-4-4-4--6-6-6-6--6-6-6-6--3-3-3-3-|---4-4-4-4---6-6-6-6---6-6-6-6---3-3-3-3-|
E|----------4-4-4-4-----------1-1-1-1-|-------------4-4-4-4-------------1-1-1-1-|

e|------------------------------------|------------------------------------|
B|------------------------------------|------------------------------------|
G|-6-6---------------8-8-8-8----------|-6-6---------------5-5-5-5-5-5-5-5--|
D|-6-6------6-6------8-8-8-8--3-3-3-3-|-6-6------6-6------5-5-5-5-5-5-5-5--|
A|-4-4------6-6------6-6-6-6--3-3-3-3-|-4-4------6-6------3-3-3-3-3-3-3-3--|
E|----------4-4---------------1-1-1-1-|----------4-4-----------------------|

e|--------------|
B|--------------|
G|-5-5-5-5--5#--|
D|-5-5-5-5--5#--|
A|-3-3-3-3--3#--|
E|--------------|

Post Chorus
 |Guitar 2 only  (Acoustic moddellor)
e|-0--0-0-0--3--3-3-3--2--2-2-2--0---0--|-0--0-0-0--3--3-3-3--2--2-2-2--0---0--|
B|-0--0-0-0--3--3-3-3--3--3-3-3--2---2--|-0--0-0-0--3--3-3-3--3--3-3-3--2---2--|
G|-0--0-0-0--0--0-0-0--2--2-2-2--2---2--|-0--0-0-0--0--0-0-0--2--2-2-2--2---2--|
D|-2--2-2-2--0--0------0--0------2-2-2-2|-2--2-2-2--0--0------0--0------2-2-2-2|
A|-2--2------2--2----------------0-0-0-0|-2--2------2--2----------------0-0-0-0|
E|-0--0------3--3-----------------------|-0--0------3--3-----------------------|

e|-0--0-0-0--3--3-3-3--2--2-2-2--0---0--|-0--0-0-0--3--3-3-3--2--2-2-2---------|
B|-0--0-0-0--3--3-3-3--3--3-3-3--2---2--|-0--0-0-0--3--3-3-3--3--3-3-3---------|
G|-0--0-0-0--0--0-0-0--2--2-2-2--2---2--|-0--0-0-0--0--0-0-0--2--2-2-2--2-2-2--|
D|-2--2-2-2--0--0------0--0------2-2-2-2|-2--2-2-2--0--0------0--0------2-2-2--|
A|-2--2------2--2----------------0-0-0-0|-2--2------2--2----------------0-0-0-2|
E|-0--0------3--3-----------------------|-0--0------3--3-----------------------|

Pre Outro
 |Guitar 1
e|------------------------------------|------------------------------------|
B|------------------------------------|------------------------------------|
G|-6-6-6-6-----------8-8-8-8----------|-6-6-6-6-----------8-8-8-8----------|
D|-6-6-6-6--6-6-6-6--8-8-8-8--3-3-3-3-|-6-6-6-6--6-6-6-6--8-8-8-8--3-3-3-3-|
A|-4-4-4-4--6-6-6-6--6-6-6-6--3-3-3-3-|-4-4-4-4--6-6-6-6--6-6-6-6--3-3-3-3-|
E|----------4-4-4-4-----------1-1-1-1-|----------4-4-4-4-----------1-1-1-1-|
 |Guitar 2
e|------------------------------------|------------------------------------|
B|------------------------------------|------------------------------------|
G|-6-6-6-6-----------8-8-8-8----------|-6-6-6-6-----------8-8-8-8----------|
D|-6-6-6-6--6-6-6-6--8-8-8-8--3-3-3-3-|-6-6-6-6--6-6-6-6--8-8-8-8--3-3-3-3-|
A|-4-4-4-4--6-6-6-6--6-6-6-6--3-3-3-3-|-4-4-4-4--6-6-6-6--6-6-6-6--3-3-3-3-|
E|----------4-4-4-4-----------1-1-1-1-|----------4-4-4-4-----------1-1-1-1-|

 |Guitar 1
e|------------------------------------|------------------------------------|
B|------------------------------------|------------------------------------|
G|-6-6-6-6-----------8-8-8-8----------|-6-6-6-6-------------5-5-5-5--------|
D|-6-6-6-6--6-6-6-6--8-8-8-8--3-3-3-3-|-6-6-6-6--6-6-6-6----5-5-5-5--------|
A|-4-4-4-4--6-6-6-6--6-6-6-6--3-3-3-3-|-4-4-4-4--6-6-6-6----3-3-3-3--------|
E|----------4-4-4-4-----------1-1-1-1-|----------4-4-4-4-------------------|
 |Guitar 2
e|------------------------------------|------------------------------------------|
B|------------------------------------|------------------------------------------|
G|12-11--12-12-12-12-12-12/16-16-14-14|14-14-14-14-11-11-12-12-12-12-12-12-12-12-|
D|-x--x---x--x--x--x--x--x--x--x--x--x|-x--x--x--x--x--x--x--x--x--x--x--x--x--x-|
A|10--9--10-10-10-10-10-10/14-14-12-12|12-12-12-12--9--9-10-10-10-10-10-10-10-10-|
E|------------------------------------|------------------------------------------|

 |Guitar 1
e|------------------------------------|
B|------------------------------------|
G|-5-5-5-5-5-5-5-5-5-5-5-5-5-5-5-5-5--|
D|-5-5-5-5-5-5-5-5-5-5-5-5-5-5-5-5-5--|
A|-3-3-3-3-3-3-3-3-3-3-3-3-3-3-3-3-3--|
E|------------------------------------|
 |Guitar 2
e|------------------------------------|
B|------------------------------------|
G|-16-16-16-16-16-16-16-16-16-16-16-16|
D|--x--x--x--x--x--x--x--x--x--x--x--x|
A|-14-14-14-14-14-14-14-14-14-14-14-14|
E|------------------------------------|

Outro
 |Guitar 1
e|----------------------------------------|----------------------------------------|
B|----------------------------------------|----------------------------------------|
G|----------------------------------------|----------------------------------------|
D|----------------------------------------|----------------------------------------|
A|-------4-4-4--6-6-6--5-5-5--------------|-------4-4-4--6-6-6--5-5-5--------------|
E|-1-1-1---------------------4-4-4--0-0-0-|-1-1-1---------------------4-4-4--0-0-0-|
 |Guitar 2
e|----------------------------------------|----------------------------------------|
B|----------------------------------------|----------------------------------------|
G|----12-----------16---------11----------|----12-----------16---------11----------|
D|-----x--(x16)-----x--(x3)----x--(x3)----|-----x--(x16)-----x--(x4)----x--(x4)----|
A|----10-----------14----------9----------|----10-----------14----------9----------|
E|----------------------------------------|----------------------------------------|

 |Guitar 1
e|----------------------------------------|-------------------------------------|
B|----------------------------------------|-------------------------------------|
G|----------------------------------------|-------------------------------------|
D|----------------------------------------|-------------------------------------|
A|-------4-4-4--6-6-6--5-5-5--------------|-------4-4-4--6-6-6--5-5-5-----------|
E|-1-1-1---------------------4-4-4--0-0-0-|-1-1-1---------------------4-4--0-0--|
 |Guitar 2
e|----------------------------------------|----------------------------------------|
B|----------------------------------------|----------------------------------------|
G|----12-----------16---------11----------|----12-----------16---------11----------|
D|-----x--(x16)-----x--(x4)----x--(x4)----|-----x--(x16)-----x--(x2)----x--(x2)----|
A|----10-----------14----------9----------|----10-----------14----------9----------|
E|----------------------------------------|----------------------------------------|

Lyrics


I walk a lonely road
The only one I that have ever known
Don't know were it goes
But its home to me and I walk alone
I walk this empty street
On the boulevard of broken dreams
Where the city sleeps
And I'm the only one and I walk alone
I walk alone I walk alone
I walk alone I walk a


My shadows... only one that walks beside me
My shallow... hearts’ the only thing that's beating
Sometimes I wish someone out there will find me
Till then I'll walk alone


I'm walking down the line
That divides me somewhere in my mind
On the border line of the edge
And were I walk alone
Read between the lines
What’s fucked up and every things all right
Check my vital signs to know I'm still alive
And I walk alone
I walk alone I walk alone
I walk alone I walk a-


My shadows only one that walks beside me
My shallow hearts’ the only thing that's beating
Sometimes I wish someone out there will find me
Till then I'll walk alone


I walk this empty street
On the boulevard of broken dreams
Where the city sleeps
And I'm the only one and I walk a-


My shadows only one that walks beside me
My shallow hearts’ the only thing that's beating
Sometimes I wish someone out there will find me
Till then I'll walk alone

-----------------------------------------------------------------------------------------
Green Day
Good Riddance (Time of your Life)

Guitar 1 –EADGBe –Billie Joe Armstrong

Intro
 |Guitar 1
e|------3-----------3-----------3------------3-----|
B|--------3-----------3-----------3------------3---|
G|----------0-----------0-----------0-----2------2-|
D|---0-----------0-----------2----------0----------| x2
A|-------------------------3-----------------------|
E|-3-----------3-----------------------------------|
PM * *         * *         * *          * *

Verse 1
 |Guitar 1
e|------3-----------3-----------3------------3-----|
B|--------3-----------3-----------3------------3---|
G|----------0-----------0-----------0-----2------2-|
D|---0-----------0-----------2----------0----------| x2
A|-------------------------3-----------------------|
E|-3-----------3-----------------------------------|
PM * *         * *         * *          * *

e|------3------------3-----------3-----------3--------|
B|--------3------------3-----------3-----------3------|
G|----------0-----2------2-----------0-----------0----|
D|---2----------0-------------2-----------0-----------| x2
A|--------------------------3-------------------------|
E|-0—----------------------------------3--------------|
PM * *         * *         * *         *  *

Chorus 1
 |Guitar 1
e|------3-----------3-----------3-----------3------------3-----------3------|
B|--------3-----------3-----------3-----------3------------3-----------3----|
G|----------0-----------0-----------0-----------0------------0-----2-----2--|
D|---2-----------0-----------2-----------0------------2----------0----------|
A|--------------------------------------------------------------------------|
E|-0-----------3-----------0-----------3------------0-----------------------|
PM * *         * *         * *         * *          * *          * *

Post chorus
 |Guitar 1
e|-3-3-3-3-3-3-3-3-3-3--3-3-3-3-3-3--3-3-3-3-3-3-|
B|-3-3-3-3-3-3-3-3-3-3--3-3-3-3-3-3--3-3-3-3-3-3-|
G|-0-0-0-0-0-0-0-0-0-0--0-0-0-0-0-0--2-2-2-2-2-2-|
D|-0-0-0-0-0-0-0-0-0-0--2-2-2-2-2-2--0-0-0-0-0-0-| x2
A|-2-2-2-2-2-2-2-2-2-2--3-3-3-3-3-3--------------|
E|-3-3-3-3-3-3-3-3-3-3---------------------------|

Verse 2
 |Guitar 1
e|-3-3-3-3-3-3-3-3-3-3--3-3-3-3-3--3-3-3-3-3-3-3-|
B|-3-3-3-3-3-3-3-3-3-3--3-3-3-3-3--3-3-3-3-3-3-3-|
G|-0-0-0-0-0-0-0-0-0-0--0-0-0-0-0--2-2-2-2-2-2-2-|
D|-0-0-0-0-0-0-0-0-0-0--2-2-2-2-2--0-0-0-0-0-0-0-| x2
A|-2-2-2-2-2-2-2-2-2-2--3-3-3-3-3----------------|
E|-3-3-3-3-3-3-3-3-3-3---------------------------|
PM * * * * * * * * * *  * * * * *  * * * * *   *

e|----------2-2-2-2-2-2--0-0-0-0--3-3-3-3-3-3-|
B|----------3-3-3-3-3-3--1-1-1-1--3-3-3-3-3-3-|
G|-0-0-0-0--2-2-2-2-2-2--0-0-0-0--0-0-0-0-0-0-|
D|-2-2-2-2--0-0-0-0-0-0--2-2-2-2--0-0-0-0-0-0-| x2
A|-2-2-2-2---------------3-3-3-3--2-2-2-2-2-2-|
E|-0-0-0-0------------------------3-3-3-3-3-3-|
PM * * * *  * * * * * *  * * * *  * * * * * *

Chorus 2
e|----------3-3-3-3-3-3-----------3-3-3-3-3-3-----------2-2-2-2-2-2-|
B|----------3-3-3-3-3-3-----------3-3-3-3-3-3-----------3-3-3-3-3-3-|
G|-0-0-0-0--0-0-0-0-0-0--0-0-0-0--0-0-0-0-0-0--0-0-0-0--2-2-2-2-2-2-|
D|-2-2-2-2--0-0-0-0-0-0--2-2-2-2--0-0-0-0-0-0--2-2-2-2--0-0-0-0-0-0-|
A|-2-2-2-2--2-2-2-2-2-2--2-2-2-2--2-2-2-2-2-2--2-2-2-2--------------|
E|-0-0-0-0--3-3-3-3-3-3--0-0-0-0--3-3-3-3-3-3--0-0-0-0--------------|
   * * * *  * *   * * *  * * * *  * *   * * *  * * * *  * * *

Pre Interlude
 |Guitar 1
e|-3-3-3-3-3-3-3-3-3-3--3-3-3-3-3--2-2-2-2-2-2-2-|
B|-3-3-3-3-3-3-3-3-3-3--3-3-3-3-3--3-3-3-3-3-3-3-|
G|-0-0-0-0-0-0-0-0-0-0--0-0-0-0-0--2-2-2-2-2-2-2-|
D|-0-0-0-0-0-0-0-0-0-0--2-2-2-2-2--0-0-0-0-0-0-0-| x2
A|-2-2-2-2-2-2-2-2-2-2--3-3-3-3-3----------------|
E|-3-3-3-3-3-3-3-3-3-3---------------------------|

Interlude/solo
 |Guitar 1
e|-3-3-3-3-3-3-3-3-3-3-3--3-3-3-3-3-3-3--2-2-2-2--2----|
B|-3-3-3-3-3-3-3-3-3-3-3--3-3-3-3-3-3-3--3-3-3-3---3---|
G|-0-0-0-0-0-0-0-0-0-0-0--0-0-0-0-0-0-0--2-2-2-2----2--|
D|-0-0-0-0-0-0-0-0-0-0-0--2-2-2-2-2-2-2--0-0-0-0-0---0-|
A|-2-2-2-2-2-2-2-2-2-2-2--3-3-3-3---3-3----------------|
E|-3-3-3-3-3-3-3-3-3-3-3-------------------------------|
PM * * * * * * *   *      * * *     *    * * *

e|-3-3-3-3-3-3-3-3-3-3-3--3-3-3-3-3-3-3--2-2-2-2--2----|
B|-3-3-3-3-3-3-3-3-3-3-3--3-3-3-3-3-3-3--3-3-3-3---3---|
G|-0-0-0-0-0-0-0-0-0-0-0--0-0-0-0-0-0-0--2-2-2-2----2--|
D|-0-0-0-0-0-0-0-0-0-0-0--2-2-2-2-2-2-2--0-0-0-0-0---0-|
A|-2-2-2-2-2-2-2-2-2-2-2--3-3-3-3---3-3----------------|
E|-3-3-3-3-3-3-3-3-3-3-3-------------------------------|
PM * *   * *   *   *      * * *     *    * * *

Interlude (cont)
 |Guitar 1
e|---------0---------2-2-2-2-0--0---2-3-0-0-0-0--0--0-------3-3-----3-3-|
B|-----------0-------3-3-3-3--0--0--3-3-1-1-1-1---0--0------3-3-----3-3-|
G|-0-0-0-0-----0-----2-2-2-2--------2-2—0-0-0-0---------0-0-0-0-0-0-0-0-|
D|-2-2-2-2-------0---0-0-0-0--------0-0-2-2-2-2---------0-0-----0-0-----|
A|-2-2-2-2------------------------------3-3-3-3---------2-2-----2-2-----|
E|-0-0-0-0----------------------------------------------3-3-----3-3-----|
PM * * * *           * * * *        * * * * * *         * * * * * * * *

e|---------0---------2-2-2-2-0--0---2-3-0-0-0-0--0--0---3-3-3-3-3-3-3-3-|
B|-----------0-------3-3-3-3--0--0--3-3-1-1-1-1---0--0--3-3-3-3-3-3-3-3-|
G|-0-0-0-0-----0-----2-2-2-2--------2-2—0-0-0-0---------0-0-0-0-0-0-0-0-|
D|-2-2-2-2-------0---0-0-0-0--------0-0-2-2-2-2---------0-0-0-0-0-0-0-0-|
A|-2-2-2-2------------------------------3-3-3-3---------2-2-2-2-2-2-2-2-|
E|-0-0-0-0----------------------------------------------3-3-3-3-3-3-3-3-|
PM * * * *           * * * *        * * * * * *

Chorus 3
 |Guitar 1
e|----------3-3-3-3-3-3-----------3-3-3-3-3-3-----------2-2-2-2-2-2-|
B|----------3-3-3-3-3-3-----------3-3-3-3-3-3-----------3-3-3-3-3-3-|
G|-0-0-0-0--0-0-0-0-0-0--0-0-0-0--0-0-0-0-0-0--0-0-0-0--2-2-2-2-2-2-|
D|-2-2-2-2--0-0-0-0-0-0--2-2-2-2--0-0-0-0-0-0--2-2-2-2--0-0-0-0-0-0-|
A|-2-2-2-2--2-2-2-2-2-2--2-2-2-2--2-2-2-2-2-2--2-2-2-2--------------|
E|-0-0-0-0--3-3-3-3-3-3--0-0-0-0--3-3-3-3-3-3--0-0-0-0--------------|

Pre Outro
 |Guitar 1
e|-3-3-3-3-3-3-3-3-3-3--3-3-3-3-3--2-2-2-2-2-2-2-|
B|-3-3-3-3-3-3-3-3-3-3--3-3-3-3-3--3-3-3-3-3-3-3-|
G|-0-0-0-0-0-0-0-0-0-0--0-0-0-0-0—-2-2-2-2-2-2-2-|
D|-0-0-0-0-0-0-0-0-0-0--2-2-2-2-2--0-0-0-0-0-0-0-| x2
A|-2-2-2-2-2-2-2-2-2-2--3-3-3-3-3----------------|
E|-3-3-3-3-3-3-3-3-3-3---------------------------|

Outro
 |Guitar 1
e|-------------------------------------------------------2--|
B|-------------------------------------------------------3--|
G|-------------------------------------------------------2--|
D|-2----------0----------2----------0-----------2--------0--|
A|-x----------x----------x----------x-----------x-----------|
E|-0----------3----------0----------3-----------0-----------|

e|-----3----------3----------3----------3-----------3----------3-------|
B|-------3----------3----------3----------3-----------3----------3-----|
G|---------0----------0----------0----------0-----------0----------0---|
D|---2----------0----------2----------0-----------2----------0---------|
A|---------------------------------------------------------------------|
E|-0----------3----------0----------3-----------0----------3-----------|
PM *          *          *          *           *          *

e|------3--------3-----3~--|
B|--------3------3-----3~--|
G|----------0----2-----0~--|
D|---2-----------0-----0~--|
A|---------------------2~--|
E|-0-------------------3~--|

Lyrics

(Verse 1)
Another turning point
a fork stick in the road
Time grabs you be the wrist
Directs you where to go

So make the best of this test
And don’t ask why
Its not a question but
A lesson learned in time

(Chorus 1)
It’s something unpredictable
And in the end is right
I hope you had the time of your life

(Verse 2)
So take the photographs
And still frames in your mind
Hang it on a shelf
in good health and good time

Tattoos of memories
And dead skin on trial
For what its worth
It was worth all the while

(Chorus 2)
It’s something unpredictable
And in the end is right
I hope you had the time of your life

(Chorus 3)
It’s something unpredictable
And in the end is right
I hope you had the time of your life

(Outro)
It’s something unpredictable
And in the end is right
I hope you had the time of your life


There it is in full please rate and comment on this? This took me a lot less time than I
but was still difficult and I didn’t think that I could tab shout but what do you know; i
did! And there are bound to be typos in this massive document so if you spot any just bring
my attention to them, thanks. Hope you’ve had fun. If you want to suggestion any
or just wanna check in, email: guitar_rocker_47@hotmail.com. thanks
comments
print report bad tab
65 comments total. Showing first comments.
+1 reply
Muzar wrote on June 22 2006, 04:46 am

Awesome is so ****ing awesome! it's really great keep on tabbing.
little bit off but still really good

0 reply
ST. DIZZY! wrote on June 22 2006, 08:49 am

Well done man this is a great tab and its only got 1 mistake well done on basketcase! Frickin awsome!

0 reply
Zoso68 wrote on June 22 2006, 11:46 am

wow

I want to post or [tab]
guest
You may want to rate the tab now too:
select rating
Please do not post tabs as comments. Select "correction" instead!