Oops, an error
Loading. Please wait.

Dookie Bass Tab

25,412 views 90 this week
9 commentsread comments
1 2 3 4 5
accurate
x 13
add to favorites launch autoscroll
font size
0
reset
Autoscroll
+/-
esc
set tempo
stop
Contributor
WARNING: You are trying to view
                                    content from Ultimate-Guitar.com
                                    in an unauthorized application,
                                    which is prohibited.

                                    Please use an official Ultimate
                                    Guitar Tabs application for iPhone,
                                    iPad or Android to access legitimate
                                    chords, guitar, bass, and drum tabs
                                    from Ultimate-Guitar.com database.

                                    Type "ultimate guitar tabs" in Apple
                                    App Store's or Android Market's
                                    search to find the application.
Green Day Dookie bass album tab
Tabbed by Liam
Email: guitar_rocker_47@hotmail.com

Everybody seemed to like my Dookie guitar album tab, so I thought I'd have a go at
the bass album tab. Please leave comments (its always interesting to hear what you
have to say) and please rate this. Thanks guys!

Note: if you insert this tab into Microsoft word it looks weird where the tab overlaps
it's self, to fix this just go on file, page set-up then click on the margins tab and
adjust to this: top = 0.32cm, bottom = 0.51cm,Left and right = 3cm. The tab should now
look in proportion, if it doesn't or you don't understand leave a comment

1.Burnout
2.Having A Blast 
3.Chump 
4.Longview
5.Welcome To Paradise
6.Pulling Teeth
7.Basket Case
8.She
9.Sassafras Roots
10.When I Come Around
11.Coming Clean
12.Emenius Sleepus
13.In The End
14.F.O.D.

Hidden track all by myself

---------------------------------------------------------------------------------
Green Day Burnout
---------------------------------------------------------------------------------
Tuning: half a step down

Verse
G|------------------------------------------------------------------------------|
D|------------------------------------------------------------------------------|
A|---------3-3-3-3-3-----------3-3--------------------------5-5-5-5-5-5-5-5-5-5-|
E|-3-3-3-3------------3-3-3-3------1-1--3-3-3-3--1-1-1-1-1----------------------|

Chorus
G|------------------------------------------------------------------------------------|
D|------------------------------------------------------------------------------------|
A|-3-3-3-3-------------3-3-----------------3-3-3-3-3-3-------------5-5-5-5-5-5-5-5-5-5|
E|---------3-3-3-3-3-3-----1-1-3-3-3-3-3-3-------------1-1-1-1-1-1--------------------|

Fill 1
D|---------------------------------------------------------------------------|
G|---------------------------------------------------------------------------|
B|-5-5-5-5-5-5-5-5-5-5-5-5--5-5-5-5-5-5-5-5-5-5-5-5--5-5-5-5-5-5-5-5-5-5-5-5-|
E|---------------------------------------------------------------------------|

Bridge
D|-------------|
G|-------------|
B|-------------|
E|-5-5-x-1-1/3-|

Order

Verse x2
Chorus
Verse x2
Chorus x2
Fill 1 
Bridge x4
Chorus x2
Fill 1 
Bridge 

Lyrics

(Verse 1)
I declare I don't care no more
I'm burning up and out and growing bored
In my smoked out boring room			
My hair is shagging in my eyes
Dragging my feet to hit the street tonight
To drive along these shit town lights

(Chorus)
I'm not growing up
I'm just burning out				
And I've stepped in line
To walk amongst the dead

(Verse 2)
Apathy has rained on me
And now I'm feeling like a soggy dream
So close to drowning but I don't mind
I've lived inside this mental cave		
Throw my emotions in the grave
Hell, who needs them anyway?

(Chorus x2)
I'm not growing up
I'm just burning out	
And I've stepped in line
To walk amongst the dead

I'm not growing up
I'm just burning out	
And I've stepped in line
To walk amongst the dead........dead

(Bridge)

(Chorus x2)
I'm not growing up
I'm just burning out	
And I've stepped in line
To walk amongst the dead

I'm not growing up
I'm just burning out	
And I've stepped in line
To walk amongst the dead........dead

(Bridge)

----------------------------------------------------------------------------------------
Green Day Having a blast 
----------------------------------------------------------------------------------------
Tuning half a step down

Intro
E|---------------|-----------------|
B|---------------|-----------------|
G|---------------|-----------------|
D|-(first guitar-|-----------------|
A|--then)--------|-------------2---|
E|---------------|-3-3-3---3-3---3-|

Intro part 2
G|-------------------------------|-------------------------------|
D|-------------------------------|-------------------------------|
A|---------------------------2---|---------------------------2---|
E|-5-5-5-5---0---3-3-3---3-3---3-|-5-5-5-5---0---3-3-3---3-3---3-|

Verse
G|----------------------------|------------------------|------------------|
D|----------------------------|------------------------|------------------|
A|-0--0-0-0-0-0-0-0-0-0-0-0-0-|-0-0-0-0-0-0-0-0-0-0-0-0|-0-0-0-0--0-0-0-0-|
E|----------------------------|------------------------|------------------|
PM    **********************************************************

G|---------------------|-----------------|
D|---------------------|-----------------|
A|---------------------|-----------------|
E|-3-3-3-3-3-3-3-3-3-3-|-0-0-0-0-0-0-0-0-|

Chorus
G|--------------------------------------------------------------------------------|
D|--------------------------------------------------------------------------------|
A|-5-5-5-5-5-5-5-5-5-5-5-5--------------------------------------------------------|
E|-------------------------5-5-5-5-5-5-5-5-5-5-7-7-7-7-7-7-7-7-7--3-3-3-3-3-3-3-3-|

Interlude (# = stop note dead)
G|---------------------------------------------------------|
D|---------------------------------------------------------|
A|-7#-------------2#-------------7#-------------5-5--------|
E|-5#--2-2-2-2-2------0-0-0-0-0--5#--2-2-2-2-2-------5-5-0-|

Interlude part 2
G|--------------------------------------------------------------------------|
D|--------------------------------------------------------------------------|
A|---------5-5-5-5----------------------------------------------------------|
E|-2-2-2-2---------5-5-5-5-5-5-5-5-5-5--2-2-2-2--3-3-3-3--5-5-5--3/5--5-5-5-|

G|---------------------------------------------------------|
D|---------------------------------------------------------|
A|----------5-5-5-5----------------------------------------|
E|-2-2-2-2-----------5-5-5-5-5-5-5-5-5-5--2-2-2-2--3-3-3-3-|

Outro
G|-------------------------------|-------------------------------|
D|-------------------------------|-------------------------------|
A|---------------------------2---|---------------------------2---|
E|-5-5-5-5---0---3-3-3---3-3---3-|-5-5-5-5---0---3-3-3---3-3---3-|


G|-------------------------------|----------------------|
D|-------------------------------|----------------------|
A|---------------------------2---|----------------------|
E|-5-5-5-5---0---3-3-3---3-3---3-|-5-5-5-5---0---3~~~~--|

Order

Intro
Intro part 2
Verse x2
Chorus x2
Intro part 2 x2
Verse x2
Chorus
Intro part 2 x2
Interlude
Interlude part 2
Outro


(Lyrics)

(Verse 1)
I'm taking
All you down with me
Explosives duct-taped to my spine
Nothing's gonna change my mind
I won't listen					
To anyone's last words
There's nothing left for you to say
Soon you'll be dead anyway

(Chorus)
Well no one here
Is getting out alive
This time I've really lost my mind
And I don't care
So close your eyes				
And kiss yourself goodbye
And think about the times you spent
And what they've meant
To me it's nothing; to me it's nothing
To me it's nothing; to me it's nothing

(Verse 2)
I'm losing
All my happiness
The happiness you pinned on me
My loneliness still comforts me
My anger					
Dwells inside of me
I'm taking it all out on you
And all the shit you put me through

(Chorus)
Well no one here
Is getting out alive
This time I've really lost my mind
And I don't care
So close your eyes				
And kiss yourself goodbye
And think about the times you spent
And what they've meant
To me it's nothing, To me it's nothing
To me it's nothing, To me it's nothing

(Interlude)
Do you ever think back?
To another time					
Did it bring you so down
That you thought you lost your mind

(Interlude part 2)
Do you ever want to lead?
A long trail of destruction
And mow down any bullshit
That confronts you				
Do you ever build up
All the small things in your head
To make one problem
That adds up to nothing

(Outro)
To me it's nothing; to me it's nothing
To me it's nothing; to me it's nothing


----------------------------------------------------------------------------------------
Green Day Chump 
----------------------------------------------------------------------------------------
Tuning: standard

Intro
G|-----------------------|-----------------------|
D|-----------------------|-----------------------|
A|-2-2-2-x---------------|-2-2-2-x---------------|
E|----------4-4-4--0-0-0-|----------4-4-4--0-0-0-|

Verse
G|-----------------------|-----------------------|-----------------------|
D|-----------------------|-----------------------|-----------------------|
A|-2-2-2-x---------------|-2-2-2-x---------------|-2-2-2-x---------------|
E|----------4-4-4--0-0-0-|----------4-4-4--0-0-0-|----------4-4-4--0-0-0-|

G|---------------------|
D|---------------------|
A|---------------------|
E|-2-2-2-2-2-2-2-2-2-2-|

Chorus
G|------------------------------------|--------------------------------------|
D|------------------------------------|--------------------------------------|
A|-0-0-0-0-x----------2-2-2-2-2-2-2-2-|-0-0-0-0-x----------2-2-2-2--0-0-0-0--|
E|-----------0-0-0-0------------------|-----------0-0-0-0--------------------|

Bridge
G|-----------------------------|-----------------------------|
D|-----------------------------|-----------------------------|
A|-x-2-2-x-2-x-2-x-------0-0-0-|-x-2-2-x-2-x-2-x-------0-0-0-|
E|------------------4-4-x------|------------------4-4-x------|

Order

Intro
Verse x2
Chorus
Intro
Verse x2
Chorus
Intro x2
Bridge x14

(guitar riff (not tabbed) fades into Longview)


(Lyrics)

(Verse 1)
I don't know you
But I think I hate you
You're the reason for my misery		
Strange how you've become
My biggest enemy
And I've never seen your face

(Chorus)
Well maybe its just jealousy
Mixing up with a violent mind
A circumstance that			
Doesn't make much sense
Or maybe I'm just dumb

(Verse 2)
You're the cloud
Hangin' out over my head
Hail comes drenching down welting my face
Magic man, Egocentric plastic man
Yet you still got one over on me

(Chorus)
Well maybe its just jealousy
Mixing up with a violent mind
A circumstance that			
Doesn't make much sense
Or maybe I'm just dumb

(Intro)
I'm just dumb

(Bridge)

----------------------------------------------------------------------------------------
Green Day Longview
----------------------------------------------------------------------------------------
Tuning half a step down

Intro
G|------|
D|------|
A|-19/5-| (slide real slow)
E|------|

Verse
G|---------------------------------------9-7-6-7-|
D|------9-7-6-------7--6----------9-7-6--0-0-0-0-|
A|-5h7---------7p5-------5---9p7-----------------|
E|-----------------------------------------------|

Pre Chorus
G|--------------------------------------|
D|------9-7-6-------7--6----------9-7-6-|
A|-5h7---------7p5-------5---9p7--------|
E|--------------------------------------|

Pre Chorus
G|-------------------------|
D|-------------------------|
A|-5-5-5-5-5-5-5-5-5-5-5-5-|
E|-------------------------|

Chorus
G|----------------------------------|----------------------------------|
D|----------------------------------|----------------------------------|
A|--------------------------7-7-7-7-|--------------------------7-7-7-7-|
E|-7-7-7-7-7-7-7-7--5-5-5-5---------|-7-7-7-7-7-7-7-7--5-5-5-5---------|

G|----------------------------------|-----------------------------------|
D|----------------------------------|-----------------------------------|
A|--------------------------7-7-7-7-|-----------------------------------|
E|-7-7-7-7-7-7-7-7--5-5-5-5---------|-7-7-7-7-7-7-7-7--5-5-5-5--5-5-5-5-|

Fill 1 (played by Bass)
G|------7---------9----7--6-------|------7---------9----7--6-----------|
D|---------7--7h9---9--------9--7-|---------7--7h9---9--------9--7-----|
A|-9p7----------------------------|-9p7--------------------------------|
E|--------------------------------|------------------------------------|

Bridge ('ive got no motivation')
G|------------------|------------------|------------------|------------------|
D|------------------|------------------|------------------|------------------|
A|-7~--7-7--5-5-5-5-|-7~--7-7--5-5-5-5-|-7~--7-7--5-5-5-5-|-7~--7-7--5-5-5-5-|
E|------------------|------------------|------------------|------------------|

Pre Chorus 2
G|-----------------------------------------------|
D|-----------------------------------------------|
A|-5-5-5-5-5-5-5-5--5-5-5-5-5-5-5-5--5-5-5-5-5-5-|
E|-----------------------------------------------|

Chorus 2
G|----------------------------------|----------------------------------|
D|----------------------------------|----------------------------------|
A|--------------------------7-7-7-7-|--------------------------7-7-7-7-|
E|-7-7-7-7-7-7-7-7--5-5-5-5---------|-7-7-7-7-7-7-7-7--5-5-5-5---------|

G|----------------------------------|----------------------------------|
D|----------------------------------|----------------------------------|
A|--------------------------7-7-7-7-|--------------------------7-7-7-7-|
E|-7-7-7-7-7-7-7-7--5-5-5-5---------|-7-7-7-7-7-7-7-7--5-5-5-5---------|

Order

Verse x5
Pre Chorus
Chorus
Fill 1
Verse x3
Pre Chorus
Chorus
Bridge
Chorus
Fill 1 x4
Verse
Pre Chorus 2
Chorus 2
Chorus
Fill 1 x6



(Lyrics)

(Verse 1)
Sit around and watch the tube, nothing's on
Change the channel for an hour or two
Twiddle my thumbs just for a bit		
I'm sick of all the same old shit
In a house with unlocked doors
And I'm fuckin lazy

(Chorus)
Bite my lip and close my eyes
Take me away to paradise			
I'm so damn bored I'm goin blind
And I smell like shit

(Verse 2)
Peel me off this Velcro seat and get me movin'
I sure as hell can't do it by myself
I'm feelin like a dog in heat			
Barred indoors from a summer street
I locked the door to my own cell
And I lost the key

(Chorus)
Bite my lip and close my eyes
Take me away to paradise			
I'm so damn bored I'm goin blind
And I smell like shit 


(Bridge)
I got no motivation
Where is my motivation?			
No time for my motivation
Smokin' my inspiration

(Verse 3)
Sit around and watch the phone, no one's callin
Call me pathetic, call me what you will
My mother says to get a job			
But she don't like the one she's got
When masturbation's lost it's fun
You're fuckin lazy

(Pre chorus 2)
Sing....

(Chorus 2)
Bite my lip and close my eyes
Take me away to paradise
I'm so damn bored I'm goin blind
And none of this has to suffice			
Bite my lip and close my eyes
Oh slippin' away to paradise
Some say quit or I'll go blind
But it's just a myth

(Outro)


----------------------------------------------------------------------------------------
Green Day Welcome to Paradise
----------------------------------------------------------------------------------------
Tuning: Standard

Intro
G|----------------------------|----------------------------|
D|----------------------------|----------------------------|
A|-7-x-x-7-7-7--5-5-5---------|-7-x-x-7-7-7--5-5-5---------|
E|--------------------5-5-5-5-|--------------------5-5-5-5-|

Verse
G|-------------------------------------------|----------------------------|
D|-------------------------------------------|--------4h5---------4h5p4---|
A|-7-7-7-7--5-5-5-5-5-5--7-x-x-7-x-7-x-7-7-7-|-7-7-7------6-5-5-5-------5-|
E|-------------------------------------------|----------------------------|

G|-------------------------------------|
D|-------------------------------------|
A|-----------2-2-2-2-2-2---------------|
E|-3-3-3-3-x---------------------------|

Pre Chorus
G|-------------------------------------|
D|-------------------------------------|
A|-----------2-2-2-2-2-2-2-2-2-2-2-2---|
E|-3-3-3-3-x---------------------------|

Chorus
G|---------------------------------------|---------------------------------|
D|---------------------------------------|---------------------------------|
A|----------------------------3-3-3-3-3-3|------------------2-2-2-2-2-2-2-2|
E|0-0-0-0--3-3-3-3-3--5-5-5-5------------|0-0-0-0-3-3-3-3-3----------------|

G|---------------------------------------|---------------------------------|
D|---------------------------------------|---------------------------------|
A|----------------------------3-3-3-3-3-3|---------------------------------|
E|0-0-0-0--3-3-3-3-3--5-5-5-5------------|-3/-7-7-7-7-7-7--7---------------|

Interlude
G|---------|----------|---------|---------|
D|-----7h9-|-------9--|-----8---|-----7---|
A|-7-7-----|-10-10--10|-9-9---9-|-8-8---8-| x16
E|---------|----------|---------|---------|

G|------------------------------------------------|
D|-9-9-9-9--12-12-12-12--11-11-11-11--10-10-10-10-|
A|-7-7-7-7--10-10-10-10---9--9--9--9---8--8--8--8-| x4
E|------------------------------------------------|

Outro
G|----------------------------|---------------------------------|
D|----------------------------|---------------------------------|
A|-7-x-x-7-7-7--5-5-5---------|-7-x-x-7-7-7--5-5-5----------7#--|
E|--------------------5-5-5-5-|--------------------5-5-5-5------|


Order

Intro
Verse x2
Pre Chorus
Chorus
Intro
Verse x2
Pre Chorus
Chorus
Intro
Interlude
Verse x2
Pre Chorus
Chorus
Outro

Lyrics

(Verse)
Dear mother, can you hear me whining
It's been three whole weeks
Since that, I have left your home			
This sudden fear has left me trembling
Cos now it seems that I am
Out here on my own...

(Pre Chorus)
And I'm feeling so alone

(Chorus)
Pay attention to the cracked streets
And the broken homes
Some call it slums , some call it nice	
I wanna' take you through a wasteland
I like to call my home
Welcome to paradise

(Verse)
A gunshot rings out at the station
Another urchin snaps
And left dead on his own			
It makes me wonder why I'm still here
For some strange reason its now
Feeling like my home...

(Pre Chorus)
And I'm never gonna go

(Chorus)
Pay attention to the cracked streets
And the broken homes
Some call it slums, some call it nice	
I wanna' take you through a wasteland
I like to call my home
Welcome to paradise

(Bridge)

(Verse)
Dear mother, can you hear me laughing
It's been six whole months
Since I have left your home			
It makes me wonder why I'm still here
For some strange reason its now
Feeling like my home... 

(Pre Chorus)
And I'm never gonna go

(Chorus)
Pay attention to the cracked streets
And the broken homes
Some call it slums, some call it nice	
I wanna' take you through a wasteland
I like to call my home
Welcome to paradise

(Outro)
Oh paradise


----------------------------------------------------------------------------------------
Green Day Pulling Teeth                                                                  
----------------------------------------------------------------------------------------
Tuning: Standard

Intro                         | Part 2
G|----------------------------|--------------------------------|
D|----------------------------|--------------------------------|
A|-2-2-2-2-2-2-2-2--0-0-0-0-0-|-2-2-2-2-2-2-2-2--0-0-0-0-0--4--|
E|----------------------------|--------------------------------|

Verse
G|------------------------------------------------------------------|
D|------------------------------------------------------------------|
A|-7-7-7-7-7-------------7-7-7-7-7--2-2-2-2-2--7-7-7-7-7------------|
E|------------5-5-5-5-5-----------------------------------5-5-5-5-5-|

G|-------------------------|
D|-------------------------|
A|-7-7-7--2-2-2--7-7-7-7-7-|
E|-------------------------|

Chorus
G|---------------------------------------------------------------|
D|---------------------------------------------------------------|
A|-4-4--4-4--4-4--4-4--4-4--4-4--4-4--4-4--7-7-7-7-7--7-7-7-7-7--|
E|---------------------------------------------------------------|

G|-------------------------------------------------------------|
D|-------------------------------------------------------------|
A|-4-4-4-4-4-4-4-4-4-4-4-4-4-4-4-4--2-2-2-2-2-2-2-2-2-2-2-2-2-2|
E|-------------------------------------------------------------|

Outro
G|-----------------------------------------------------------------------------|
D|-----------------------------------------------------------------------------|
A|-7-7-7-7-7-------------7-7-7-7-7--2-2-2-2-2--7-7-7-7-7---------------2-0-2---|
E|------------5-5-5-5-5-----------------------------------5-5-5-5-5--0-------0-|


Order

Intro
Part 2 x3
Verse x2
Chorus 
Verse x2 (on second repeat guitar 2 plays the solo (not tabbed) in the background)
Chorus
Part 2 x7
Verse (let last note ring out)


(Lyrics)

(Verse)
I'm all busted up
Broken bones and nasty cuts		
Accidents will happen
But this time I can't get up
She comes to check on me
Making sure I'm on my knees		
After all, she's the one
Who put me in this state?

(Chorus)
Is she ultra-violent?
Is she disturbed?
I better tell her that I love her	
Before she does it all over again
Oh God, she's killing me

(Verse 3)
For now I'll lye around
Hell that's all I can really do		
She takes good care of me
Just keep saying my love is true

(Chorus)
Is she ultra-violent?
Is she disturbed?
I better tell her that I love her	
Before she does it all over again

(Part 2)
Lookin out my window
For someone that's passing by
No one knows I'm locked in here		
All I do is cry

(Verse)
For now I'll lye around
Hell that's all I can really do		
She takes good care of me
Just keep saying my love is true


----------------------------------------------------------------------------------------
Green Day Basket case 
----------------------------------------------------------------------------------------
Tuning Down half a step

Verse 1 (just guitar - no bass)
Chorus 1 (just guitar - no bass)

Post Chorus (0.36) & (1.23) & (2.20)
G|---------------------------------------------------------------------|
D|---------------------------------------------------------------------|
A|-7--5--5--x--4--4--4--4--4--4--4-------------------------------7--7--|
E|----------------------------------5--5--5-5-5-5-5--7-7—7-7-7-7-------|

Fill 1(0.45) (vibrato effects)
G|-------|
D|-9h10b-|
A|-------|
E|-------|

Verse 2 (0.48) & (1.45)
G|-----------------------------|-----------------------------------------------|
D|-----------------------------|-----------------------------------------------|
A|---------x-2-2-2-2-2-2-2-x-x-|-4-4-4-4-----------------0-0-0-0-0--x----------|
E|-0-0-0-0---------------------|---------x-4-4-4-4-4-4-4-------------0-0-0-0-0-|

G|---------------------|
D|---------------------|
A|-2-2-2-2-2-2-2-2-2-2-|
E|---------------------|

G|-----------------------------|-----------------------------------------------|
D|-----------------------------|-----------------------------------------------|
A|---------x-2-2-2-2-2-2-2-x-x-|-4-4-4-4-----------------0-0-0-0-0-x-----------|
E|-0-0-0-0---------------------|---------x-4-4-4-4-4-4-4-------------0-0-0-0-0-|

G|---------------------|
D|---------------------|
A|-2-2-2-2-2-2-2-2-2-2-|
E|---------------------|

Chorus 2 (1.09)
G|--------------------------------|-------------|----------------|
D|--------------------------------|--(guitar)---|----------------|
A|--------------------------------|----(bit)----|-------9h10\8b--|
E|-5-5-5-5--0--7-7-7-7-7-7-7--0-0-|-------------|----------------|

G|--------------------------------|-------------|----------------|
D|--------------------------------|--(guitar)---|----------------|
A|--------------------------------|----(bit)----|--- --9/10\8/9b-|
E|-5-5-5-5--0--7-7-7-7-7-7-7--0-0-|-------------|----------------|

G|--------------------------------|
D|--------------------------------|
A|--------------------------------|
E|-5-5-5-5--0--7-7-7-7-7-7-7--0-0-|

Bridge (1.40)
G|------------------|-----------------|-------------------|
D|------------------|-----------------|-------------------|
A|------------------|-----------------|-------------------|
E|-5--5-5-5-5-5-5-5-|-5-5-5-5-5-5-5-5-|-7-7-7-7-7-7-7-7-7-|
PM    *******************************

Fill 2 (2.11)
G|-----------|
D|-----------|
A|-9h10h11\9-|
E|-----------|

Fill 3 (2.17)
G|-----------|
D|-----------|
A|-9/10\8/9b-|
E|-----------|

Pre Outro (2.25)
G|-----------------------------------------------|
D|-----------------------------------------------|
A|-7-7-7-7-x-4-4-4-4--0-0-7-7-x------------------|
E|------------------------------7-7-7-7-7-7-7-7--|

G|-----------------------------------------------|
D|-----------------------------------------------|
A|-7-7-7-7-x-4-4-4-4--0-0-7-7-x------------------|
E|------------------------------7-7-7-7-7-7-7-7--|

G|-----------------------------------------------|
D|-----------------------------------------------|
A|-7-7-7-7-x-4-4-4-4--0-0-7-7-x------------------|
E|------------------------------7-7-7-7-7-7-7-7--|

Outro (2.42)
G|----------------------------|----------------------|
D|----------------------------|----------------------|
A|-7-7-7-7-x-4-4-4-4--0-0-7-7-|---7------------0---2-|
E|----------------------------|-5---7--16\7p0----0---|


Order

Verse (just guitar - no bass)
Chorus 1 (just guitar - no bass)
Post chorus
Fill 1
Verse 2
Chorus 2
Post chorus
Bridge
Verse 2 
Fill 2 (guitar plays their chorus 1 at the same time as bass plays this)
Fill 3 (guitar plays their chorus 1 at the same time as bass plays this)
Post Chorus
Pre Outro
Outro


(Lyrics)

(Verse)
Do you have the time, to listen to me whine?
About nothing and everything, all at once
I am one of those - Melodramatic fools
Neurotic to the bone - No doubt about it

(Chorus)
Sometimes I give myself the creeps
Sometimes my mind plays tricks on me
It all keeps adding up               

(Post chorus)
I think I'm crackin' up
Am I just paranoid?
Am I just stoned?

(Coda)

(Verse 2)
I went to a shrink - To analyse my dreams
She says it's lack of sex - That's bringing me down
I went to a whore - He said my life's a bore
So quit my whining - Cos' it's bringing her down

(Chorus 2)
Sometimes I give myself the creeps
Sometimes my mind plays tricks on me
It all keeps adding up               

(Post chorus)
I think I'm crackin' up
Am I just paranoid?
Am I just a ya ya yeah!

(Coda)
Oi, oi

(Bridge)
Grasping to control - so I better hold on

(Verse with no lyrics)

(Chorus)
Sometimes I give myself the creeps
Sometimes my mind plays tricks on me
It all keeps adding up  

(Post chorus)
I think I'm crackin' up
Am I just paranoid?
Am I just stoned?             

(Outro's)


----------------------------------------------------------------------------------------
Green Day She
----------------------------------------------------------------------------------------
Tuning standard 

Intro 
G|--------------------|--------------------|
D|--4-4-4-4-4-4-4-4-4-|--4-4-4-4-4-4-4-4-4-|
A|--------------------|--------------------|
E|--------------------|--------------------|

Verse
G|-----------------------------------------------------------------------|
D|-4-4-4-4-4-4-4-4-4/6---------------------------------4-4-4-4-4-4-4-4-4-|
A|---------------------4-4-4-4-4-4-4-4----2-2-2-2-2-2--------------------|
E|-------------------------------------4---------------------------------|

G|---------------------------------------------------------------|
D|-4-4-4-4-4-4-4-4-4/6----------------------------3h4--3h4--3h4--|
A|---------------------4-4-4-4-4-4-4-4----2-2-2-2-----2----2-----|
E|-------------------------------------4-------------------------|

Chorus
G|-------------------------------------|--------------------------------------|
D|-------------------------------------|--------------------------------------|
A|-4-4-4-4-4-4-4-4--2-2-2-2------------|-4-4-4-4-4-4-4-4--2-2-2-2-------------|
E|--------------------------2-2-2-2-2-2|---------------------------2-2-2-2-2-2|

G|--------------------|--------------------|------------------------------------|
D|--------------------|--------------------|------------------------------------|
A|-2-2-2-2------------|-2-2-2-2------------|-2-2-2-2-------------4-4-4-4-4-4-4-4|
E|---------2-2-2-2-2-2|---------2-2-2-2-2-2|---------2-2-2-2-2-2----------------|

Verse 2
G|----------------------------------------------------------------------------------|
D|----------------------------------------------------------------------------------|
A|---------------------4-4-4-4-4-4-4-4-4-4--2-2-2-2-2-2-2-2-2-2--2-2-2-2-2-2-2-2-2-2|
E|-2-2-2-2-2-2-2-2-2-2--------------------------------------------------------------|
PM   *****************   ******  *****   *    *********   *****    *****************

G|------------|---------------------------------------------------------------------|
D|------------|---------------------------------------------------------------------|
A|-----2------|--------------------4-4-4-4-4-4-4-4-4--2-2-2-2-2-2-2-2-2--2-2-2-2-2-2|
E|-2-2---2-2--|-2-2-2-2-2-2-2-2-2---------------------------------------------------|
PM ***   ***      *****   *****      *****   *****      *****   *****

G|---------------------------------|
D|---------------------------------|
A|-2-2-2-2-------2-2-x-------------|
E|-----------2-2-------2-2-2-2-2-2-|

Bridge
G|----------------------------------------------------------------------------------|
D|----------------------------------------------------------------------------------|
A|----------------------4-4-4-4-4-4-4-4-4-4--2-2-2-2-2-2-2-2-2-2-2-2-------2-2-x----|
E|-2-2-2-2-2-2-2-2-2-2------------------------------------------------2-2-----------|

G|-----------------|----------------------------------------------------------------|
D|-----------------|----------------------------------------------------------------|
A|-----------------|---------------------4-4-4-4-4-4-4-4-4-4--2-2-2-2-2-2-2-2-2-2-2-|
E|-2-2-2-2-2-2-2-2-|-2-2-2-2-2-2-2-2-2-2--------------------------------------------|

G|----------------------------|
D|----------------------------|
A|-----2-2-x------------------|
E|-2-2--------2-2-2-2-2-2-2-2-|

End
G|-----|
D|-----|
A|-----|
E|-2#--|

Order

Intro
Verse
Pre Chorus
Chorus
Verse 2
Chorus
Bridge
Chorus
End


Lyrics

(Verse)
She, she screams in silence
A sullen riot penetrating through her mind
Waiting for a time to smash the silence		
With a brick of self-control

(Chorus)
Are you locked up in a world that's been planned out for you?
Are you feeling like a social tool without a use?
Scream at me until my ears bleed
I'm taking it in just for you

(Verse 2)
She, she's figured out all her doubts
Were someone else's point of view		
Waking up this time to smash the silence
With a brick of self-control

(Chorus)
Are you locked up in a world that's been planned out for you?
Are you feeling like a social tool without a use?
Scream at me until my ears bleed
I'm taking it in just for you
Wwwwwwwaaaaaaahhhhhhhh!

(Bridge)

(Chorus)
Are you locked up in a world that's been planned out for you?
Are you feeling like a social tool without a use?
Scream at me until my ears bleed
I'm taking it in just for you

(Outro)

----------------------------------------------------------------------------------------
Green Day sassafras roots 
----------------------------------------------------------------------------------------
Tuning down half a step

Intro
G|----------------|
D|----------------|
A|-5~~------------|
E|------5~~--0~~--|

Verse
G|-------------------------------------------|
D|-------------------------------------------|
A|-----------7-5-4-5-5-5-5-5-----------------|
E|-5-5-5-5-5-----------------0-0-0-0-0-0-0-0-|

Chorus
G|------------------------------------------------------------------------|
D|------------------------------------------------------------------------|
A|-5-5-5-5-------------5-5-5-5--------------5~----------------------------|
E|---------0-0-0-0-0-0---------0-0-0-0-0-0-----5~--0-0-0-0-0-0-0-0-0-0-0-0|
PM 		                                ***********************

G|---------|
D|---------|
A|---------|
E|-0-0-0-0-|
PM *******

Bridge
G|--------------------------------------------------------------------|
D|--------------------------------------------------------------------|
A|-----------5-5-5-5-5-5------------5-5-5-5-5-5-----------5-5-5-5-5-5-|
E|-2-2-2-2-2--------------2-2-2-2-2-------------2-2-2-2-2-------------|

G|---------------------------------|
D|---------------------------------|
A|-7-7-7-7-7-7-7-7-7-7-7-7-7-7-7-7-|
E|---------------------------------|


Order

Intro
Verse x6
Chorus
Verse x6
Chorus
Verse x2
Bridge
Verse x2
Chorus x4


(Lyrics)

(Verse)
Roamin' round your house wasting your time
No obligation just wasting your time		
So why are you alone wasting your time?
When you could be with me wasting your time

(Chorus)
Well I'm a waste like you
With nothing else'l do				
May I waste your time too?

(Verse)
Wardin' off regrets wasting your time
Smoking cigarettes wasting your time		
I'm just a parasite wasting your time
Applying myself to wasting your time

(Chorus)
Well I'm a waste like you
With nothing else'l do				
May I waste your time too?

(Bridge)

(Verse)
So why are you alone wasting your time?		
When you could be with me wasting your time

 (Chorus)
Well I'm a waste like you
With nothing else'l do				
May I waste your time too?

May I waste your time too?
May I waste your time too?
May I waste your time too?



----------------------------------------------------------------------------------------
Green Day When I come around
----------------------------------------------------------------------------------------
Tuning: Standard

Intro 
G|--------------|----------------| 						
D|--------------|-3h4p3----------| 						
A|-(guitar bit)-|--------6-6-----|						
E|--------------|----------------| 				
							
Verse 									
G|-----3h4p3--3------------------------------------|					
D|-4-4----------4-------3h4p3--3-----1-1-1---------|					
A|------------------4-4----------4---------2~--2-2-|				
E|-------------------------------------------------|				
							
Chorus
G|-----------------------------2h3p2-|-----------------------4p3-|
D|-----------------------------------|---------------------------|
A|-----------------2-2-2-2-2-2-------|-----------------2---------|
E|-4-4-4-4-4-4-4-4-------------------|-4-4-4-4-4-4-4-4-----------|
						
Outro							
G|-----3h4p3--3--------------------------------|
D|-4-4----------4-------3h4p3--3-----1-1-1-----|
A|------------------4-4----------4---------2~--|
E|---------------------------------------------|
 				
Order
     							
Intro
Verse x10
Chorus
Verse x10
Chorus
Verse x2
Verse x2 (guitar solo being played here also)
Chorus
Verse x3
Outro							

(Lyrics)

(Verse)
I heard you crying loud - All the way across town
To be been searchin' for that someone
And it's me out of the prowl
As you sit around feeling sorry for yourself
So don't get lonely now and dry your whining eyes
I'm just roaming for the moment sleazin my backyard so don't get
So uptight you've been thinkin about ditching me

(Chorus)
No time to search the world around
Cos' you know where I'll be found        
When I come around

(Verse)	
I heard it all before - So don't knock down my door
I'm a loser, and a user - So I don't need no accuser
To try and slag me down because I know you're right
So go do what you like, make sure you do it wise
You may find out that your self-doubt means nothing was ever there
You can't go forcing something if it's just not right

(Chorus)
No time to search the world around
Cuz you know where I'll be found        
When I come around



(Chorus)
No time to search the world around
Cuz you know where I'll be found        
When I come around

(Verse)
When I come around
When I come around
When I come around

(Outro)

----------------------------------------------------------------------------------------
Green Day Coming Clean
----------------------------------------------------------------------------------------
Tuning: Standard

Intro
G|-----------|
D|-----------|
A|-----------|
E|-6~~---3~~-|

Verse 
G|--------------------------------------|
D|--------------------------------------|
A|-2-x-2-x-2-2-2-2-2--------------------|
E|--------------------4-x-4-x-4-4-4-4-4-|

Chorus
G|------------------------------------------------------------------| 
D|------------------------------------------------------------------|
A|------------------------------------------------------------------|
E|-2-2-2-2-2-2-2-2-2-2-2-2-2-2-2-2--0-0-0-0-0-0-0-0-0-0-0-0-0-0-0-0-|

Outro
G|----------|
D|----------|
A|----------|
E|-6~~---3#-|

Order

Intro
Verse
Chorus x2
Verse x2
Chorus x2
Verse
Chorus x2
Verse x2
Chorus x2


(Lyrics)

(Verse 1)
Seventeen and strung out on confusion
Trapped inside a roll of disillusion		

(Chorus)
I found out what it takes to be a man
Well Mom and Dad will never understand

(Verse 2)
Secrets collecting dust but never forget
Skeletons come to life in my closet		

(Chorus)
I found out what it takes to be a man
Well Mom and Dad will never understand - What's happening to me

(Verse and chorus = bridge behind them both)

(Verse 3)
Seventeen and coming clean for the first time
I finally figured out myself for the first time

(Chorus)
I found out what it takes to be a man
Well Mom and Dad will never understand - What's happening to me




----------------------------------------------------------------------------------------
Green Day Emenius Sleepus
----------------------------------------------------------------------------------------
Tuning standard 

Intro/Verse
G|---------------|---------------|-------------------------------|
D|---------------|---------------|-------------------------------|
A|-2-2-2---------|-2-2-2---------|-2-2-2----------0-0-0----------|
E|-------0-0-0-0-|-------0-0-0-0-|-------0-0-0-0---------2-2-2-2-|

Chorus
G|------------------------|
D|------------------------|
A|------------------------|
E|-0-0-0-0-0--2-2-2-2-2-2-|

Bridge 
G|----------------------------------------------------------------------|
D|----------------------------------------------------------------------|
A|-2-2------2-2------2-2------2-2------2-2-2-2-0-0-0-0--2-2-2-2-0-0-0-0-|
E|-----0-0------0-0------0-0------0-0-----------------------------------|

Bridge part 2
G|------------------------------------------------------|
D|------------------------------------------------------|
A|-2-2------2-2------2-2------2-2-------------------2---|
E|-----0-0------0-0------0-0------0-0---2~~~----2-2---2-|

End
G|------|
D|------|
A|------|
E|--5---|

Order

Intro/Verse x3
Chorus x3
Intro/Verse x3
Chorus x3
Intro/Verse x2
Bridge x3
Bridge 2 
Chorus x3
Intro/Verse x2
End


(Lyrics)

(Verse)
I saw my friend the other day - And I don't know			
Exactly just what he became, it doesn't show

(Chorus)
It wasn't long ago
That I was just like you
And now I think I'm sick		
And I wanna' go home

(Verse)
How have I been, how have you been? - It's been so long			
What have you done with all your time? - And what went wrong?

(Chorus)
I knew you back when
And you, you knew me			
And now I think you're sick
And I wanna' go home

(Bridge)
Anybody ever say no?
Ever tell you that you weren't right?
Where did all the little kid go?	
Did you lose it in a hateful fight?
And you know it's true

(Chorus)
It wasn't long ago
That I was just like you
And now I think I'm sick		
And I wanna' go home


----------------------------------------------------------------------------------------
Green Day In The End  
----------------------------------------------------------------------------------------
Tuning: half a step down
Note: the rhythm on this song is strange but you'll pick it up if you listen to the CD

Verse
G|-----------------------------------------------------------------------|
D|-----------------------------------------------------------------------|
A|-----------------------------------------------------------------------|
E|-5-5-5-5--3-3-3-3--5-5-5-5--3-3-3-3--5-5-5-5--3-3-3-3--5-5-5-5--3-3-3-3|

G|-----------------------------------------------------------------------|
D|-----------------------------------------------------------------------|
A|-----------------------------------------------------------------------|
E|-5-5-5-5--3-3-3-3--5-5-5-5--3-3-3-3--5-5-5-5--3-3-3-3--5-5-5-5-5-5-5-5-|

Chorus
G|-----------------------------------------------------------------------|
D|-----------------------------------------------------------------------|
A|-5-5-5-5-5-5-5-5--7-7-7-7-7-7-7-7--------------------------------------|
E|-----------------------------------5-5-5-5--2-2-2-2--2--5-5-5-5-5-5-5-5|

Chorus part 2
G|------------------------------------|
D|------------------------------------|
A|------------------------------------|
E|-5-5-5-5--3-3-3-3--5-5-5-5--3-3-3-3-|

Interlude 
G|------------------|------------------|
D|------------------|------------------|
A|----4--------5----|----4--------5----|
E|--5---5----3---3--|--5---5----3---3--|

Order

Verse
Chorus
Chorus part 2
Verse
Chorus
Chorus part 2 x2
Interlude x8
Chorus
Chorus part 2 x2


(Lyrics)

(Verse)
All brawn and no brains and all those nice things
You finally got what you want		
Someone to look good with and light your cigarette
Is this what you really want?

(Chorus)
I figured out
What you're all about
And I don't think I like what I see
So____				

(Chorus part 2)
I hope I won't be there
In the end if you come around

(Verse)
How long will he last before he's a creep in the past?
And you're alone once again		
Will you pop up again and be my special friend
Til' the end, and when will that be?

(Chorus)
I figured out
What you're all about
And I don't think I like what I see
So____				

(Chorus part 2)
I hope I won't be there
In the end if you come around

(Interlude)
Huh

(Chorus)
I figured out
What you're all about
And I don't think I like what I see
So____				

(Chorus part 2)
I hope I won't be there
In the end if you come around
	
				
----------------------------------------------------------------------------------------
Green Day F.O.D
----------------------------------------------------------------------------------------
Tuning: half a step down

(all played by acoustic guitar - no bass until 1.36)

Interlude
G|-------------------------|
D|-------------------------|
A|-5-5-x-------5-5-x-------|
E|-------5-5-5-------3-3-3-|

Chorus
G|---------------------------------------------------------------------------|
D|---------------------------------------------------------------------------|
A|-7-7-7-7------------5-5-5-5---------------7-7-7-7----------5-5-5-5-5-5-5-5-|
E|---------3-3-3-3-3-----------5-5-5-5-5-5-----------3-3-3-3-----------------|

Order

Interlude x6
Chorus x2 
Interlude x9 (ring out last note)


(Lyrics)

(Verse)
Something's on my mind - It's been for quite some time
This time I'm on to you		
So where's the other face - the face I hurt before
Your end trip's boring me

(Chorus)
Let's nuke the bridge
We've torched 2000 times before
This time we'll blast it all to hell		
I've had this burning in my guts - Now for so long
My belly's aching now to say

(Verse)
Stuck down in a rut of dis-logic and smut
A side of you well hid
When it's all said and done - It's real and it's been fun
But was it all real fun?

(Chorus)
Let's nuke the bridge
We've torched 2000 times before
This time we'll blast it all to hell		
I've had this burning in my guts - Now for so long
My belly's aching now to say

(Fill 1)
To say....

(Interlude)
You're just a fuck
I can't explain it cos' I think you suck	
I'm taking pride
In telling you to fuck off and die

(Chorus)
I've had this burning in my guts
Now for so long
My belly's aching now to say
I'm taking pleasure in the doubts		
I've passed to you
So listen up 'cause you might miss...   sing it)       

(Interlude)
You're just a fuck
I can't explain it cos' I think you suck	
I'm taking pride
In telling you to fuck off and die
Good___ night


----------------------------------------------------------------------------------------
All by myself (hidden Track)
----------------------------------------------------------------------------------------
Tuning: half a step down

I know this is played only by guitar and it is impossible to play on bass but I am tabbing
this firstly I don't want to leave a blank tab and If you play in a band your guitarist can
play this. Please no complaints on why there is a guitar tab in a bass album tab (im talking
to you saturns_bassman)

Riff 1
e|-2---2---2---2---3---3---3---3-----------------|
B|---3---3---3---3---3---3---3---3---------------|
G|-----------------0-----------------------------|
D|-0---------------------------------------------|
A|-----------------------------------------------|
E|-----------------------------------------------|

Riff 2
e|-4---4---4---4---5---5---5---5-----------------|
B|---5---5---5---5---5---5---5---5---------------|
G|-----------------------------------------------|
D|-----------------------------------------------|
A|-----------------0-----------------------------|
E|-0---------------------------------------------|

Order

Riff 1 x6
Riff 2 x4
Riff 1 x4
Riff 2 x4


(Lyrics)

(Riff 1)
I was alone 
I was all by myself 
No was looking			
I was thinking of you 
Yeah, did I mention?

(Riff 2)
I was all by myself 
All by myself			
All by myself 
All by myself 

(Riff 1)
I went to your house 
But no one was there		
I went in your room 
I was all by myself 

(Riff 2)
You and me had 
Such wonderful times		
When I'm all by myself 
All by myself... 


There it is, in all its glory please rate this and comment on it, thank you and
if you wanna leave any suggestions on any Green Day bass songs you want me to tab
please leave a comment asking. Thanks everyone and goodbye!
9 comments total. Showing first comments.
0 reply
Greenday4Life wrote on November 18 2005, 10:58 am

Cool Man...Loving you green day tabs

0 reply
peacesells wrote on March 29 2007, 09:35 pm

awsome job man.... really good. i kinda think there is a minor mistake in pulling teeth but what do i know. great job

0 reply
FatSaget wrote on May 14 2007, 01:01 am

oh man, you left out all the fills that makes this album so awesome.
if mike played the stuff here, this album would have been a boring piece of crap.
no offense, but try harder.

I want to post or [tab]
guest
You may want to rate the tab now too:
select rating
Please do not post tabs as comments. Select "correction" instead!