Oops, an error
Loading. Please wait.

Dookie Tab

ver3
ver3

Album

Interactive

More versions @911Tabs.com
9,001 views 9 this week
no commentswrite comment
1 2 3 4 5
excellent!
x 5
add to favorites launch autoscroll
font size
0
reset
Autoscroll
+/-
esc
set tempo
stop
Contributor
WARNING: You are trying to view
                                    content from Ultimate-Guitar.com
                                    in an unauthorized application,
                                    which is prohibited.

                                    Please use an official Ultimate
                                    Guitar Tabs application for iPhone,
                                    iPad or Android to access legitimate
                                    chords, guitar, bass, and drum tabs
                                    from Ultimate-Guitar.com database.

                                    Type "ultimate guitar tabs" in Apple
                                    App Store's or Android Market's
                                    search to find the application.
___________________________________________________________________________
---------------------------------------------------------------------------
                                                       
Tuning: E Flat                                         
Band: Green Day                                        
Album: Dookie                                           
Year: 1994                                             
Tabber:  Insomniac_123                                                           
---------------------------------------------------------------------------

--------------------------|
Key:                      |
/= Slide Up               |
\= Slide Down             |
p= Pull Off               |
h= Hammer On              |
P.M.= Indicates Palm Mute |
.= Muted Note             |
*= Harmonic               |
--------------------------|

_______________________________________

Notes
_______________________________________

These are all the songs from Dookie I tabbed. I included all the lyrics and I also 
did the strumming patterns to it too.
I included the lyrics with the tab as well. 

Songs:

(01) Burnout
(02) Having a Blast
(03) Chump
(04) Longview
(05) Welcome To Paradise
(06) Pulling Teeth
(07) Basket Case
(08) She
(09) Sassafras Roots
(10) When I Come Around
(11) Coming Clean
(12) Emenius Sleepus
(13) In The End
(14) F.O.D. * Hidden Track: All By Myself


____________________________________________________________________________

Burnout
____________________________________________________________________________


-------------
Intro:
-------------

I declare I don't care no more, I'm burning up and out and growing bored...
Eb||----------------------------------------||
Bb||----------------------------------------||
Gb||---------5-5555-555----------55-x-------||
Db||-5-5-555-5-5555-555-5-555-55-55-x-3-333-||
Ab||-5-5-555-3-3333-333-5-555-55-33-x-3-333-||
Eb||-3-3-333------------3-333-33------1-111-||

...in my smoked out boring room
Eb||--------------------|------------------||
Bb||--------------------|------------------||
Gb||--------------------|-7-7-7777-77-7777-||
Db||-5-5-555--3-333-333-|-7-7-7777-77-7777-||
Ab||-5-5-555--3-333-333-|-5-5-5555-55-5555-||
Eb||-3-3-333--1-111-111-|------------------||

--------------
Chorus:
--------------

I'm not growing up, I'm just burning out,
Eb||--------------------------------------||
Bb||--------------------------------------||
Gb||-5-5-555-----------55-x---------------||
Db||-5-5-555-5-555-555-55-x-33-x-5-55-555-||
Ab||-3-3-333-5-555-555-33-x-33-x-5-55-555-||
Eb||---------3-333-333------11-x-3-33-333-||

And I stepped in line to walk amongst the dead.
Eb||--------------------------------------||
Bb||--------------------------------------||
Gb||-5-555-55------------7-7-7777-77-7777-||
Db||-5-555-55-3-333-333--7-7-7777-77-7777-||
Ab||-3-333-33-3-333-333--5-5-5555-55-5555-||
Eb||----------1-111-111-------------------||

-----------------
After Chorus 2:
-----------------

Dead........Dead........

Guitar One:
                                              x2
Eb||---------------------|---------------------||
Bb||---------------------|---------------------||
Gb||-7777-7777-7777-7777-|-7777-7777-7777-7777-||
Db||-7777-7777-7777-7777-|-7777-7777-7777-7777-||
Ab||-5555-5555-5555-5555-|-5555-5555-5555-5555-||
Eb||---------------------|---------------------||

Guitar Two: (after Guitar One's first repeat)

Eb||---------------------|------------||
Bb||-7777-7777-8888-8888-|-10---------||
Gb||-7777-7777-7777-7777-|--7---(x16)-||
Db||-0000-0000-0000-0000-|--0---------||
Ab||---------------------|------------||
Eb||---------------------|------------||

-------------
DRUM SOLO:
-------------

Eb||---------------------||
Bb||---------------------||
Gb||---------------------||
Db||-55-x--3-5-----------||
Ab||-55-x--3-5-----------||
Eb||-33-x--1-3-----------||

****************
Lyrics
****************

(Verse:)

I declare I don't care no more,
I'm burning up and out and growing bored,
In my smoked out boring room.
My hair is shagging in my eyes,
Dragging my feet to hit the streets tonight,
To drive along these s*** town lights..

(Chorus:)

I'm not growing up, I'm just burning out,
And I stepped in line to walk amongst the dead.

(Verse 2:)

A pathy has rained on me,
And now I'm feeling like a soggy dream,
So close to drowning but I don't mind.
I live inside this mental cave,
Throw my emotions in the grave, 
Hell, who needs them anyway..

(Chorus:)

I'm not growing up, I'm just burning out,
And I stepped in line to walk amongst the dead.
I'm not growing up, I'm just burning out,
And I stepped in line to walk amongst the dead.......
Dead........


____________________________________________________________________________

Having A Blast
____________________________________________________________________________

-----------
Intro:
-----------
                           x4
Eb||-------------------------||
Bb||-------------------------||
Gb||-2-2-22-x----------------||
Db||-2-2-22-x-5-55-----------||
Ab||-0-0-00-x-5-55-------2---||
Eb||----------3-33-0-3-3---3-||

-----------
Verse:
-----------

I'm taking...all you down with me,
            
              x3      x4:
Eb||-----------||         Eb||----------||
Bb||-----------||         Bb||----------||
Gb||-2---------||         Gb||-222-2222-||
Db||-2-222-222-||         Db||-222-2222-||
Ab||-0-000-000-||         Ab||-000-0000-||
Eb||-----------||         Eb||----------||
P.M.   ... ...

Explosive duct taped to my spine, nothing's gonna change my mind.

Eb||---------------------------|------0-----||
Bb||---------------------------|-0-00-0-000-||
Gb||---------------------------|-1-11-1-111-||
Db||-44-4444-444-4444-5-555-55-|-2-22-2-222-||
Ab||-44-4444-444-4444-5-555-55-|-2-22-2-222-||
Eb||-22-2222-222-2222-3-333-33-|-0-00-0-000-||

x2

-----------
Chorus:
-----------

`Cause no one is, getting out alive, 
 This time I lost my mind and I don't care.

Eb||---------------------------------|--------------------||
Bb||---------------------------------|--------------------||
Gb||-7-77-77-77-7777-----------------|-4-444-444-44-44444-||
Db||-7-77-77-77-7777-7-77-77-77-7777-|-4-444-444-44-44444-||
Ab||-5-55-55-55-5555-7-77-77-77-7777-|-2-222-222-22-22222-||
Eb||-----------------5-55-55-55-5555-|--------------------||

Eb||--------------------||
Bb||--------------------||
Gb||--------------------||
Db||-5-555-555-555-5555-||
Ab||-5-555-555-555-5555-||
Eb||-3-333-333-333-3333-||

To me its nothing x4
                     x4
Eb||------------------||
Bb||------------------||
Gb||------------------||
Db||-77-777-5-55-5555-||
Ab||-77-777-5-55-5555-||
Eb||-55-555-3-33-3333-||

----------
Interlude
----------

Do you ever think back..
To another time?

Eb||------------|------0-----||
Bb||------------|---0000-000-||
Gb||-2----------|-4-1111-111-||
Db||-2-4444-444-|-4-2222-222-||
Ab||-0-4444-444-|-2-2222-222-||
Eb||---2222-222-|---0000-000-||

Did it bring you so down that you thought you lost your mind?

Eb||------------|--------------0-----||
Bb||------------|----------000-0-000-||
Gb||-2----------|-7~-------111-1-111-||
Db||-2-4444-444-|-7~--7~---222-2-222-||
Ab||-0-4444-444-|-5~--7~---222-2-222-||
Eb||---2222-222-|-----5~---000-0-000-||

----------------
Interlude Pt.II
----------------

Do you ever want to lead a long trail of destruction

Eb||------------------------------------||
Bb||------------------------------------||
Gb||--------777-7777--------------------||
Db||-44-444-777-7777-7-777-777-7777-777-||
Ab||-44-444-555-5555-7-777-777-7777-777-||
Eb||-22-222----------5-555-555-5555-555-||

and mow down any bullshit that confronts you?

Eb||------------------|-----------------------||
Bb||------------------|-----------------------||
Gb||------------------|-----------------------||
Db||-44-444-5-555-555-|-7-x-77-x-5-x-5-x-77-7-||
Ab||-44-444-5-555-555-|-7-x-77-x-5-x-5-x-77-7-||
Eb||-22-222-3-333-333-|-5-x-55-x-3-x-3-x-55-5-||

-----------
Outro:
-----------

To me its nothing x4

                     x4
Eb||------------------|-----------||
Bb||------------------|-----------||
Gb||------------------|-----------||
Db||-77-777-5-55-5555-|-5~~~~~~~~-||
Ab||-77-777-5-55-5555-|-5~~~~~~~~-||
Eb||-55-555-3-33-3333-|-3~~~~~~~~-||

--------------
Lyrics:
--------------

(Verse:)

I'm taking, all you down with me,
Explosive duct taped to my spine,
Nothing's gonna change my mind.
I won't listen, to anyone's last words,
There's nothing left for you to say,
Soon you'll be dead anyway.

(Chorus:)

`Cause No one is, getting out alive,
This time I've really lost my mind and I don't care.
So close your eyes, and kiss yourself goodbye,
And think about the times you spent and what they've meant.
To me its nothing x4

(Verse 2:)

I'm losing, all my happiness,
The happiness you pinned on me,
My lonliness still comforts me.
My anger, dwells inside me,
I'm taking it all out on you,
And all the s*** you put me through.

(Chorus:)

`Cause No one is, getting out alive,
This time I've really lost my mind and I don't care.
So close your eyes, and kiss yourself goodbye,
And think about the times you spent and what they've meant.
To me its nothing x4

(Interlude:)

Do you ever think back, to another time?
Did it bring you so down that you thought you lost your mind?
Do you ever want to lead a long trail of destruction and mow down
Any bull**** that comfronts you?
Do you ever build up all the small things in your head?
To make one problem that adds up to nothing.

(Outro:)

To me its nothing x4

____________________________________________________________________________

Chump
____________________________________________________________________________


------------
Intro:
------------


                    x2
Eb||-----------0-----||
Bb||-444---000-0-000-||
Gb||-444---111-1-111-||
Db||-444-4-222-2-222-||
Ab||-222-4-222-2-222-||
Eb||-----2-000-0-000-||

------------
Verse:
------------

I don't know you, but I think I hate you

                    x2
Eb||------------0-----||
Bb||-44-444-000-0-000-||
Gb||-44-444-111-1-111-||
Db||-44-444-222-2-222-||
Ab||-22-222-222-2-222-||
Eb||--------000-0-000-||

Your the reason for my misery
Eb||------------0------------------------||
Bb||-44-444-000-0-000--------------------||
Gb||-44-444-111-1-111--------------------||
Db||-44-444-222-2-222-4-444-444-4444-444-||
Ab||-22-222-222-2-222-4-444-444-4444-444-||
Eb||--------000-0-000-2-222-222-2222-222-||

--------------
Chorus:
--------------

Maybe its just jealousy, mixing up with a vilont mind.
A circumstance which dosen't make much sense,

Eb||------------------||
Bb||-2-22-000-444-444-||
Gb||-2-22-111-444-444-||
Db||-2-22-222-444-444-||
Ab||-0-00-222-222-222-||
Eb||------000---------||

Or maybe I'm just dumb.

Eb||-------0~~~~0-||
Bb||-2~~~~-0~~~~0-||
Gb||-2~~~~-1~~~~1-||
Db||-2~~~~-2~~~~2-||
Ab||-0~~~~-2~~~~2-||
Eb||-------0~~~~0-||

--------------
Interlude:
--------------


Eb||-----------||
Bb||-----------||
Gb||-----------||
Db||-4~~~~~~~~-||
Ab||-4~~~~~~~~-||
Eb||-2~~~~~~~~-||

The Bassline:

Gb||-----------|--------------||
Db||----2----2-|----2p1---2-1-||
Ab||-----------|--------------||
Eb||-22---22---|-00-----0-----||



Guitar:

In this part, you will need to strum the chords quick. The motion is 
up, down, up. I haven't included the actual strumming pattern though.

Eb||------------------------------|------------|------------|------------||
Bb||------------------------------|------------|------------|------------||
Gb||-11~~~~~~~--------------------|-11~~~~~~~~-|-11~~~~~~~~-|-11~~~~~~~~-||
Db||-11~~~~~~~~~(guitar feedback)-|-11~~~~~~~~-|-11~~~~~~~~-|-11~~~~~~~~-||
Ab||--9~~~~~~~--------------------|--9~~~~~~~~-|--9~~~~~~~~-|--9~~~~~~~~-||
Eb||------------------------------|------------|------------|------------||

Eb||--------------|---------------||
Bb||--------------|---------------||
Gb||-11~~~~-9~~~~-|-11~~~~-9~~~~\-||
Db||-11~~~~-9~~~~-|-11~~~~-9~~~~\-||
Ab||--9~~~~-7~~~~-|--9~~~~-7~~~~\-||
Eb||--------------|---------------||

Eb||-----------------||
Bb||-----------------||
Gb||-----------------||
Db||-444-222-444-222-||
Ab||-444-222-444-222-||
Eb||-222-000-222-000-||
     (Up, down, up)

---------------
Outro
---------------

There are two guitars in this part and the struming part on Guitar 1 is the 
same over the bass riff, but this is much faster.

Eb||-----------------------------------||
Bb||-----------------------------------||
Gb||-----------------------------------||
Db||-4-444-444-444-444-444-444-444-444-||
Ab||-4-444-444-444-444-444-444-444-444-||
Eb||-2-222-222-222-222-222-222-222-222-||

Guitar Two:

Guitar two plays this real fast...

Eb||-------------||
Bb||-------------||
Gb||-/--18-\-----||
Db||-/------\----||
Ab||-/--16---\---||
Eb||-------------||

---------------
Slower Part:
---------------
                Repeat that a few times.
Eb||---------------------||
Bb||---------------------||
Gb||---------------------||
Db||-4~~~~~~~~-4~~~~~~~~-||
Ab||-4~~~~~~~~-4~~~~~~~~-||
Eb||-2~~~~~~~~-2~~~~~~~~-||

------------
Lyrics
------------

(Verse:)

I don't know you, but I think I hate you.
Your the reason for my misery.
Strange how you've, become my biggest enemy.
And I have never even seen your face..

(Chorus:)

Maybe its just jeaulosy, mixing up with a violont mind?
A circumstance which dosen't make much sense,
Or maybe I'm just dumb?

(Verse 2:)

Your the cloud, hanging out over my head,
Hail comes crashing down welting my face.
Magic man, egocentric plastic man,
Yet you still got one over on me..

(Chorus:)

Maybe its just jeaulosy, mixing up with a violont mind?
A circumstance which dosen't make much sense,
Or maybe I'm just dumb?

(Before Interlude)

I'm a chump

____________________________________________________________________________

Longview
____________________________________________________________________________

----------
VERSE:
----------

Bass:

Gb||------------------------------|------------9-7-6-7-||
Db||-------------9-7-6-----7-6----|-----9-7-6--0-0-0-0-||
Ab||-19\\\\\\\-7-------7p5------5-|-9p7----------------||
Eb||------------------------------|--------------------||

I sit around and watch the tube but nothin's on.

-----------
CHORUS:
-----------

Eb||-----------------||
Bb||-----------------||
Gb||-777-777-777-777-||
Db||-777-777-777-777-||
Ab||-555-555-555-555-||
Eb||-----------------||

Bite my lip and lose my eyes,
take me away to paradise.
I'm so damn bored I'm going blind,

                                    x3
Eb||-----------------|---------------||
Bb||-----------------|---------------||
Gb||-----------------|----------9999-||
Db||-9---9---9---9---|-7---7----9999-||
Ab||-9-p-9-p-9-p-9-p-|-7-p-7-p--7777-||
Eb||-7-7-7-7-7-7-7-7-|-5-5-5-5-------||

And I smell of s***.....

Eb||------------------------||
Bb||------------------------||
Gb||------------------------||
Db||-9---9---9999-7777-7777-||
Ab||-9-p-9-p-9999-7777-7777-||
Eb||-7-7-7-7-7777-5555-5555-||

---------------------
Beginning of Verse 2
---------------------

Eb||-----------||
Bb||-9~~~~~~-\-||
Gb||-9~~~~~~-\-||
Db||-9~~~~~~-\-||
Ab||-7~~~~~~-\-||
Eb||-----------||

-------------------------
BRIDGE: (after Chorus 2)
-------------------------

I've got no motivation
Where is my motivation?
No time for the motivation.

Eb||-----------|-----------||
Bb||-----------|-----------||
Gb||-9999-9999-|-7777-7777-||
Db||-9999-9999-|-7777-7777-||
Ab||-7777-7777-|-5555-5555-||
Eb||-----------|-----------||

Smokin' my insper....RATION!

Eb||------------|------------------||
Bb||------------|------------------||
Gb||-9999-9999--|-7-7777----7-7777-||
Db||-9999-9999--|-7-7777----7-7777-||
Ab||-7777-7777--|-5-5555----5-5555-||
Eb||------------|------------------||

---------------------------------
Outro: (after Verse and Chorus 3)
---------------------------------

Eb||-----------||
Bb||-9~~~~~~-\-||
Gb||-9~~~~~~-\-||
Db||-9~~~~~~-\-||
Ab||-7~~~~~~-\-||
Eb||-----------||

Eb||-----------------------||
Bb||-9-10-10-7~~~~~~-\\\\\-||
Gb||-9--9--9-7~~~~~~-\\\\\-||
Db||-----------------------||
Ab||-----------------------||
Eb||-----------------------||

Eb||---------12~~~~~~-|------------------||
Bb||-9-10-12----------|-9-10-10-7~~~~~~~-||
Gb||-9--9--9----------|-9--9--9-7~~~~~~~-||
Db||------------------|------------------||
Ab||------------------|------------------||
Eb||------------------|------------------|| 

Fades Out.

-------------
Lyrics:
-------------

(Verse:)

I sit around and watch the tube but nothin's on,
I change the channels for an hour or two.
Twiddle my thumbs just for bit,
Im sick of all the same of s***.
In a house with unlocked doors and I'm f***ing lazy..

(Chorus:)

Bit my lip and close my eyes,
Take me away to paradise.
I'm so damn bored I'm going blind,
And I smell of s***.

(Verse 2:)

Peel me off this velcro seat, and get me moving,
I sure is hell, can't do it by myslef.
I'm feeling like a dog in heat,
Barred indoors from the summer street.
I locked the door to my old cell and I lost the key.

(Chorus:)

Bit my lip and close my eyes,
Take me away to paradise.
I'm so damn bored I'm going blind,
And I smell of s***.

(Bridge:)

I've got, no motivation,
Where is my motivation?
No time for the motivation,
Smoking my insper, -ation! 

(Verse 3:)

I sit around and watch the phone but no one's calling,
Call me pathetic, call me what you will.
My mother says to get a job, 
But she don't like the one she's got.
When masturbation's lost it's fun, your f***ing breaking.

(Chorus:)

Bit my lip and close my eyes,
Take me away to paradise.
I'm so damn bored I'm going blind,
And lonliness has to suffice.
Bit my lip and close my eyes,
Slipping away to paradise.
Some say "quit and I'll go blind?", 
But its just a myth...

____________________________________________________________________________

Welcome To Paradise
____________________________________________________________________________

----------
Intro:
----------

Eb||------------|------------||
Bb||------------|------------||
Gb||-9-x-99-9-x-|-77-x-------||
Db||-9-x-99-9-x-|-77-x-7-777-||
Ab||-7-x-77-7-x-|-55-x-7-777-||
Eb||------------|------5-555-||

----------
Verse:
----------

Dear mother can you hear me whining,

Eb||------------------|-----------------------||
Bb||------------------|-----------------------||
Gb||-99-999-7777-7777-|-9-x-99-x-9-x-9-x-99-9-||
Db||-99-999-7777-7777-|-9-x-99-x-9-x-9-x-99-9-||
Ab||-77-777-5555-5555-|-7-x-77-x-7-x-7-x-77-7-||
Eb||------------------|-----------------------||

Its been three whole weeks since that I have left your home.

Eb||--------------------|---------------------||
Bb||--------------------|---------------------||
Gb||-99-9999-7-7777-777-|----------4-4444-444-||
Db||-99-9999-7-7777-777-|-5-555-55-4-4444-444-||
Ab||-77-7777-5-5555-555-|-5-555-55-2-2222-222-||
Eb||--------------------|-3-333-33------------||

The sudden fear has left me trembling,

Eb||------------------|-----------------------||
Bb||------------------|-----------------------||
Gb||-99-999-7777-7777-|-9-x-99-x-9-x-9-x-99-9-||
Db||-99-999-7777-7777-|-9-x-99-x-9-x-9-x-99-9-||
Ab||-77-777-5555-5555-|-7-x-77-x-7-x-7-x-77-7-||
Eb||------------------|-----------------------||

`Cause now it seems it's now feeling like my home,

Eb||--------------------|---------------------||
Bb||--------------------|---------------------||
Gb||-99-9999-7-7777-777-|----------4-4444-444-||
Db||-99-9999-7-7777-777-|-5-555-55-4-4444-444-||
Ab||-77-7777-5-5555-555-|-5-555-55-2-2222-222-||
Eb||--------------------|-3-333-33------------||

And I'm never `gonna go............

Eb||---------|----------------------||
Bb||---------|----------------------||
Gb||---------|-4-4444-4444-4444-444-||
Db||-55-5555-|-4-4444-4444-4444-444-||
Ab||-55-5555-|-2-2222-2222-2222-222-||
Eb||-33-3333-|----------------------||

----------------
Chorus:
----------------

Pay attention to the cracked streets and the broken homes,

Eb||---0---------------|---------------------||
Bb||-0-0000------------|---------------------||
Gb||-1-1111------------|-2-222-22-5-5555-555-||
Db||-2-2222-5-5555-555-|-2-222-22-5-5555-555-||
Ab||-2-2222-5-5555-555-|-0-000-00-3-3333-333-||
Eb||-0-0000-3-3333-333-|---------------------||

Some call it slumps some call it nice......

Eb||---0---------------|--------------------||
Bb||---0000------------|--------------------||
Gb||-1-1111------------|-4-444-444-4444-444-||
Db||-2-2222-5-5555-555-|-4-444-444-4444-444-||
Ab||-2-2222-5-5555-555-|-2-222-222-2222-222-||
Eb||-0-0000-3-3333-333-|--------------------||

I `wanna take you through a wasteland I like to call my home,

Eb||---0---------------|---------------------||
Bb||-0-0000------------|---------------------||
Gb||-1-1111------------|-2-222-22-5-5555-555-||
Db||-2-2222-5-5555-555-|-2-222-22-5-5555-555-||
Ab||-2-2222-5-5555-555-|-0-000-00-3-3333-333-||
Eb||-0-0000-3-3333-333-|---------------------||

Eb||------------||
Bb||------------||
Gb||-1-11-111-4-|| Welcome to paradise 
Db||-2-22-222-4-||
Ab||-2-22-222-2-||
Eb||-0-00-000---||

-------------------
Before Interlude:
-------------------
                             x3
Eb||------------|------------||
Bb||------------|------------||
Gb||-9-x-99-9-x-|-77-x-------||
Db||-9-x-99-9-x-|-77-x-7-777-||
Ab||-7-x-77-7-x-|-55-x-7-777-||
Eb||------------|------5-555-||

Eb||-----------------|----------------||
Bb||-----------------|----------------||
Gb||-9-x-99-99--77---|-1~~~~~~~~~~~~~-||
Db||-9-x-99-99--77-7-|-2~~~~~~~~~~~~~-||
Ab||-7-x-77-77--55-7-|-2~~~~~~~~~~~~~-||
Eb||---------------5-|-0~~~~~~~~~~~~~-||


--------------------
Interlude:
--------------------


As usual, the bass plays a really cool riff. 
There are three guitar tracks. 

Bass:
Gb||---------------------------------||
Db||----7h9-------9------8------8h10-||
Ab||-77-----10-10--10-99---9-88------||
Eb||---------------------------------|| 

------------
First Part
------------

Guitar One:

Eb||------------------------------------|---------------||
Bb||------------------------------------|---------------||
Gb||------------------------------------|-2b~~----------||
Db||-2~~~~~~~~--------------------------|---------------||
Ab||-----------2~~~~-3-2-0-2-3-2~~~~~~~-|------10-9-8-7-||
Eb||------------------------------------|---------------||

------------
Second Part
------------

This part goes into the main riff.

Guitar One:

Eb||---------|------------|----------|-----------||
Bb||-----9---|------12----|-----11---|-----10----||
Gb||---------|------------|----------|-----------||
Db||---9---9-|---12----12-|--11---11-|--10----10-||
Ab||-7-------|-10---------|-9--------|-8---------||
Eb||---------|------------|----------|-----------||
P.M.. . . .   .  .  . .    . . . .    . .  .  .

Guitar two is making feedback noises.


Guitar Three: 
(In a certain part)

These are all harmonics as the star shows.

Eb||----*12------------*12~~~~~-||
Bb||-*12---*12-----*12----------||
Gb||-----------*12--------------||
Db||----------------------------||
Ab||----------------------------||
Eb||----------------------------||

--------------
Second Part
--------------

This part is after the Harmonic part.

Guitar One:

Eb||---------|------------|----------|-----------||
Bb||-----9---|------12----|-----11---|-----10----||
Gb||---------|------------|----------|-----------||
Db||---9---9-|---12----12-|--11---11-|--10----10-||
Ab||-7-------|-10---------|-9--------|-8---------||
Eb||---------|------------|----------|-----------||
P.M.. . . .   .  .  . .    . . . .    . .  .  .

Guitar Two:

Eb||---------|------------|-----------|-----------||
Bb||-----9---|------12----|------11---|------10---||
Gb||---------|------------|-----------|-----------||
Db||-9-9---9-|-12-12---12-|-11-11--11-|-10-10--10-||
Ab||-7-7---7-|-10-10---10-|--9--9---9-|--8--8---8-||
Eb||---------|------------|-----------|-----------||
P.M. . .   .   .  .    .     .  .   .    .  .   .

-----------
End Part:
-----------

Guitar One:

Eb||---------|------------|----------|-----------||
Bb||-----9---|------12----|-----11---|-----10----||
Gb||---------|------------|----------|-----------||
Db||---9---9-|---12----12-|--11---11-|--10----10-||
Ab||-7-------|-10---------|-9--------|-8---------||
Eb||---------|------------|----------|-----------||
P.M.. . . .   .  .  . .    . . . .    . .  .  .

Guitar Two:

Eb||---------|------------|-----------|-----------||
Bb||-----9---|------12----|------11---|------10---||
Gb||---------|------------|-----------|-----------||
Db||-9-9---9-|-12-12---12-|-11-11--11-|-10-10--10-||
Ab||-7-7---7-|-10-10---10-|--9--9---9-|--8--8---8-||
Eb||---------|------------|-----------|-----------||
P.M. . .   .   .   .   .     .  .   .    .  .   .

Guitar Three:

Eb||---------------------|---------------------||
Bb||---------------------|---------------------||
Gb||---------------------|---------------------||
Db||-6666-6666-6666-6666-|-6666-6666-6666-6666-||
Ab||-7777-7777-7777-7777-|-7777-7777-7777-7777-||
Eb||---------------------|---------------------||

Part II.

Guitar One:

Eb||-------|-------------|-------------|-------------||
Bb||-9999--|-12-12-12-12-|-11-11-11-11-|-10-10-10-10-||
Gb||-9999--|-12-12-12-12-|-11-11-11-11-|-10-10-10-10-||
Db||-9999--|-12-12-12-12-|-11-11-11-11-|-10-10-10-10-||
Ab||-7777--|-10-10-10-10-|--9--9--9--9-|--8--8--8--8-||
Eb||-------|-------------|-------------|-------------||

-------------
Lyrics:
-------------

(Verse:)

Dear mother can you hear me whining?
Its been three whole weeks since that,
I have left your home.
This sudden fear has left me trembling,
`Cause now it seems that I am,
Out here on my own,
And I'm feeling so alone...

(Chorus:)

Pay attention to the cracked streets and the broken homes,
Some call it the slumps, some call it nice..
I wanna take you through a wasteland, I like to call my home,
Welcome To Paradise.

(Verse 2:)

A gunshot rings out at the station,
Another urchin snaps and,
Left dead on his own.
It makes me wonder why I'm still here,
For some strange reason it's now,
Feeling like my home,
And I'm never gonna go...

(Chorus:)

Pay attention to the cracked streets and the broken homes,
Some call it the slumps, some call it nice..
I wanna take you through a wasteland, I like to call my home,
Welcome To Paradise.

(Verse 3:)

Dear mother, can you hear me laughing,
Its been six whole months since that,
I have left your home.
It makes me wonder why I'm still here,
For some strange reason it's now,
Feeling like my home,
And I'm never gonna go..

(Chorus:)

Pay attention to the cracked streets and the broken homes,
Some call it the slumps, some call it nice..
I wanna take you through a wasteland, I like to call my home,
Welcome To Paradise.

(Outro:)

Oh, paradise...

____________________________________________________________________________

Pulling Teeth
____________________________________________________________________________

--------------
Intro:
--------------

Eb||----------------||
Bb||----------------||
Gb||-444-4----------||
Db||-444-4----------||
Ab||-222-2----------||
Eb||----------------||

Guitar One:

Eb||--------------|--------------||
Bb||----4-----4---|----4-----4---||
Gb||-44-4-444-4-4-|-44-4-444-4-4-||
Db||-44-4-444-4-4-|-44-4-444-4-4-||
Ab||-22-2-222-2-2-|-00-0-000-0-0-||
Eb||--------------|--------------||

Guitar Two:

Eb||----------||
Bb||----------||
Gb||-9-8~~~~~-||
Db||-x-x------||
Ab||-7-6~~~~~-||
Eb||----------||

---------------
Verse:
---------------

I'm all busted up, broken bones and nasty cuts.

Eb||---0-------0000-000-|---0----------------||
Bb||-0-0-000-2-2222-222-|-0-0-000-4-4444-444-||
Gb||-1-1-111-2-2222-222-|-1-1-111-4-4444-444-||
Db||-2-2-222-2-2222-222-|-2-2-222-4-4444-444-||
Ab||-2-2-222-0-0000-000-|-2-2-222-2-2222-222-||
Eb||-0-0-000------------|-0-0-000------------||

Accidents will happen, but this time I can't get up.

Eb||---0----------------|-0-00-------0--------||
Bb||-0-0-000-2-2222-222-|-0-00-444-0-0000-000-||
Gb||-1-1-111-2-2222-222-|-1-11-444-1-1111-111-||
Db||-2-2-222-2-2222-222-|-2-22-444-2-2222-222-||
Ab||-2-2-222-0-0000-000-|-2-22-222-2-2222-222-||
Eb||-0-0-000------------|-0-00-----0-0000-000-||

---------------
Chorus:
---------------

Is she ultra vilont is she disturbed

Eb||----------------|----------------||
Bb||----5-------5---|----5-------5---||
Gb||-66-6-6--66-6-6-|-66-6-6--66-6-6-||
Db||-66-6-6--66-6-6-|-66-6-6--66-6-6-||
Ab||-44-4-4--44-4-4-|-44-4-4--44-4-4-||
Eb||----------------|----------------||

I better tell her that I love her.

Eb||---0-----0----------||
Bb||-0-0-000-0-0000-000-||
Gb||-1-1-111-1-1111-111-||
Db||-2-2-222-2-2222-222-||
Ab||-2-2-222-2-2222-222-||
Eb||-0-0-000-0-0000-000-||

Before she does it all over again

Eb||----------------|----------------||
Bb||----5-------5---|----5-------5---||
Gb||-66-6-6--66-6-6-|-66-6-6--66-6-6-||
Db||-66-6-6--66-6-6-|-66-6-6--66-6-6-||
Ab||-44-4-4--44-4-4-|-44-4-4--44-4-4-||
Eb||----------------|----------------||

Oh god she's killing me!

Eb||----------------|-------||
Bb||----4-------4---|-------||
Gb||-44-4-4--44-4-4-|-44444-||
Db||-44-4-4--44-4-4-|-44444-||
Ab||-22-2-2--22-2-2-|-22222-||
Eb||----------------|-------||

------------
SOLO:
------------

Guitar One:

Eb||-------|-0-0-0-0--0-0000-000---0-0-|-0-0-0-0----------------||
Bb||-------|-2-0-0-0--2-2222-000-0-0-0-|-2-0-0-0--44-55-77-5-44-||
Gb||-------|-----1----2-2222-222-2-1---|-----1----44-44-44-4-44-||
Db||-------|---------------------------|------------------------||
Ab||-------|---------------------------|------------------------||
Eb||-12\---|---------------------------|------------------------||

Eb||-000-00-00-00-00--00-00-00-00-000-|-00-00-00-00--0-------*12-||
Bb||-555-99-10-99-10--12-12-10-10-999-|-10-99-77-77--5--*12------||
Gb||----------------------------------|--------------------------||
Db||----------------------------------|--------------------------||
Ab||----------------------------------|--------------------------||
Eb||----------------------------------|--------------------------||

Guitar Two:

Eb||---0-------0000-000-|---0----------------||
Bb||-0-0-000-2-2222-222-|-0-0-000-4-4444-444-||
Gb||-1-1-111-2-2222-222-|-1-1-111-4-4444-444-||
Db||-2-2-222-2-2222-222-|-2-2-222-4-4444-444-||
Ab||-2-2-222-0-0000-000-|-2-2-222-2-2222-222-||
Eb||-0-0-000------------|-0-0-000------------||

Eb||---0----------------|-0-00-------0--------||
Bb||-0-0-000-2-2222-222-|-0-00-444-0-0000-000-||
Gb||-1-1-111-2-2222-222-|-1-11-444-1-1111-111-||
Db||-2-2-222-2-2222-222-|-2-22-444-2-2222-222-||
Ab||-2-2-222-0-0000-000-|-2-22-222-2-2222-222-||
Eb||-0-0-000------------|-0-00-----0-0000-000-||

------------
Bridge:
------------

Looking out my window for someone that's passing by,
                                x2
Eb||--------------|--------------||
Bb||----4-----4---|----4-----4---||
Gb||-44-4-444-4-4-|-44-4-444-4-4-||
Db||-44-4-444-4-4-|-44-4-444-4-4-||
Ab||-22-2-222-2-2-|-00-0-000-0-0-||
Eb||--------------|--------------||

No one knows I'm locked up here all I do is cry....
Eb||--------------|--------------||
Bb||----4-----4---|----4-----4---||
Gb||-44-4-444-4-4-|-44-4-444-4-4-||
Db||-44-4-444-4-4-|-44-4-444-4-4-||
Ab||-22-2-222-2-2-|-00-0-000-0-0-||
Eb||--------------|--------------||

Eb||----------------|-------||
Bb||----4-------4---|-------||
Gb||-44-4-4--44-4-4-|-44444-||
Db||-44-4-4--44-4-4-|-44444-||
Ab||-22-2-2--22-2-2-|-22222-||
Eb||----------------|-------||

------------
Outro:
------------

For now I'll lie around, hell that's all I can really do.

Eb||---0-------0000-000-|---0----------------||
Bb||-0-0-000-2-2222-222-|-0-0-000-4-4444-444-||
Gb||-1-1-111-2-2222-222-|-1-1-111-4-4444-444-||
Db||-2-2-222-2-2222-222-|-2-2-222-4-4444-444-||
Ab||-2-2-222-0-0000-000-|-2-2-222-2-2222-222-||
Eb||-0-0-000------------|-0-0-000------------||

She takes good care of me

Eb||---0-------0000-000-||
Bb||-0-0-000-2-2222-222-||
Gb||-1-1-111-2-2222-222-||
Db||-2-2-222-2-2222-222-||
Ab||-2-2-222-0-0000-000-||
Eb||-0-0-000------------||

Just keep saying my love is true

Eb||-0----------|-0~~~~~~~~~~~~~-||
Bb||-0--4--2--4-|-0~~~~~~~~~~~~~-||
Gb||-1--4--2--4-|-1~~~~~~~~~~~~~-||
Db||-2--4--2--4-|-2~~~~~~~~~~~~~-||
Ab||-2--2--0--2-|-2~~~~~~~~~~~~~-||
Eb||-0----------|-0~~~~~~~~~~~~~-||

-----------------
Lyrics:
-----------------

(Verse:)

I'm all busted up, broken bones and nasty cuts,
And accidents will happen, but this time I can't get up.
She comes to check on me, making sure I'm on my knees,
After all she's the one, who put me in this state.

(Chorus:)

Is she ultra violent is she disturbed?
I better tell her I love her.
Before she does it all over again,
Oh god she's killing me.

(Post Chorus:)

For now I'll lie around, hell that's all I can really do,
She takes good care of me, just keep saying my love is true.

(Chorus:)

Is she ultra violent is she disturbed?
I better tell her I love her.
Before she does it all over again,
Oh god she's killing me.

(Bridge:)

Looking out my window for someone that's passing by,
No one knows I'm locked in here, all I do is cry.

(Outro:)

For now I'll ly around, hell that's all I can really do,
She takes good care of me, just keep saying my love is true..

____________________________________________________________________________

Basket Case
____________________________________________________________________________

-----------
Intro:
-----------

Do you have the time, to listen to me whine

Eb||-------------|----------------|-------------|----------------||
Bb||-------------|----------------|-------------|----------------||
Gb||----9----9---|----------------|----6----6---|----------------||
Db||-99-9-99-9-9-|-9----9-----9---|-66-6-66-6-6-|-6----6-----6---||  
Ab||-77-7-77-7-7-|-9-99-9-999-9-9-|-44-4-44-4-4-|-6-66-6-666-6-6-||
Eb||-------------|-7-77-7-777-7-7-|-------------|-4-44-4-444-4-4-||  
P.M. ..   ..   .     ..   ...   .   ..   ..   .     ..   ...   .

About nothing and everything all at once.

Eb||-------------|----------------|--------------------------||
Bb||-------------|----------------|--------------------------|| 
Gb||-------------|-9----9-----9---|--------------------------||
Db||----9----9---|-9-99-9-999-9-9-|----9------9----9-----9---||
Ab||-99-9-99-9-9-|-7-77-7-777-7-7-|-99-9-9999-9-99-9-999-9-9-||
Eb||-77-7-77-7-7-|----------------|-77-7-7777-7-77-7-777-7-7-||
P.M. ..   ..   .     ..   ...   .   ..   ....   ..   ...   .


----------------
Chorus:
----------------

Sometimes I give myself the creeps

Eb||----------------------------|--------------------------||
Bb||----------------------------|----5------5----5-----5---||
Gb||----2-------4----4-----4----|-44-4-4444-4-44-4-444-4-4-||
Db||-22-2-2222--4-44-4-444-4-4--|-22-2-2222-2-22-2-222-2-2-||
Ab||-00-0-0000--2-22-2-222-2-2--|--------------------------||
Eb||----------------------------|--------------------------||
P.M. ..   ....    ..   ...   .    ..   ....   ..   ...   .

Sometimes my mind plays tricks on me

Eb||----------------------------|--------------------------||
Bb||----------------------------|----5------5----5-----5---||
Gb||----2-------4----4-----4----|-44-4-4444-4-44-4-444-4-4-||
Db||-22-2-2222--4-44-4-444-4-4--|-22-2-2222-2-22-2-222-2-2-||
Ab||-00-0-0000--2-22-2-222-2-2--|--------------------------||
Eb||----------------------------|--------------------------||
P.M. ..   ....    ..   ...   .    ..   ....   ..   ...   .

It all keeps adding up
Eb||----------------------------||
Bb||----------------------------||
Gb||----2-------4----4-----4----||
Db||-22-2-2222--4-44-4-444-4-4--||
Ab||-00-0-0000--2-22-2-222-2-2--||
Eb||----------------------------||
P.M. ..   ....    ..   ...   . 


-----------------
With Band:
-----------------

I think I'm cracking up

Eb||-------------------------||
Bb||----------------5555-555-||
Gb||-9~~--7--6~~----6666-666-||
Db||-9~~--7--6~~----6666-666-||
Ab||-7~~--5--4~~----4444-444-||
Eb||-------------------------||

Am I just paranoid, am I just stoned?

Eb||-------------------||
Bb||-------------------||
Gb||-------------------||
Db||-77-777--9-999-999-||
Ab||-77-777--9-999-999-||
Eb||-55-555--7-777-777-||

-----------------
After Chorus:
-----------------
                         x2
Eb||----------------------||
Bb||-----------55---------||
Gb||-9-x-44-x--66-x--44-x-||
Db||-9-x-44-x--66-x--44-x-||
Ab||-7-x-22-x--44-x--22-x-||
Eb||----------------------||

-----------------
Verse
-----------------

I went to a shrink, to analyze my dreams

Eb||-------------------|-------------------||
Bb||-00-000------------|-5-5-555-----------||
Gb||-11-111--4-44-4444-|-6-6-666-----------||
Db||-22-222--4-44-4444-|-6-6-666-6-66-6666-||
Ab||-22-222--2-22-2222-|-4-4-444-6-66-6666-||
Eb||-00-000------------|---------4-44-4444-||

She said its lack of sex that's bringing me down
Eb||-----00--------0-----------------------||
Bb||---2-22---0-00-0-000-------------------||
Gb||-2-2-22---1-11-1-111--4-4-4444-44-4444-||
Db||-2-2-22---2-22-2-222--4-4-4444-44-4444-||
Ab||-0-0-00---2-22-2-222--2-2-2222-22-2222-||
Eb||----------0-00-0-000-------------------||


------------------
Chorus 2:
------------------

Sometimes I give myself the creeps
Eb||-------------------|------------------||
Bb||-------------------|------------------||
Gb||-------------------|-9-9-9999-99-9999-||
Db||-77-777--9-99-9999-|-9-9-9999-99-9999-||
Ab||-77-777--9-99-9999-|-7-7-7777-77-7777-||
Eb||-55-555--7-77-7777-|------------------||

Sometimes my mind plays tricks on me
Eb||-------------------|------------------||
Bb||-------------------|------------------||
Gb||-------------------|-9-9-9999-99-9999-||
Db||-77-777--9-99-9999-|-9-9-9999-99-9999-||
Ab||-77-777--9-99-9999-|-7-7-7777-77-7777-||
Eb||-55-555--7-77-7777-|------------------||

It all keeps adding up
Eb||-------------------||
Bb||-------------------||
Gb||-------------------||
Db||-77-777--9-99-9999-||
Ab||-77-777--9-99-9999-||
Eb||-55-555--7-77-7777-||

Part II.

I think I'm cracking up
Eb||-------------------------||
Bb||----------------5555-555-||
Gb||-9~~--7--6~~----6666-666-||
Db||-9~~--7--6~~----6666-666-||
Ab||-7~~--5--4~~----4444-444-||
Eb||-------------------------||


Am I just paranoid, am I just stoned?
Eb||-------------------||
Bb||-------------------||
Gb||-------------------||
Db||-77-777--9-999-999-||
Ab||-77-777--9-999-999-||
Eb||-55-555--7-777-777-||

---------------
After Chorus:
---------------
                         x4
Eb||----------------------||
Bb||-----------55---------||
Gb||-9-x-44-x--66-x--44-x-||
Db||-9-x-44-x--66-x--44-x-||
Ab||-7-x-22-x--44-x--22-x-||
Eb||----------------------||

----------------
Bridge:
----------------

Grasping to control
Eb||---------------------|-------------||
Bb||---------------------|-------------||
Gb||-2222-2222-2222-2222-|-4444-4444-4-||
Db||-2222-2222-2222-2222-|-4444-4444-4-||
Ab||-0000-0000-0000-0000-|-2222-2222-2-||
Eb||---------------------|-------------||    
P.M. .... .... .... ....         

So I better hold on
Eb||-------------------|-------------------||
Bb||-00-000------------|-5-5-555-----------||
Gb||-11-111--4-44-4444-|-6-6-666-----------||
Db||-22-222--4-44-4444-|-6-6-666-6-66-6666-||
Ab||-22-222--2-22-2222-|-4-4-444-6-66-6666-||
Eb||-00-000------------|---------4-44-4444-||

Eb||-----00--------0-----------------------||
Bb||---2-22---0-00-0-000-------------------||
Gb||-2-2-22---1-11-1-111--4-4-4444-44-4444-||
Db||-2-2-22---2-22-2-222--4-4-4444-44-4444-||
Ab||-0-0-00---2-22-2-222--2-2-2222-22-2222-||
Eb||----------0-00-0-000-------------------||
 
(x2)

----------------
Chorus 3:
----------------

Sometimes I give myself the creeps
Eb||----------------------------|--------------------------||
Bb||----------------------------|----5------5----5-----5---||
Gb||----2-------4----4-----4----|-44-4-4444-4-44-4-444-4-4-||
Db||-22-2-2222--4-44-4-444-4-4--|-22-2-2222-2-22-2-222-2-2-||
Ab||-00-0-0000--2-22-2-222-2-2--|--------------------------||
Eb||----------------------------|--------------------------||
P.M. ..   ....    ..   ...   .    ..   ....   ..   ...   .

Sometimes my mind plays tricks on me
Eb||----------------------------|--------------------------||
Bb||----------------------------|----5------5----5-----5---||
Gb||----2-------4----4-----4----|-44-4-4444-4-44-4-444-4-4-||
Db||-22-2-2222--4-44-4-444-4-4--|-22-2-2222-2-22-2-222-2-2-||
Ab||-00-0-0000--2-22-2-222-2-2--|--------------------------||
Eb||----------------------------|--------------------------||
P.M. ..   ....    ..   ...   .    ..   ....   ..   ...   .


It all keeps adding up
Eb||----------------------------||
Bb||----------------------------||
Gb||----2-------4----4-----4----||
Db||-22-2-2222--4-44-4-444-4-4--||
Ab||-00-0-0000--2-22-2-222-2-2--||
Eb||----------------------------||
P.M. ..   ....    ..   ...   . 

Part II.

I think I'm cracking up
Eb||-------------------------||
Bb||----------------5555-555-||
Gb||-9~~--7--6~~----6666-666-||
Db||-9~~--7--6~~----6666-666-||
Ab||-7~~--5--4~~----4444-444-||
Eb||-------------------------||


Am I just paranoid, am I just stoned...
Eb||-------------------||
Bb||-------------------||
Gb||-------------------||
Db||-77-777--9-999-999-||
Ab||-77-777--9-999-999-||
Eb||-55-555--7-777-777-||

------------------
Outro:
------------------

Two Guitars:

Guitar One: 
                                              x3
Eb||-------------------------------------------||
Bb||-------------------------------------------||
Gb||-9-99-999--6-66-666--------99-x------------||
Db||-9-99-999--6-66-666--7-77--99-x--9-99-9999-||
Ab||-7-77-777--4-44-444--7-77--77-x--9-99-9999-||
Eb||---------------------5-55--------7-77-7777-||

Guitar Two:
                                              x3
Eb||-------------------------------------------||
Bb||-------------------------------------------||
Gb||------------------------------99-----------||
Db||-6-6-7-777----6-6-7-777-7-7-x-99-9-99-9999-||
Ab||-7-7-7-777----4-4-4-444-7-7-x-77-9-99-9999-||
Eb||-0-0-0-000--------------5-5-x----7-77-7777-||


Eb||------------------------------------------------||
Bb||------------------------------------------------||
Gb||-----9~-------------2~---------4~~~~~~~~~~~~~~~-||
Db||-7~--9~-7~----------2~-2~------4~~~~~~~~~~~~~~~-||
Ab||-7~--7~-7~----------0~-2~------2~~~~~~~~~~~~~~~-||
Eb||-5~-----5~-------------0~-----------------------||

---------------
Lyrics:
---------------

(Basically, all the lyrics are up there!)

____________________________________________________________________________

She
____________________________________________________________________________

---------
INTRO: 
---------

Lyrics:

She, she screams in silence
A sullen riot penatrating through her mind
Wai, ting for a sign
To smash the silence with a brick of self-control


Guitar before the chorus

Eb||----------------------||
Bb||----------------------||
Gb||----------------------||
Db||-------------555-5555-||
Ab||-5555-5555-5-555-5555-||
Eb||-3333-3333-3-333-3333-||
P.M. .... .... . 

--------
CHORUS:
--------

Are you locked up in a world that's been planned out for you?
Eb||----------------------------|-----------||
Bb||----------------------------|-----------||
Gb||-7-7-7777-77-7777---5-5-555-|-----------||
Db||-7-7-7777-77-7777---5-5-555-|-5-55-5555-||
Ab||-5-5-5555-55-5555---3-3-333-|-5-55-5555-||
Eb||----------------------------|-3-33-3333-||

Are you feeling like a social tool without a use?
Eb||----------------------------|-----------||
Bb||----------------------------|-----------||
Gb||-7-7-7777-77-7777---5-5-555-|-----------||
Db||-7-7-7777-77-7777---5-5-555-|-5-55-5555-||
Ab||-5-5-5555-55-5555---3-3-333-|-5-55-5555-||
Eb||----------------------------|-3-33-3333-||

Scream at me until my ears bleed
Eb||---------------------|---------------------||
Bb||---------------------|---------------------||
Gb||-5-555-555-----------|-5-555-555-----------||
Db||-5-555-555-5-555-555-|-5-555-555-5-555-555-||
Ab||-3-333-333-5-555-555-|-3-333-333-5-555-555-||
Eb||-----------3-333-333-|-----------3-333-333-||

I'm taking heed just for you
Eb||---------------------|-------------------||
Bb||---------------------|-------------------||
Gb||-5-555-555-----------|-7-7-777-7-77-7777-||
Db||-5-555-555-5-555-555-|-7-7-777-7-77-7777-||
Ab||-3-333-333-5-555-555-|-5-5-555-5-55-5555-||
Eb||-----------3-333-333-|-------------------||

------------
Verse:
------------

She, she's figured out
Eb||---------------------|----------------------||
Bb||---------------------|----------------------||
Gb||---------------------|-7--------7-----------||
Db||-5-------------------|-7-777-77-7-7777-7777-||
Ab||-5-555-5555-5555-555-|-5-555-55-5-5555-5555-||
Eb||-3-333-3333-3333-333-|----------------------||
P.M.   ... .... .... ...     ... ..   .... ....

All her doubts were someone else's point of view
Eb||------------------------|----------------------------||
Bb||------------------------|----------------------------||
Gb||-5------------------5-x-|---------5------------------||
Db||-5-555-5555-5555-55-5-x-|-5-5-----5-5-5----5-----5---||
Ab||-3-333-3333-3333-33-3-x-|-5-5-55--3-3-5-55-5-555-5-5-||
Eb||------------------------|-3-3-33------3-33-3-333-3-3-||
P.M.   ... .... .... ..           ..    .   ..   ...   .

Wake-, ing up this time
Eb||--------------------------|--------------------------||
Bb||--------------------------|--------------------------||
Gb||--------------------------|----7------7----7-----7---||
Db||----5------5----5-----5---|-77-7-7777-7-77-7-777-7-7-||
Ab||-55-5-5555-5-55-5-555-5-5-|-55-5-5555-5-55-5-555-5-5-||
Eb||-33-3-3333-3-33-3-333-3-3-|--------------------------||
P.M. ..   ....   ..   ...   .   ..   ....   ..   ...   .

To smash the silence with a brick of self control
Eb||----------------------|-------------------||
Bb||----------------------|-------------------||
Gb||-5-555-5555-5555-5555-|-------5-----------||
Db||-5-555-5555-5555-5555-|-5-5-x-5-5-55-5555-||
Ab||-3-333-3333-3333-3333-|-5-5-x-3-5-55-5555-||
Eb||----------------------|-3-3-x---3-33-3333-||

-------------
Bridge:
-------------

Eb||---------------------------------------||
Bb||---------------------------------------||
Gb||---------------------7-7-777-7-77-7777-||
Db||-5-5-555-5-55-5555---7-7-777-7-77-7777-||
Ab||-5-5-555-5-55-5555---5-5-555-5-55-5555-||
Eb||-3-3-333-3-33-3333---------------------||

Eb||---------------------|-------------------||
Bb||---------------------|-------------------||
Gb||-5555-5555-5555-5555-|-------5-----------||
Db||-5555-5555-5555-5555-|-5-5-x-5-5-55-5555-||
Ab||-3333-3333-3333-3333-|-5-5-x-3-5-55-5555-||
Eb||---------------------|-3-3-x---3-33-3333-||

-------------
Lyrics:
-------------

(Verse:)

She, she screams in slience,
A sullen riot penetrating through her mind.
Wai, -ting for a sign,
To smash the silence with a brick of self-control.

(Chorus:)

Are you locked up in a world that's been planned out for you?
Are you feeling like a social tool without a use?
Scream at me, until my ears bleed,
I'm taking heed just for you.

(Verse 2:)

She, she's figured out, 
All her doubts were someone else's point of view.
Wake, -ing up this time,
To smash the silence with a brick of self control.

(Chorus:)

Are you locked up in a world that's been planned out for you?
Are you feeling like a social tool without a use?
Scream at me, until my ears bleed,
I'm taking heed just for you.

(And then after the bridge the chorus is repeated.)

____________________________________________________________________________

Sassafras Roots
____________________________________________________________________________

------------
Intro:
------------

Eb||----------||
Bb||-3~-------||
Gb||-2~-2~----||
Db||-0~-2~-2~-||
Ab||----0~-2~-||
Eb||-------0~-||

                                              x2
Eb||-------------------------2-222-------0-----||
Bb||-2-2-222-2-22-22-22----3-3-333--0-00-0-000-||
Gb||-2-2-222-2-22-22-22----2-2-222--1-11-1-111-||
Db||-2-2-222-2-22-22-22----0-0-000--2-22-2-222-||
Ab||-0-0-000-0-00-00-00-------------2-22-2-222-||
Eb||--------------------------------0-00-0-000-||

------------
Verse:
------------

Roaming `round your house
Waisting your time                            x4
Eb||-------------------------2-222-------0-----||
Bb||-2-2-222-2-22-22-22----3-3-333--0-00-0-000-||
Gb||-2-2-222-2-22-22-22----2-2-222--1-11-1-111-||
Db||-2-2-222-2-22-22-22----0-0-000--2-22-2-222-||
Ab||-0-0-000-0-00-00-00-------------2-22-2-222-||
Eb||--------------------------------0-00-0-000-||

--------------
Chorus:
--------------

Yeah I'm a waste like you, with nothing else to do
Eb||---3-222-------0-----|---2-222------0-----||
Bb||-3-3-333--0-00-0-000-|-3-3-333-0-00-0-000-||
Gb||-2-2-222--1-11-1-111-|-2-2-222-1-11-1-111-||
Db||-0-0-000--2-22-2-222-|-0-0-000-2-22-2-222-||
Ab||----------2-22-2-222-|---------2-22-2-222-||
Eb||----------0-00-0-000-|---------0-00-0-000-||

May I waste your time too?
Eb||---------------------------------||
Bb||-3~------------------------------||
Gb||-2~--2~-----------------9-9-9999-||
Db||-0~--2~-2~~-------------9-9-9999-||
Ab||-----0~-2~~-------------7-7-7777-||
Eb||--------0~~----------------------||
P.M.         

---------------
Bridge:
---------------
                                              x2
Eb||-------------------------2-222-------0-----||
Bb||-2-2-222-2-22-22-22----3-3-333--0-00-0-000-||
Gb||-2-2-222-2-22-22-22----2-2-222--1-11-1-111-||
Db||-2-2-222-2-22-22-22----0-0-000--2-22-2-222-||
Ab||-0-0-000-0-00-00-00-------------2-22-2-222-||
Eb||--------------------------------0-00-0-000-||
                        x3
Eb||---------------------|---------------------||
Bb||---------------------|---------------------||
Gb||-----------7-77-7777-|-9999-9999-9999-9999-||
Db||-4-4-444---7-77-7777-|-9999-9999-9999-9999-||
Ab||-4-4-444---5-55-5555-|-7777-7777-7777-7777-||
Eb||-2-2-222-------------|---------------------||

---------------
Outro:
---------------

May I waste your time too?                  x2
Eb||-----------------------------------------||
Bb||-----------------------------------------||
Gb||-7777-7777-----------9999-9999-9999-9999-||
Db||-7777-7777-7777-7777-9999-9999-9999-9999-||
Ab||-5555-5555-7777-7777-7777-7777-7777-7777-||
Eb||-----------5555-5555---------------------||

May I waste your time too?
Eb||-2~-----0~~~~~~~~-||
Bb||-3~--2~-0~~~~~~~~-||
Gb||-2~--2~-1~~~~~~~~-||
Db||-0~--2~-2~~~~~~~~-||
Ab||-----0~-2~~~~~~~~-||
Eb||--------0~~~~~~~~-||

--------------
Lyrics:
--------------

(Verse:)

Roaming `round your house wasting your time,
No obligation, just wasiting your time,
So why are you alone? Waisting your time,
When you could be with me wasiting your time.

(Chorus:)

Yeah I'm a waste like you, with nothing else to do,
May I waste your time too?

(Verse 2:)

Warding off regrets waisting your time,
Smoking cigarrets waisting your time,
I'm just a parasite waisting your time,
Applying myself to waisting your time.


(Chorus:)

Yeah I'm a waste like you, with nothing else to do,
May I waste your time too?

(Outro:)

May I waste your time too? x3

____________________________________________________________________________

When I Come Around
____________________________________________________________________________

------------
Intro:
------------

Eb||------------------|------------------||
Bb||------------------|---8--------------||
Gb||-------------7----|---9-\--5~~~-55-x-||
Db||----5-----77-7-77-|-9-9-\--5~~~-55-x-||
Ab||-55-5-55--55-5-55-|-7-7-\--3~~~-33-x-||
Eb||-33-3-33----------|------------------||
P.M. ..   ..  ..   ..   .    

With Band
                                         x2
Eb||-------------------|------------------||
Bb||-------------------|---8--------------||
Gb||--------------7----|---9-\--5~~~-55---||
Db||-5---5-----77-7-77-|-9-9-\--5~~~-55-x-||
Ab||-5-5-5-55--55-5-55-|-7-7-\--3~~~-33-x-||
Eb||-3-3-3-33----------|------------------||
P.M.   .   ..  ..   ..   .

-------------
Verse:
-------------
                       (Throughout but with differnt lyrics)

I heard you crying loud                      
Eb||------------------|------------------||  
Bb||------------------|---8--------------||  Gb||-------------7----|---9-\--5~~~-55-x-||  
Db||----5-----77-7-77-|-9-9-\--5~~~-55-x-||  
Ab||-55-5-55--55-5-55-|-7-7-\--3~~~-33-x-||  
Eb||-33-3-33----------|------------------||  
P.M. ..   ..  ..   ..   .                    


--------------
Chorus:
--------------

No time to search the world around,
Eb||------------------------||
Bb||------------------------||
Gb||-2222-2222----5555-5555-||
Db||-2222-2222----5555-5555-||
Ab||-0000-0000----3333-3333-||
Eb||------------------------||

`Cause you know where I'll be found,
Eb||-------------------------||
Bb||-------------------------||
Gb||-2222-2222----5-55-555-5-||
Db||-2222-2222----5-55-555-5-||
Ab||-0000-0000----3-33-333-3-||
Eb||-------------------------||

When I Come Around

--------------
Solo:
--------------

Guitar One:
                                        x2
Eb||------------------|------------------||
Bb||------------------|---8--------------||
Gb||-------------7----|---9-\--5~~~-55-x-||
Db||----5-----77-7-77-|-9-9-\--5~~~-55-x-||
Ab||-55-5-55--55-5-55-|-7-7-\--3~~~-33-x-||
Eb||-33-3-33----------|------------------||
P.M. ..   ..  ..   ..   .   

Guitar Two:

Eb||-3----------5----------3-----5~--3-3-33--||
Bb||---3---3------3---3------3---3~--3-3-33--||
Gb||-----0----------0----------0-0~--0-0-00--||
Db||-----------------------------------------||
Ab||-----------------------------------------||
Eb||-----------------------------------------||

Eb||-3-33-5--555-33-3-------------||
Bb||-3-33-3--333-33-3-/-5-5-5-5~~-||
Gb||-0-00-0--000-00-0-/-------5~~-||
Db||------------------------------||
Ab||------------------------------||
Eb||------------------------------||

-----------
Outro:
-----------

When I Come Around x3
Eb||------------------|------------------||
Bb||------------------|---8--------------||
Gb||-------------7----|---9-\--5~~~-55-x-||
Db||----5-----77-7-77-|-9-9-\--5~~~-55-x-||
Ab||-55-5-55--55-5-55-|-7-7-\--3~~~-33-x-||
Eb||-33-3-33----------|------------------||
P.M. ..   ..  ..   ..   .  

Eb||------------------|------------------||
Bb||------------------|---9--------------||
Gb||-------------7----|---9-\--5~~~~~~~~-||
Db||----5-----77-7-77-|-9-9-\--5~~~~~~~~-||
Ab||-55-5-55--55-5-55-|-7-7-\--3~~~~~~~~-||
Eb||-33-3-33----------|------------------||
P.M. ..   ..  ..   ..   . 


--------------
Lyrics:
--------------

(Verse:)

I heard you crying loud, all the way across town,
To be searching for that someone and its me,
Out on the prowl,
As you sit around feeling sorry for yourself.
Well don't get lonley now, and dry your whining eyes,
I'm just roaming for the moment sleazin' my back yard,
Your so uptight,
And you have been thinking about ditching me..

(Chorus:) 

No time to search the world around,
`Cause you know where I'll be found,
When I Come Around.

(Verse 2:)

I've heard it all before, so don't knock down my door,
I'm a loser and the user so I don't need no accuser,
To try and slag me down because I know you're right.
So go do what you like, make sure you do it wise,
You may find out that your selfdoubt means nothing
Was ever there,
You can't go forcing something if its just not right..

(Chorus:)

No time to search the world around,
`Cause you know where I'll be found,
When I Come Around.

(-after solo)

(The chorus is repeated)

(Outro:)

When I Come Around
When I Come Around
When I Come Around 

____________________________________________________________________________

Coming Clean
____________________________________________________________________________

--------------------
Intro: (Or Verse)
--------------------

Seventeen and struck out on confusion
Eb||---------------||
Bb||---------------||
Gb||---------------||
Db||-9~~~~---6~~~~-||
Ab||-9~~~~---6~~~~-||
Eb||-7~~~~---4~~~~-||

Trapped inside this roll of delusion...      I
Eb||-------------------------|-------------------------||
Bb||-------------------------|-------------------------||
Gb||-4-x-44-x-4-x-4-x-4-4-44-|-------------------------||
Db||-4-x-44-x-4-x-4-x-4-4-44-|-6-x-66-x-6-x-6-x-6-6-66-||
Ab||-2-x-22-x-2-x-2-x-2-2-22-|-6-x-66-x-6-x-6-x-6-6-66-||
Eb||-------------------------|-4-x-44-x-4-x-4-x-4-4-44-||

-------------
Chorus:
-------------

...found out what it takes to be a man
Eb||--------------------|---------0------0---||
Bb||--------------------|-0-000-000-0000-000-||
Gb||--------------------|-1-111-111-1111-111-||
Db||-4-444-444-4444-444-|-2-222-222-2222-222-||
Ab||-4-444-444-4444-444-|-2-222-222-2222-222-||
Eb||-2-222-222-2222-222-|-0-000-000-0000-000-||

And mom and dad will never understand,
What's happening to me!
Eb||--------------------|---------0------0---||
Bb||--------------------|-0-000-000-0000-000-||
Gb||--------------------|-1-111-111-1111-111-||
Db||-4-444-444-4444-444-|-2-222-222-2222-222-||
Ab||-4-444-444-4444-444-|-2-222-222-2222-222-||
Eb||-2-222-222-2222-222-|-0-000-000-0000-000-||

--------------
Solo:
--------------

Guitar One:
                                                      x2
Eb||-------------------------|-------------------------||
Bb||-------------------------|-------------------------||
Gb||-4-x-44-x-4-x-4-x-4-4-44-|-------------------------||
Db||-4-x-44-x-4-x-4-x-4-4-44-|-6-x-66-x-6-x-6-x-6-6-66-||
Ab||-2-x-22-x-2-x-2-x-2-2-22-|-6-x-66-x-6-x-6-x-6-6-66-||
Eb||-------------------------|-4-x-44-x-4-x-4-x-4-4-44-||


Guitar Two:
                                              x2
Eb||---------------------|---------------------||
Bb||-7~-44---4--4-44-444-|--4~-55--5--4-44-444-||
Gb||-4~-44---6--4-44-444-|--4~-44--4--4-44-444-||
Db||---------------------|--6~-66--6--6-66-666-||
Ab||---------------------|---------------------||
Eb||---------------------|---------------------||

--------------
Part Two:
--------------

Guitar One:

Eb||--------------------|---------0------0---||
Bb||--------------------|-0-000-000-0000-000-||
Gb||--------------------|-1-111-111-1111-111-||
Db||-4-444-444-4444-444-|-2-222-222-2222-222-||
Ab||-4-444-444-4444-444-|-2-222-222-2222-222-||
Eb||-2-222-222-2222-222-|-0-000-000-0000-000-||

Guitar Two:

Eb||-------------------------------0------0----||
Bb||----------------------0-000-00-0-0000-0-00-||
Gb||-3~--44-x-6-4--3-333--1-111-11-1-1111-1-11-||
Db||-4~--44-x-4-4--4-444--2-222-22-2-2222-2-22-||
Ab||-------------------------------------------||
Eb||-------------------------------------------||

Eb||----------------------0000-0000-0000-0000--||
Bb||----------------------0000-0000-0000-0000--||
Gb||-3~--44-x-6-4--3-333--1111-1111-1111-1111--||
Db||-4~--44-x-4-4--4-444--2222-2222-2222-2222--||
Ab||-------------------------------------------||
Eb||-------------------------------------------||

------------
Outro:
------------

Eb||-------------||
Bb||-------------||
Gb||-4~~~~~~~~-4-||
Db||-4~~~~~~~~-4-||
Ab||-2~~~~~~~~-2-||
Eb||-------------||

------------------
Lyrics:
------------------

(Verse:)

Seventeen and struck out on confusion,
Trapped inside this roll of delusion.

(Chorus:)

I found out what it takes to be a man,
And Mom and Dad will never understand,
What's happening to me!

(Verse 2:)

Secrets collecting dust but never forget,
Skeletons come to life in my closet.

(Chorus:)

I found out what it takes to be a man,
And Mom and Dad will never understand,
What's happening to me!

(Verse 3:)

Seventeen and coming clean for the first time,
I finally figured myself out for the first time.

(Chorus:)

I found out what it takes to be a man,
And Mom and Dad will never understand,
What's happening to me!

____________________________________________________________________________

Enemius Sleepus
____________________________________________________________________________

------------
Intro:
------------

Eb||--------------------------------------------------||
Bb||------0-000-------0-000-------0-000---------------||
Gb||-44-x-1-111--44-x-1-111--44-x-1-111---22-x--------||
Db||-44-x-2-222--44-x-2-222--44-x-2-222---22-x--4-444-||
Ab||-22-x-2-222--22-x-2-222--22-x-2-222---00-x--4-444-||
Eb||------0-000-------0-000-------0-000---------2-222-||

------------
Verse:
------------

I saw my friend the other day, And I don't know
Eb||--------------------------------------------------||
Bb||------0-000-------0-000-------0-000---------------||
Gb||-44-x-1-111--44-x-1-111--44-x-1-111---22-x--------||
Db||-44-x-2-222--44-x-2-222--44-x-2-222---22-x--4-444-||
Ab||-22-x-2-222--22-x-2-222--22-x-2-222---00-x--4-444-||
Eb||------0-000-------0-000-------0-000---------2-222-||

Exactly what he did became, It comes to show
Eb||--------------------------------------------------||
Bb||------0-000-------0-000-------0-000---------------||
Gb||-44-x-1-111--44-x-1-111--44-x-1-111---22-x--------||
Db||-44-x-2-222--44-x-2-222--44-x-2-222---22-x--4-444-||
Ab||-22-x-2-222--22-x-2-222--22-x-2-222---00-x--4-444-||
Eb||------0-000-------0-000-------0-000---------2-222-||

-------------
Chorus:
-------------

It wasn't long ago
Eb||------0------------||
Bb||-0-0-000-----------||
Gb||-1-1-111-----------||
Db||-2-2-222-4-44-4444-||
Ab||-2-2-222-4-44-4444-||
Eb||-0-0-000-2-22-2222-||

When I was just like you
Eb||------0------------||
Bb||-0-0-000-----------||
Gb||-1-1-111-----------||
Db||-2-2-222-4-44-4444-||
Ab||-2-2-222-4-44-4444-||
Eb||-0-0-000-2-22-2222-||

Now I think your sick, and I wanna go home
Eb||---0------|-----------||
Bb||-0-0-0000-|-----------||
Gb||-1-1-1111-|-----------||
Db||-2-2-2222-|-4-444-444-||
Ab||-2-2-2222-|-4-444-444-||
Eb||-0-0-0000-|-2-222-222-||

---------------
Post Chorus:
---------------

Eb||--------------------------------------------------||
Bb||------0-000-------------------0-000---------------||
Gb||-44-x-1-111--44-x--------44-x-1-111---22-x--------||
Db||-44-x-2-222--44-x-4-444--44-x-2-222---22-x--4-444-||
Ab||-22-x-2-222--22-x-4-444--22-x-2-222---00-x--4-444-||
Eb||------0-000-------2-222-------0-000---------2-222-||

---------------
Interlude:
---------------

There are two guitars.
One guitar plays chords.
The second plays one chord and a few notes.
(Guitar Two is after guitar one)


Guitar One:

Anybody ever say no?

Eb||-------------------||
Bb||-------------------||
Gb||-4~~~~~~~~~~~~~~~~-||
Db||-4~~~~~~~~~~~~~~~~-||
Ab||-2~~~~~~~~~~~~~~~~-||
Eb||-------------------||

Guitar Two:

Eb||---------0------||
Bb||-----------0----||
Gb||-2~~~~-------2~-||
Db||-2~~~~----------||
Ab||-0~~~~----------||
Eb||----------------||


---- After A Few Times

Did you lose it in hateful fight?
And you know its true
                
Eb||--------------------------------------------||
Bb||--------------------------------------------||
Gb||-4~~~~~~~~-2-222-2-222-2-222-2-22--22-------||
Db||-4~~~~~~~~-2-222-2-222-2-222-2-22--22-4-444-||
Ab||-2~~~~~~~~-0-000-0-000-0-000-0-00--00-4-444-||
Eb||--------------------------------------2-222-||

----------------
Lyrics:
----------------

(Verse:)

I saw my friend the other day, and I don't know,
Exactly just what he became, it comes to show..

(Chorus:)

It wasn't long ago, when I was just like you,
And Now I think I'm sick
And I wanna go home!

(Verse 2:)

How I have been, How you have been, its been so long,
What have you done with all your time, and what went wrong..

(Chorus:) 

I knew you back when, And you..you knew me,
And now think your sick,
And I wanna go home!

(Interlude:)

Anybody ever say no?, Ever tell you that you weren't right? 
Where did all the little kid go? 
Did you lose it in a hateful fight? 
And you know it's true.

(Chorus:)

It wasn't long ago, when I was just like you,
And Now I think I'm sick
And I wanna go home!

____________________________________________________________________________

In The End
____________________________________________________________________________

The main riff has a certain stumming pattern to it.
It is down,down,up,down,up.



-------------
Verse:
-------------

All brawn and no brains
And all those nice things
You finally got what you want
                       x4
Eb||--------------------||
Bb||--------------------||
Gb||--------------------||
Db||-7-77-77----5-55-55-||
Ab||-7-77-77----5-55-55-||
Eb||-5-55-55----3-33-33-||

Someone to look good with
And light your cigarrete,
is this what you really want?
                       x3
Eb||--------------------||
Bb||--------------------||
Gb||--------------------||
Db||-7-77-77----5-55-55-||
Ab||-7-77-77----5-55-55-||
Eb||-5-55-55----3-33-33-||

Eb||---------------------||
Bb||---------------------||
Gb||---------------------||
Db||-7-77-77-----7-77-77-||
Ab||-7-77-77-----7-77-77-||
Eb||-5-55-55-----5-55-55-||

-------------
Chorus:
-------------

I figured out, what your all about
Eb||--------------------|-------------------||
Bb||--------------------|-9-99-99---9-99-99-||
Gb||-7-77-77---7-77-77--|-9-99-99---9-99-99-||
Db||-7-77-77---7-77-77--|-9-99-99---9-99-99-||
Ab||-5-55-55---5-55-55--|-7-77-77---7-77-77-||
Eb||--------------------|-------------------||

And I don't think I like what I see so..
Eb||-------------------|--------------||
Bb||-------------------|--------------||
Gb||-------------------|--------------||
Db||-7-77-77---7-77-77-|-4-44-44----4-||
Ab||-7-77-77---7-77-77-|-4-44-44----4-||
Eb||-5-55-55---5-55-55-|-2-22-22----2-||

I hope I won't be there 
In the end if you come around.
Eb||--------------------|-------------------||
Bb||--------------------|-9-99-99---9-99-99-||
Gb||-7-77-77---7-77-77--|-9-99-99---9-99-99-||
Db||-7-77-77---7-77-77--|-9-99-99---9-99-99-||
Ab||-5-55-55---5-55-55--|-7-77-77---7-77-77-||
Eb||--------------------|-------------------||

                       x2
Eb||--------------------||
Bb||--------------------||
Gb||--------------------||
Db||-7-77-77----5-55-55-||
Ab||-7-77-77----5-55-55-||
Eb||-5-55-55----3-33-33-||

-------------
Interlude:
-------------

I really like this because it starts of with Palm Muting and then it gradually
builds tension.
Start of with palm muting this, and then slowly release it. 

Two Guitars:

Guitar One:

Eb||---------------||
Bb||---------------||
Gb||---------------||
Db||---------------||
Ab||---4-------5---||
Eb||-5---5---3---3-||

Guitar Two:

After the riff above

Eb||-----------------------||
Bb||-----------------------||
Gb||-----------------------||
Db||-5~~~------------------||
Ab||-4~~~------------------||
Eb||-5~~~------------------||

--------------
Lyrics:
--------------

(Verse:)

All brawn and no brains
And all those nice things
You finally got what you want,
Someone to look good with
And light your cigarrete,
is this what you really want?

(Chorus:)

I figured out, what you're all about,
And I don't think I like what I see 
So...
I hope I won't be there in the end if you come around.

(Verse 2:)

How long will he last 
Before he's a creep in the past 
And you're alone once again? 
Will you pop up agin and be my "Special Friend" 'till the end 
And when will that be? 

(Chorus:)

I figured out, what you're all about,
And I don't think I like what I see 
So...
I hope I won't be there in the end if you come around.

(after-Interlude)

(The chorus above)

____________________________________________________________________________

F.O.D (F*** off and die)
____________________________________________________________________________

The first part starts off with one of them nylon string guitars I think, (not 
steel strings.) And then it goes into distortion.

I change guitars from acoustic to electric.
But if you don't want to swap guitars, use clean and then gritty dist. afterwards.

Acoustic Guitar:

---------------
Verse:
---------------

Something's on my mind, its been for quite some time
Eb||----------------------|----------------------||
Bb||----------------------|----------------------||
Gb||----------------------|----------------------||
Db||-7-777-777---7777-777-|-7-777-777---7777-777-||
Ab||-7-777-777---7777-777-|-7-777-777---7777-777-||
Eb||-5-555-555---5555-555-|-5-555-555---5555-555-||

This time I'm on to you
Eb||-----------------------|-------------------------||
Bb||-----------------------|-------------------------||
Gb||-----------------------|-------------------------||
Db||-5-555-555---5555-5555-|-7-7-7777-7-77-7-777-7-7-||
Ab||-5-555-555---5555-5555-|-7-7-7777-7-77-7-777-7-7-||
Eb||-3-333-333---3333-3333-|-5-5-5555-5-55-5-555-5-5-||

------------
Chorus:
------------

Lets nuke the bridge we torched two thousand times before
Eb||----------------------|--------------------------||
Bb||----------------------|--------------------------||
Gb||-----9-999------------|-----7-777----------------||
Db||-999-9-999-5-5555-555-|-777-7-777-7-77-7-777-7-7-||
Ab||-777-7-777-5-5555-555-|-555-5-555-7-77-7-777-7-7-||
Eb||-----------3-3333-333-|-----------5-55-5-555-5-5-||

This time we'll blast it all to hell
Eb||----------------------|---------------------------||
Bb||----------------------|---------------------------||
Gb||-----9-999------------|-----7-7777-7-77-7-777-7-7-||
Db||-999-9-999-5-5555-555-|-777-7-7777-7-77-7-777-7-7-||
Ab||-777-7-777-5-5555-555-|-555-5-5555-5-55-5-555-5-5-||
Eb||-----------3-3333-333-|---------------------------||

I've had this burning in my guts now for so long
Eb||----------------------|--------------------------||
Bb||----------------------|--------------------------||
Gb||-----9-999------------|-----7-777----------------||
Db||-999-9-999-5-5555-555-|-777-7-777-7-77-7-777-7-7-||
Ab||-777-7-777-5-5555-555-|-555-5-555-7-77-7-777-7-7-||
Eb||-----------3-3333-333-|-----------5-55-5-555-5-5-||

My belly's aching now to say
Eb||----------------------|---------------------------||
Bb||----------------------|---------------------------||
Gb||-----9-999------------|-----7-7777-7-77-7-777-7-7-||
Db||-999-9-999-5-5555-555-|-777-7-7777-7-77-7-777-7-7-||
Ab||-777-7-777-5-5555-555-|-555-5-5555-5-55-5-555-5-5-||
Eb||-----------3-3333-333-|---------------------------||

--------------------------
Before The Dist. Part
--------------------------

...Say.........Say
Eb||----------------------------------------||
Bb||----------------------------------------||
Gb||-7-777-777-7777-7777-----7777-7777-7777-||
Db||-7-777-777-7777-7777-----7777-7777-7777-||
Ab||-5-555-555-5555-5555-----5555-5555-5555-||
Eb||----------------------------------------||

--------------
Dist
--------------
                               x2
Eb||----------------------------||
Bb||----------------------------||
Gb||----------------------------||
Db||-7--6-x-7-777--7--6-x-5-555-||
Ab||-5--4-x-7-777--5--4-x-5-555-||
Eb||--------5-555---------3-333-||

Your just, a f*** etc         x3
Eb||----------------------------||
Bb||----------------------------||
Gb||----------------------------||
Db||-7--6-x-7-777--7--6-x-5-555-||
Ab||-5--4-x-7-777--5--4-x-5-555-||
Eb||--------5-555---------3-333-||


I'm telling you to f*** off and die
Eb||--------------------------------||
Bb||--------------------------------||
Gb||--------------------------------||
Db||-7--6-x-7-777--7--6-x-5-555-555-||
Ab||-5--4-x-7-777--5--4-x-5-555-555-||
Eb||--------5-555---------3-333-333-||

------------
Chorus 3:
------------

I've had this burning in my guts now for so long
Eb||-----------------------------------------||
Bb||-0-0-000---------------------------------||
Gb||-1-1-111--------------7-7-777------------||
Db||-2-2-222---5-55-5555--7-7-777--7-77-7777-||
Ab||-2-2-222---5-55-5555--5-5-555--7-77-7777-||
Eb||-0-0-000---3-33-3333-----------5-55-5555-||

My belly's aching now to say
Eb||------------------------------------------||
Bb||-0-0-000----------------------------------||
Gb||-1-1-111--------------7-777-777-77-7777---||
Db||-2-2-222---5-55-5555--7-777-777-77-7777---||
Ab||-2-2-222---5-55-5555--5-555-555-55-5555---||
Eb||-0-0-000---3-33-3333----------------------||

I've taken pleasure in my masochistic youth
Eb||-----------------------------------------||
Bb||-0-0-000---------------------------------||
Gb||-1-1-111--------------7-7-777------------||
Db||-2-2-222---5-55-5555--7-7-777--7-77-7777-||
Ab||-2-2-222---5-55-5555--5-5-555--7-77-7777-||
Eb||-0-0-000---3-33-3333-----------5-55-5555-||

So listen up because you might miss...
Eb||---------------------------------------||
Bb||-0-0-000-------------------------------||
Gb||-1-1-111--------------7777--7777-7777--||
Db||-2-2-222---5-55-5555--7777--7777-7777--||
Ab||-2-2-222---5-55-5555--5555--5555-5555--||
Eb||-0-0-000---3-33-3333-------------------||

-------------
Outro:
-------------

Good night....................
                               x3
Eb||----------------------------||
Bb||----------------------------||
Gb||----------------------------||
Db||-7--6-x-7-777--7--6-x-5-555-||
Ab||-5--4-x-7-777--5--4-x-5-555-||
Eb||--------5-555---------3-333-||

End:

Eb||----------------------------||
Bb||----------------------------||
Gb||----------------------------||
Db||-7--6-x--5~~~~~~~~~~~~~~~~--||
Ab||-5--4-x--5~~~~~~~~~~~~~~~~--||
Eb||---------3~~~~~~~~~~~~~~~~--||

-------------
Lyrics:
-------------

(Verse:)

Something's on my mind, its beem for quite some time,
This time I'm on to you..
So where's the other face, the face I heard before?
Your head trip's boring me.

(Chorus:)

Let's nuke the bridge we torched Two-Thousand times before,
This time we'll blast it all to hell.
I've had this buring in my guts now for so long,
My belly's aching now to say...

(Verse 2:)

Stuck down in a rut, of dislogic and smut,
A side of you well hid..
When its all sed and done, its been real and its been fun,
But was it all real fun?

(Chorus:)

Let's nuke the bridge we torched Two-Thousand times before,
This time we'll blast it all to hell.
I've had this buring in my guts now for so long,
My belly's aching now to say...say...

(Dist.Part)

Your just, a f***, I can't explain it cause I think you suck,
I'm take, -ing pride, I'm telling you to f*** off and die!

(Chorus:)

I've had this burning in my guts now for so long,
My belly's aching now to say..
I'm taking pleasure in my masochistic youth,
So listen up because you might miss...

Your just, a f***, I can't explain it cause I think you suck,
I'm take, -ing pride, I'm telling you to f*** off and die!

(Outro:)

Good night......



****************
All By Myself
****************

This is played on an acoustic guitar. You may want to do it in clean.
And this is played standard. Use your fingers to play this like classical guitarists.

--------------
Intro:
--------------
                                     x2
E||-2---2---2---2---|-3---3---3---3---||
B||---3---3---3---3-|---3---3---3---3-||
G||-----------------|-0~--------------||
D||-0~--------------|-----------------||
A||-----------------|-----------------||
E||-----------------|-----------------||

---------------
Verse:
---------------

I was alone, I was all by myself     x2
E||-2---2---2---2---|-3---3---3---3---||
B||---3---3---3---3-|---3---3---3---3-||
G||-----------------|-0~--------------||
D||-0~--------------|-----------------||
A||-----------------|-----------------||
E||-----------------|-----------------||

No one was looking, I was thinking of you
E||-2---2---2---2---|-3---3---3---3---||
B||---3---3---3---3-|---3---3---3---3-||
G||-----------------|-0~--------------||
D||-0~--------------|-----------------||
A||-----------------|-----------------||
E||-----------------|-----------------||

Oh yeah did I mention, I was all my my-
E||-2---2---2---2---|-3---3---3---3---||
B||---3---3---3---3-|---3---3---3---3-||
G||-----------------|-0~--------------||
D||-0~--------------|-----------------||
A||-----------------|-----------------||
E||-----------------|-----------------||

------------
Chorus:
------------

-----------------------------------------------*
-self.                        All by myself x4 *
E||-4---4---4---4---|-5---5---5---5---||       *
B||---5---5---5---5-|---5---5---5---5-||       *
G||-----------------|-----------------||       *
D||-----------------|-----------------||       *
A||-----------------|-0~--------------||       *
E||-0~--------------|-----------------||       *
-----------------------------------------------*

The same pattern in the whole song (well hidden track..)

++++++++++++++++++++++++++++++++
Final Notes And Goodybe
++++++++++++++++++++++++++++++++

Well, there you have it. My tabbed version of Dookie.
I do hope you enjoyed it! 

comments
print report bad tab
I want to post or [tab]
guest
You may want to rate the tab now too:
select rating
Please do not post tabs as comments. Select "correction" instead!