Oops, an error
Loading. Please wait.

Dos Bass Tab

835 views 6 this week
1 commentread comment
1 2 3 4 5
accurate
x 2
add to favorites launch autoscroll
font size
0
reset
Autoscroll
+/-
esc
set tempo
stop
Contributor
WARNING: You are trying to view
                                    content from Ultimate-Guitar.com
                                    in an unauthorized application,
                                    which is prohibited.

                                    Please use an official Ultimate
                                    Guitar Tabs application for iPhone,
                                    iPad or Android to access legitimate
                                    chords, guitar, bass, and drum tabs
                                    from Ultimate-Guitar.com database.

                                    Type "ultimate guitar tabs" in Apple
                                    App Store's or Android Market's
                                    search to find the application.
Artist: Green Day
Album: ¡Dos!
Tuning: EADG
Submitter: drummer_63

1. See You Tonight-No Bass        8. Ashley
2. F*** Time                      9. Baby Eyes         
3. Stop When The Red Lights Flash 10. Lady Cobra
4. Lazy Bones                     11. Nightlife
5. Wild One                       12. Wow! That’s Loud
6. Makeout Party                  13. Amy-No Bass
7. Stray Heart

===============================================================================
F*** Time
===============================================================================
Intro 
G|---------|
D|---5-----|
A|-5---5-7-|
E|---------|

Chorus
G|-----------------------------------------------------------------|
D|---------2-2-4-2---------2-2-4-2---------------------------------|
A|-0-0-4-4---------0-0-4-4-----------------2-2-4-2---------2-2-4-2-|
E|---------------------------------0-0-4-4---------0-0-4-4---------|

G|------------------------------------------44444444-|
D|---------2-2-4-2---------2-2-4-2-------------------|
A|-0-0-4-4---------0-0-4-4---------22222222----------|
E|---------------------------------------------------|

Post-Chorus 1
G|-------------------------------------55555-|
D|-------------------------------------------|
A|----------------------------33333333-------|
E|-00000000-33333333-55555555----------------|

Verse 
G|---------|
D|---5-----|
A|-5---5-7-|
E|---------|

Post-Chorus 2
G|-------------------------------------|
D|-------------------------------------|
A|----------------------------33333333-|
E|-00000000-33333333-55555555----------|

G|-------------------------------------5555555555555555-|
D|------------------------------------------------------|
A|----------------------------33333333------------------|
E|-00000000-33333333-55555555---------------------------|

Outro 
G|---------|
D|---5-----|
A|-5---5-7-|
E|---------|



Intro x6
Chorus x1
Post-Chorus 1 x1
Verse x6
Chorus x1
Post-Chorus 1 x1
Verse x4
Chorus x1
Post-Chorus 2 x1
Outro x5

===============================================================================
Stop When The Red Lights Flash
===============================================================================

Intro 0:14
G|--------------|
D|--------------|
A|---5----------|
E|-5---5-5-3-5--|

Verse
G|-----------------------------------------------------------|
D|---------------55------------------------------------------|
A|-5555555555555----5555555555555555---5-----------5---------|
E|-----------------------------------5---5-5-3-5-5---5-5-3-5-|

Pre-Chorus
G|-----------------------------------|
D|-----------------------------------|
A|-7777777777777777-5555555555555555-|
E|-----------------------------------|

Chorus
G|-------------------------|
D|-------------------------|
A|---5-----------5---------|
E|-5---5-5-3-5-5---5-5-3-5-|

Solo
G|-----------------------------------------------------------|
D|---------------55------------------------------------------|
A|-5555555555555----5555555555555555---5-----------5---------|
E|-----------------------------------5---5-5-3-5-5---5-5-3-5-|

Bridge
G|--------------------------------------------------|
D|--------------------------------------------------|
A|-7777777777777777777777777777777-5555555555555555-|
E|--------------------------------------------------|

Outro
G|-------------------------|
D|-------------------------|
A|---5-----------5---------|
E|-5---5-5-3-5-5---5-5-3-5-|

Play at the end of the outro.
G|-----|
D|-----|
A|-5---|
E|---5-|



Intro x4
Verse x2
Pre-Chorus x1
Chorus x2
Verse x2
Pre-Chorus
Chorus x2
Solo x2
Bridge x1
Outro x4

===============================================================================
Lazy Bones
===============================================================================

Verse 0:27
G--------------------------------------------------------------------------------------|
D----44~-44~-4-77-77~------------------------------------------------------------------|
A-0---------------------------------77-77~--7777---------------------------------------|
E-----------------------77-77~--7~-----------------------------------------------------|

Pre-Chorus
G-------------------------------------------------------------------------------------|
D------------------4444444444444444-7777777777777777-4444444444444444-----------------|
A-------------------------------------------------------------------------------------|
E-5555555555555555--------------------------------------------------------------------|

Chorus
G-------------------------------------------------------------------------------------|
D----------------------4-4-444----------------7777777777777777------------------------|
A-5-5-55-7-7-777-4-4-44---------5-5-55-7-7-777----------------------------------------|
E-------------------------------------------------------------------------------------|

G-------------------------------------------------------------------------------------|
D-----------------------4-4-444-------------------------------------------------------|
A-5-5-55-7-7-777-4-4-44---------5-5-55-7-7-777----------------------------------------|
E-------------------------------------------------------------------------------------|

Interlude
G-------------------------------------------------------------------------------------|
D-4444444444444444-7777777777777777---------------------------------------------------|
A----------------------------------------------------7777777777777777-----------------|
E-----------------------------------7777777777777777----------------------------------|

Verse
G-------------------------------------------------------------------------------------|
D-------------------------------------------------------------------------------------|
A---------------------------------------------------------------7-7-7-7-7-67--7-7-7-7-|
E-2--2--2-2-02--2--202-5--5--5-5-45--5--5-5-7--7-7-5-7-57--7-7-7----------------------|

G-------------------------------------------------------------------------------------|
D-4--4--4-4-24--4--4-2----------------------------------------------------------------|
A----------------------4-----------------------------------------------7--7--7-7-7----|
E------------------------5--5--5-5-45--5--5-4-5-7--7--7-5-7-57--7--7-7----------------|

G-------------------------------------------------------------------------------------|
D-------------------------------------------------------------------------------------|
A-7-7-7-------------------------------------------------------------------------------|
E-------------------------------------------------------------------------------------|

Pre-Chorus
G-------------------------------------------------------------------------------------|
D------------------4444444444444444-7777777777777777-4444444444444444-----------------|
A-------------------------------------------------------------------------------------|
E-5555555555555555--------------------------------------------------------------------|

Chorus
G-------------------------------------------------------------------------------------|
D-----------------------4-4-444----------------7777777777777777-----------------------|
A-5-5-55-7-7-777-4-4-44---------5-5-55-7-7-777----------------------------------------|
E-------------------------------------------------------------------------------------|

G-------------------------------------------------------------------------------------|
D-----------------------4-4-444-------------------------------------------------------|
A-5-5-55-7-7-777-4-4-44---------5-5-55-7-7-777----------------------------------------|
E-------------------------------------------------------------------------------------|

Rest

Bridge 2:28
G-----7642-22222212222222-4-444444244442----------------------------------------------|
D---4-----------------------------------422222222222222-------------------------------|
A-4-----------------------------------------------------------------------------------|
E-------------------------------------------------------------------------------------|

Solo 2:42
G-------------------------------------------------------------------------------------|
D-----------------4444444444444444-7777777777777777-4444444444444444------------------|
A-------------------------------------------------------------------------------------|
E-5555555555555555--------------------------------------------------------------------|

Chorus
G-------------------------------------------------------------------------------------|
D-----------------------4-4-444----------------7777777777777777-----------------------|
A-5-5-55-7-7-777-4-4-44---------5-5-55-7-7-777----------------------------------------|
E-------------------------------------------------------------------------------------|

G-------------------------------------------------------------------------------------|
D-----------------------4-4-444-------------------------------------------------------|
A-5-5-55-7-7-777-4-4-44---------5-5-55-7-7-777--44444420----------5-5-55-7-7-777------|
E--------------------------------------------------------22222222---------------------|

===============================================================================
Wild One
===============================================================================

Intro
G-----------------------------------------------------------------------------|
D--------------------------------------------33333333-------------------------|
A------------------4444444444444444-55555555----------------------------------|
E-5555555555555555------------------------------------5555555555555555--------|

Verse
G-----------------------------------------------------------------------------|
D-------------------------------3-33-3----------------------------------------|
A-------------4-44-44-44-45-55-5----------------------------------------------|
E-5-55-55-55-5------------------------5-55-55-55------------------------------|

G-----------------------------------------------------------------------------|
D--------------------------------------------33333333-------------------------|
A------------------4444444444444444-55555555----------------------------------|
E-5555555555555555------------------------------------5555555555555555--------|

Chorus
G-----------------------------------------------------------------------------|
D-----------------------------------------------------------------------------|
A-55555555----------55555555--------------------------------------------------|
E----------55555555----------55555-5-4-22222222-55555555-33333333-00000-------|

Interlude
G-----------------------------------------------------------------------------|
D--------------------------------------------33333333-------------------------|
A------------------4444444444444444-55555555----------------------------------|
E-5555555555555555------------------------------------5555555555555555--------|

Verse 2
G-----------------------------------------------------------------------------|
D-------------------------------3-33-3----------------------------------------|
A-------------4-44-44-44-45-55-5----------------------------------------------|
E-5-55-55-55-5------------------------5-55-55-55------------------------------|

G-----------------------------------------------------------------------------|
D--------------------------------------------33333333-------------------------|
A------------------4444444444444444-55555555----------------------------------|
E-5555555555555555------------------------------------5555555555555555--------|

Chorus
G-----------------------------------------------------------------------------|
D-----------------------------------------------------------------------------|
A-55555555----------55555555--------------------------------------------------|
E----------55555555----------55555-5-4-22222222-55555555-33333333-00000-------|

Interlude
G-----------------------------------------------------------------------------|
D--------------------------------------------33333333-------------------------|
A------------------4444444444444444-55555555----------------------------------|
E-5555555555555555------------------------------------55555555----------------|

Solo
G-----------------------------------------------------------------------------|
D-------------------------------3-33-3----------------------------------------|
A-------------4-44-44-44-45-55-5----------------------------------------------|
E-5-55-55-55-5------------------------5-55-55-55555---------------------------|

G-----------------------------------------------------------------------------|
D--------------------------------------------33333333-------------------------|
A------------------4444444444444444-55555555----------------------------------|
E-5555555555555555------------------------------------5555555555555555--------|

Chorus
G-----------------------------------------------------------------------------|
D-----------------------------------------------------------------------------|
A-55555555----------55555555--------------------------------------------------|
E----------55555555----------55555-5-4-22222222-55555555-33333333-00000-------|

Outro
G-----------------------------------------------------------------------------|
D--------------------------------------------33333333-------------------------|
A------------------4444444444444444-55555555----------------------------------|
E-5555555555555555------------------------------------5555555555555555--------|

G-----------------------------------------------------------------------------|
D----------33333333-----------------------------------------------------------|
A-55555555--------------------------------------------------------------------|
E-------------------5-55-55---------------------------------------------------|

===============================================================================
Makeout Party
===============================================================================
 
Intro
G|----------------------------|
D|----------------------------|
A|-------3------------3-------|
E|-5-3-5---5-3--5-3-5---5-3-5-|

Verse
G|------------------------------|
D|------------------------------|
A|-------3--------------3-------|
E|-5-3-5---5-3-5--5-3-5---5-3-5-|

G|----------------------------|
D|----------------------------|
A|-------3--------------3-----|
E|-5-3-5---5-3-5--5-3-5---5-3-|

Chorus
G|---------------------------------------------------|
D|---------------------------------------------------|
A|-5-5-5-55555--5-5-5-55555-------3------------3-----|
E|--------------------------5-3-5---5-3--5-3-5---5-3-|

G|--------------------------|
D|--------------------------|
A|-7-7-7-77777--5-5-5-55555-|
E|--------------------------|

G|--------------------------------------------------------|
D|--------------------------------------------------------|
A|-------3------------3--------------3------------3-------|
E|-5-3-5---5-3--5-3-5---5-3-5--5-3-5---5-3--5-3-5---5-3-5-|

Bass Solo 1 2:05
G|-------------------------------|
D|----------------------------57-|
A|-------3--------------35-57----|
E|-5-3-5---0-3-5-3-5-35----------|

Bass Solo 2
G|-----------------------------------|
D|-------------5h77777-75----------¬-|
A|-------3----------------75-5¬3-----|
E|-5-3-5---0-3------------------¬-53-|

G|--------------------------------------------|
D|-----------------------------5¬777777777777-|
A|-------3---------------35-57-¬--------------|
E|-5-3-5---0-3--5-3-5-35-------------¬--------|

G|-----------------------------------------------------|
D|-------------777-555------------------------------57-|
A|-------3-------------777-555-53-¬------------35-57---|
E|-5-3-5---0-3-----------------¬---53-5-3-5-35---------| 



Intro x1
Verse x1
Chorus x1
Intro x1
Verse x1
Chorus x1
Intro x1
Verse x1
Chorus x1
Bass Solo 1 x4
Bass Solo 2 x1
Chorus x1

===============================================================================
Stray Heart
===============================================================================

Intro
G|--------------|   
D|--------------|   
A|-777-77-----7-|
E|-------0h7h9--|

Verse
G|------------------------------------------------------|
D|------------------------------------------------------|    
A|-777-777777-------44-4444-------77-7777---------------|
E|------------444-4---------555-5---------555-5-77-7777-|

Pre-Chorus
G|------------------------------------------------|
D|------------------------------------------------|    
A|------------444-444444---------------777-777777-|
E|-444-444444------------555-5-77-7777------------|

G|------------------------------------------------------------|
D|------------------------------------------------------------|
A|------------444-444444--------------7\----333333333333-5555-|
E|-444-444444------------555-5-77-7777------------------------|

Chorus
G|---------------------------------------------|
D|----------------------------------777-777777-|     
A|-777-777777----------------------------------|
E|------------444-444444-555-555555------------|

Solo
G|----------------------------------------|
D|----------------------------------------|       
A|---------07------------------07---------|
E|-7---------7--------057--------77777777-|

G|------------------------------------------------------|
D|------------------------------------------------------|
A|-777-777777-------44-4444-------77-7777---------------|
E|------------444-4---------555-5---------555-5-77-7777-|

G|---------------------------------------------|
D|----------------------------------777-777777-|     
A|-777-777777----------------------------------|
E|------------444-444444-555-555555------------|

Bridge
G|-----------------------------------------------------|   
D|----------------------------------777-77777777777777-| 
A|-777-777777------------------------------------------|
E|------------444-444444-555-555555--------------------|

Outro
G|--------------|  
D|--------------|    
A|-777-77-----7-|
E|-------0h7h9--|



Intro x2
Verse x2
Pre-Chorus x1
Chorus x2
Intro x2
Verse x2
Pre-Chorus x1
Chorus x2
Solo x1
Pre-Chorus x1
Chorus x3
Bridge x1
Outro x2

===============================================================================
Ashley
===============================================================================

Intro
G|---------------------------------|
D|---------------5555-----55555555-|
A|-77777-555-777------5555---------|
E|---------------------------------|

Verse 1 
G|-------------------------------------|
D|-------------------------------------|
A|-------------------55555555-00000000-|
E|-00000000-33333333-------------------|

G|-------------------------------------|
D|-------------------------------------|
A|-------------------55555555-22222222-|
E|-00000000-33333333-------------------|

G|---------------------------------------------|
D|-------------------77777777------------------|
A|-77777777-55555555----------7777777777777777-|
E|---------------------------------------------|

G|---------------------------------------------|
D|----------77777777---------------------------|
A|-55555555----------7777777777777777----------|
E|---------------------------------------------|

Verse 2
G|-------------------------------------|
D|-------------------------------------|
A|-------------------55555555-00000000-|
E|-00000000-33333333-------------------|

G|-------------------------------------|
D|-------------------------------------|
A|-------------------55555555-22222222-|
E|-00000000-33333333-------------------|

G|---------------------------------------------|
D|-------------------77777777------------------|
A|-77777777-55555555----------7777777777777777-|
E|---------------------------------------------|

G|----------77777777-99999999-9-7---------|
D|--------------------------------9-7-5---|
A|-55555555-----------------------------7-|
E|----------------------------------------|

Pre-Chorus 1                                                            
G|-------------------------------------|
D|-------------------------------------|
A|-33333333----------55555555-77777777-|
E|----------33333333-------------------|

Pre-Chorus 2
G|------------------------------------|
D|------------------------------------|
A|-33333333----------2222222222222222-|
E|----------33333333------------------|

Chorus
G|---------------------------------|
D|---------------5555-----55555555-|
A|-77777-555-777------5555---------|
E|---------------------------------|

Solo
G|---------------------------------|
D|---------------5555-----55555555-|
A|-77777-555-777------5555---------|
E|---------------------------------|

Bridge
G|---------------------------------------------------------------|
D|---------------------------------------------------------------|
A|-------------------------------------33333333------------------|
E|-33333333-00000000-33333333-00000000----------3333333333333333-|

Outro
G|-------------|
D|-------------|
A|-------------|
E|-00-00-00-00-|



Intro x2
Verse 1 x1
Pre-Chorus 1 x3
Pre-Chorus 2 x1
Chorus x4
Solo x4
Bridge x1
Verse 2 x1
Pre-Chorus 1 x3
Pre-Chorus 2 x1
Chorus x4
Outro x1

===============================================================================
Baby Eyes
===============================================================================

Intro                                            
G|-------------------------------|
D|-------------------------------|
A|-22--------------------3333333-|
E|----222-3333333-00-333---------|

Verse                                                             
G|----------------------------------|
D|---------2222222------------------|
A|-2222222---------2222222222222222-|
E|----------------------------------|

G|----------------------------|
D|----------------------------|
A|---------------222222222222-|
E|-00000-2222222--------------|

Chorus 1
G|-------------------------------------------------|
D|-------------------------------------------------|
A|---------------2222-----------------222222222222-|
E|-0000-22222222------0000000000-2222--------------|

G|-----------------------------------------------|
D|-----------------------------------------------|
A|--------------------4444444444444444-----------|
E|-0000-22222222-4444------------------0000-2222-|

Chorus 2
G|-------------------------------------------------|
D|-------------------------------------------------|
A|---------------2222-----------------222222222222-|
E|-0000-22222222------0000000000-2222--------------|

D|-------------------------------------|
G|-------------------------------------|
A|--------------------4444444444444444-|
E|-0000-22222222-4444------------------|

D|-------------------------------------|
G|-------------------------------------|
A|-------------------------------------|
E|-0000-22222222-0000-22222222-0000-2--|

Outro                             Play this at the end of the Outro             
G|-------------------------------|          |---|
D|-------------------------------|          |---|
A|-22--------------------3333333-|          |-2-|
E|----222-3333333-00-333---------|          |---|



Intro x2
Verse x2
Chorus 1 x1
Intro x2
Verse x2
Chorus 2 x1
Outro x4

===============================================================================
Lady Cobra
===============================================================================

Bass starts at 0:06

Intro
G|---------------------------------|
D|---------------------------------| 
A|---------------------------------|
E|-7777777777777-5-7777777777777-5-|

Verse
G|-----------------------------------------------------------------|
D|-----------------------------------------------------------------|
A|-----------------------------------------------------------------|
E|-7777777777777-5-7777777777777-5-7777777777777-5-7777777777777-5-|

Pre-Chorus
G|------------------------------------|
D|------------------------------------|
A|-55555555---------------------------|
E|----------55555555-7777777777777777-|

Chorus
G|---------------------------------------------|
D|---------------------------------------------|
A|---------------------------------------------|
E|-22222222-55555555-22222222-55555555--7----7-|



Intro x1
Verse x2
Pre-Chorus x2
Chrous x1
Intro x1
Verse x1
Pre-Chorus x1
Chorus x1
Verse x1
Pre-Chorus x2
Chorus x1
Verse x1

===============================================================================
Nightlife
===============================================================================

Intro 
G|-----------------------------------------------------|
D|-9--------5-----------5------------------------------|
A|--h7--5h7----5h7--5h7----5--------5--5s7--5h7--stop--|
E|--------------------------h7--5h7--------------------| 

Verse 1
G|-------------------------------------------------|
D|--------5------------5------------------------5~-|
A|-7~--5h7----5h7~--5h7---5---------5--5s7~--5h7---|
E|--------------------------h7~--5h7---------------|

G|--------------------------------------------------|
D|-9--------5------------5------------------------5-| 
A|--h7~--5h7----5h7~--5h7---5---------5--5s7~--5h7--|
E|---------------------------h7~--5h7---------------|

Chorus
G|--------------------------------------------------|
D|-9--------5------------5------------------------5-| 
A|--h7~--5h7----5h7~--5h7---5---------5--5s7~--5h7--|
E|---------------------------h7~--5h7---------------|

G|--------------------------------------------------|
D|-9--------5------------5------------------------5-| 
A|--h7~--5h7----5h7~--5h7---5---------5--5s7~--5h7--|
E|---------------------------h7~--5h7---------------|

Verse 2 
G|--------------------------------------------------|
D|-9--------5------------5------------------------5-| 
A|--h7~--5h7----5h7~--5h7---5---------5--5s7~--5h7--|
E|---------------------------h7~--5h7---------------|

G|--------------------------------------------------|
D|-9--------5------------5------------------------5-| 
A|--h7~--5h7----5h7~--5h7---5---------5--5s7~--5h7--|
E|---------------------------h7~--5h7---------------|

Bridge 
G|---------------------------------------------------|
D|-9h7~--5h7-9--5---------5------------------------5-| 
A|---------------h7~--5h7---5---------5--5s7~--5h7---|
E|---------------------------h7~--5h7----------------|

G|---------------------------------------------------|
D|-9h7~--5h7-9--5---------5--------------------------| 
A|---------------h7~--5h7---5---------5--5----stop---|
E|---------------------------h7~--5h7----------------|

Solo
G|-------------------------------------------------|
D|--------5------------5------------------------5~-|
A|-7~--5h7----5h7~--5h7---5---------5--5s7~--5h7---|
E|--------------------------h7~--5h7---------------|

G|------------------------------------------------------------|
D|-9--------5------------5------------------------5--9~--stop-| 
A|--h7~--5h7----5h7~--5h7---5---------5--5s7~--5h7------------|
E|---------------------------h7~--5h7-------------------------|

Rest Until 2:21

Chorus
G|-------------------------------------------------|
D|--------5------------5------------------------5~-|
A|-7~--5h7----5h7~--5h7---5---------5--5s7~--5h7---|
E|--------------------------h7~--5h7---------------|

G|------------------------------------------------------------|
D|-9--------5------------5------------------------5--9~--stop-| 
A|--h7~--5h7----5h7~--5h7---5---------5--5s7~--5h7------------|
E|---------------------------h7~--5h7-------------------------|

Bass Ends At 2:41

===============================================================================
Wow! That’s Loud
===============================================================================
Intro 0:04
G|------------------|
D|-4444444444444444-|
A|------------------|
E|------------------|

Verse 1
G|---------------------------------------|
D|-444444444444444-244444444444444-2-1---|
A|-------------------------------------4-|
E|---------------------------------------|

G|-------------------------------------|
D|------------------2-4444444444444444-|
A|-222222222222222-4-------------------|
E|-------------------------------------|

Pre-Chorus
G|----------------------|
D|----------44-22-------|
A|----------------44-22-|
E|-55555555-------------|

Chorus
G|------------------------------------|
D|------------------------------------|
A|-22222222222222-33-4444444444444444-|
E|------------------------------------|

Interlude
G|-------------------------------------|
D|-44444444444444444444444444444-2-1---|
A|-----------------------------------4-|
E|-------------------------------------|

Solo
G|-----------------------------------------------|
D|-------------------22-444444-2-4-2-44444-2-1---|
A|-2222222-02222222-4--------------------------4-|
E|-----------------------------------------------|

G|----------------------------66666666-|
D|-------------------------------------|
A|-22222222222222-33-44444444----------|
E|-------------------------------------|

Bridge
G|------------------------|
D|-4--4--4--4--4--4---242-|
A|-------------------4----|
E|------------------------|

Verse 2
G|------------------------------------------------|
D|-4~-----242-4~----44-----------4-----2-4—444444-|
A|-------4-------------2~--1-2~----2-4------------|
E|------------------------------------------------|

Outro
G|-------------------------------------|
D|-44444444444444444444444444444-2-1---|
A|-----------------------------------4-|
E|-------------------------------------|

G|-------------------------------------|
D|-44444444444444444444444444444-2-1---|
A|-----------------------------------4-|
E|-------------------------------------|

Continue this part till the end of the song
G|---------------------|
D|-44444444444444--242-|
A|----------------4----|
E|---------------------|



Intro x1
Verse 1 x1
Pre-Chorus x2
Chorus x1
Verse 1 x1
Pre-Chorus x2
Chorus x1
Interlude x1
Solo x1
Bridge x8
Verse 2 x1
Pre-Chorus x2
Chorus x1
Outro x1
comments
We did not receive enough feedback on this tab! Please rate:
print report bad tab
1 2 3 4 5
1 comment total.
+1 reply
Mazr3y wrote on September 2 2013, 03:45 pm

This tab is so ****in' bitchin' man. Rock solid yo!!!

I want to post or [tab]
guest
You may want to rate the tab now too:
select rating
Please do not post tabs as comments. Select "correction" instead!