Oops, an error
Loading. Please wait.

Dos Tab

ver1
ver1

Album

More versions @911Tabs.com
11,999 views 60 this week
3 commentsread comments
1 2 3 4 5
accurate
x 6
add to favorites launch autoscroll
font size
0
reset
Autoscroll
+/-
esc
set tempo
stop
Contributor
WARNING: You are trying to view
                                    content from Ultimate-Guitar.com
                                    in an unauthorized application,
                                    which is prohibited.

                                    Please use an official Ultimate
                                    Guitar Tabs application for iPhone,
                                    iPad or Android to access legitimate
                                    chords, guitar, bass, and drum tabs
                                    from Ultimate-Guitar.com database.

                                    Type "ultimate guitar tabs" in Apple
                                    App Store's or Android Market's
                                    search to find the application.
This is a compilation of the best tabs from this album.

   Song:                            Tabbed by:
1. See You Tonight                  AwfulHomesick
2. Fuck Time                        GuitarPunk94
3. Stop When The Red Lights Flash   GuitarPunk94
4. Lazy Bones                       deathfromala
5. Wild One                         Unregistered
6. Makeout Party                    GuitarPunk94
7. Stray Heart                      GuitarPunk94
8. Ashley                           GuitarPunk94
9. Baby Eyes                        GuitarPunk94
10.Lady Cobra                       GuitarPunk94
11.Nightlife (Bass Only)            TheHappyGrouch
12.Wow! That's Loud                 drewnolan
13.Amy                              alex090588

===========================================================
See You Tonight
===========================================================

Intro: A Asus4

 
 A         Asus4     A
Maybe I'll see you tonight
 A         Asus4     A
Maybe I'll see you tonight

 A            Asus4        A
Wherever the night takes you
 A            Asus4   A
Maybe you'll see me too

    E                         Asus4          A
The colder it gets, you won't see me anymore
    E                         Asus4               A
But there's still a chance I might walk to your door

Asus4                    A
Maybe the time is not right
E           Asus4      A
I won't be seeing you tonight

 A          Asus4     A
Maybe I'll see you tonight
 A          Asus4     A
Maybe I'll see you tonight



===========================================================
Fuck Time
===========================================================

 Intro/Verse 1:  Chorus:
  |6x*******|
|------------------------------------------------|
|------------------------------------------------|
|----12----9\------------------------------------|
|-12-12-12-9\------------2-2-4-2---------2-2-4-2-|
|-12-10-12-7\----0-0-4-4---------0-0-4-4---------|
|-10----10---------------------------------------|

|--------------------------------------------------|
|--------------------------------------------------|
|--------------------------------------------------|
|------------------------------------------2-2-4-2-|
|---------2-2-4-2---------2-2-4-2--0-0-4-4---------|
|-0-0-4-4---------0-0-4-4--------------------------|

                       Bridge:   
|---------------------------------------------------------|
|-----------------4----------5-5--------------------------|
|-----------------4--------2-5-5--7-12----9\-----12----9\-|
|--------2-2-4-2--4----2-5-2-5-5--7-12-12-9\--12-12-12-9\-|
|0-0-4-4----------2----2-5-0-3-3--5-10-12-7\--12-10-12-7\-|
|----------------------0-3-------------10-----10----10----|
     
      Verse 2:       Chorus:
      |4x*******|
|----------------------------------------------------|
|----------------------------------------------------|
|-2b\----12----9\------------------------------------|
|-----12-12-12-9\------------2-2-4-2---------2-2-4-2-|
|-----12-10-12-7\----0-0-4-4---------0-0-4-4---------|
|-----10----10---------------------------------------|

|--------------------------------------------------|
|--------------------------------------------------|
|--------------------------------------------------|
|------------------------------------------2-2-4-2-|
|---------2-2-4-2---------2-2-4-2--0-0-4-4---------|
|-0-0-4-4---------0-0-4-4--------------------------|

                       Bridge:
|---------------------------------------------|
|-----------------4----------5-5\-------------|
|-----------------4--------2-5-5\--7-12----9\-|
|--------2-2-4-2--4----2-5-2-5-5\--7-12-12-9\-|
|0-0-4-4----------2----2-5-0-3-3\--5-10-12-7\-|
|----------------------0-3--------------10----|

 Solo:
|----------------------------------12-----------|
|------------12-10---------12--12--12-12--15b~\-|
|-2b-2b-2b/\-------12-9-12-14b-14bh---14b-------|
|-----------------------------------------------|
|-----------------------------------------------|
|-----------------------------------------------|

                              |3x***|
|-----------------------------\----X---\---|
|-15b15b15b15b-12p10h---10b~\-\----X---\---|
|--------------------12p------\----X---\---|
|-----------------------------\---(2)--\---|
|-----------------------------\---(2)--\---|
|----------------------------(12)-(0)-(12)-|

|-10--10--------10h--10--10--------10h---17----------|
|-10--10--------10h--10--10--------10h---17----------|
|-12bh12b-------12b1212bh12b-------12b12/19b---------|
|--------12-10--------------12-10-----------21-19-17-|
|-------------12-----------------12------------------|
|----------------------------------------------------|

|17--17--17----------16b15-------------------------12*-|
|17--17--17--15b~--17-----17-15-15b-15p13h15b15-12*----|
|19bh19bh19bh------------------------------------------|
|------------------------------------------------------|
|------------------------------------------------------|
|------------------------------------------------------|

|----------------------------------------|
|-12h~-12-12-12-12~-/16h~-16-16-16-16~\--|
|-14bh~14b14b14b14b~/18bh~18b18b18b18b~\-|
|----------------------------------------|
|----------------------------------------|
|----------------------------------------|

 Bridge:            Outro:
                                |3x*******|
|-------------------------------------------------------------|
|---------------5-5-------------------------------------------|
|-----2-5-----2-5-5--7-12----9\-----12----9\-2b~-----12----9\-|
|-2-5-2-5-2-5-2-5-5--7-12-12-9\--12-12-12-9\------12-12-12-9\-|
|-2-5-0-3-2-5-0-3-3--5-10-12-7\--12-10-12-7\------12-10-12-7\-|
|-0-3-----0-3-------------10-----10----10---------10----10----|



===========================================================
Stop When The Red Lights Flash
===========================================================

 Intro:             Verse 1:
 |12x************|                  |2x*************|
|-----------------------------------------------------|
|-----------------------------------------------------|
|--7----------------7777-12-777777----7---------------|
|7-7-7-xx-7-5-7-xx--7777-12-777777--7-7-7-xx-7-5-7-xx-|
|7-5-7-xx-7-5-7-xx--5555-10-555555--7-5-7-xx-7-5-7-xx-|
|5---5-xx-5-3-5-xx------------------5---5-xx-5-3-5-xx-|

                                     Pre-Chorus:
                  |2x*************|  
|----------------------------------------------|
|----------------------------------------------|
|-7777-12-777777----7----------------9999-7777-|
|-7777-12-777777--7-7-7-xx-7-5-7-xx--9999-7777-|
|-5555-10-555555--7-5-7-xx-7-5-7-xx--7777-5555-|
|-----------------5---5-xx-5-3-5-xx--0000------|

 Chorus:            Verse 2:
 |4x*************|                  |2x*************|
|-----------------------------------------------------|
|-----------------------------------------------------|
|--7----------------7777-12-777777----7---------------|
|7-7-7-xx-7-5-7-xx--7777-12-777777--7-7-7-xx-7-5-7-xx-|
|7-5-7-xx-7-5-7-xx--5555-10-555555--7-5-7-xx-7-5-7-xx-|
|5---5-xx-5-3-5-xx------------------5---5-xx-5-3-5-xx-|

                                     Pre-Chorus:
                  |2x*************|
|----------------------------------------------|
|----------------------------------------------|
|-7777-12-777777----7----------------9999-7777-|
|-7777-12-777777--7-7-7-xx-7-5-7-xx--9999-7777-|
|-5555-10-555555--7-5-7-xx-7-5-7-xx--7777-5555-|
|-----------------5---5-xx-5-3-5-xx--0000------|

 Chorus:            Solo:
 |4x*************|
|-------------------------------------------|
|-------------------10-10-10--10-10--10-10--|
|--7----------------12b12b12b-12b12b-12-11--|
|7-7-7-xx-7-5-7-xx--------------------------|
|7-5-7-xx-7-5-7-xx--------------------------|
|5---5-xx-5-3-5-xx--------------------------|

|--------------------------------------------|
|10-10-10--12-12-12--12-12--14~-17-14--------|
|12b12b12b-14b14b14b-14b14b-16b~-----16-16b\-|
|--------------------------------------------|
|--------------------------------------------|
|--------------------------------------------|

|----------------------------------------------------|
|10-10--10-10-10-10--10-10-10--12-12-12--12-12--14~--|
|12b12b-12b12-12-11--12b12b12b-14b14b14b-14b14b-16b~-|
|----------------------------------------------------|
|----------------------------------------------------|
|----------------------------------------------------|

                               Bridge:
|--------------------------------------------------------|
|14-14-14-14--14-14--------------------------------------|
|16b16-16b16b-16-14-/16~-16~---7/99999-7/99999-777777777-|
|------------------------------7/99999-7/99999-777777777-|
|------------------------------5/77777-5/77777-555555555-|
|--------------------------------------------------------|
                                  ....    ...   ....

 Outro:
  |8x*************|
|---------------------------|
|---------------------------|
|---7------------------7----|
|-7-7-7-xx-7-5-7-xx--7-7-7\-|
|-7-5-7-xx-7-5-7-xx--7-5-7\-|
|-5---5-xx-5-3-5-xx--5---5\-|



===========================================================
Lazy Bones
===========================================================

INTRO IS DRUMS

INTRO+ 1ST VERSE 0:05 (half clean)
e|--9---------><(mute)---11---------X(mute)--------|
B|--10--------14---------12---------9--------------|
G|--9--(x16)--14--(x16)--11--(x16)--9--(x16)-------|
D|--11--------14---------13---------9--------------| X3
A|--9---------12---------11---------7--------------|
E|-------------------------------------------------|
   F#m7      Amaj       Abm7       Emaj




CHORUS 0:40
e|-------------------------------------|
B|-------------------------------------|
G|-------------------------------------|
D|---7-------4-------7-------4---------|
A|---7-(x16)-4-(x16)-7-(x16)-4-(x16)---|
E|---5-------2-------5-------2---------|...

0:52 the D and F# are the only powerchords
e|------------------------------------------|---------------------------------|
B|------------9--9-9-9--5--5-5-5----(elevens|------------9--9-9-9--2----------|
G|--7--7-7-7--9--9-9-9--6--6-6-6--11-111111-|--7--7-7-7--9--9-9-9--2----------|
D|--7--7-7-7--9--9-9-9--6--6-6-6--11-111111-|--7--7-7-7--9--9-9-9--2-(x16)----|
A|--5--5-5-5--7--7-7-7--4--4-4-4--9--9-9-9--|--5--5-5-5--7--7-7-7--0----------|
E|------------------------------------------|---------------------------------|...

1:03
e|------------------------------------------------------------------------------------------|
B|---------------9--9-9-9-9-9--5--5-5-5-5-5-----------------7--7-7-7-7-7--9--9-9-9-9-9------|
G|-7--7-7-7-7-7--9--9-9-9-9-9--6--6-6-6-6-6--11-1111111111--7--7-7-7-7-7--9--9-9-9-9-9------|
D|-7--7-7-7-7-7--9--9-9-9-9-9--6--6-6-6-6-6--11-1111111111--7--7-7-7-7-7--9--9-9-9-9-9------|
A|-5--5-5-5-5-5--7--7-7-7-7-7--4--4-4-4-4-4--9--9-9-9-9-9---5--5-5-5-5-5--7--7-7-7-7-7------|
E|------------------------------------------------------------------------------------------|


    _________________________
  | BACK TO INTRO/1ST VERSE!! |
  | __________________________|



VERSE 2 1:24 (REPEAT EACH CHORD PATTERN TWICE)
e|--9--9---9------X--X---X----11-11--11----X-X--X-----------|
B|--10-10--10----14-14--14----12-12--12----9-9--9-----------|
G|--9--9---9-----14-14--14----11-11--11----9-9--9-----------|
D|--11-11--11----14-14--14----13-13--13----9-9--9-----------|
A|--9--9---9-----12-12--12----11-11--11----7-7--7-----------|
E|----------------------------------------------------------|

1:36-1:46 
ONLY ONE STRUM + GTR 2 COMES IN
(REPEAT ONE STRUMS 4TIMES. 3 STRUM 2 TIMES.)
e|-----9------X-----11-11--11----X-X--X--------|
B|-----10----14-----12-12--12----9-9--9--------|
G|-----9-----14-----11-11--11----9-9--9--------|
D|-----11----14-----13-13--13----9-9--9--------|
A|-----9-----12-----11-11--11----7-7--7--------|
E|---------------------------------------------|
GUITAR 2 ARPEGIO PART (1:36 - 1:46)
e|--2~--2------5~-----------7~----------------9~---7-7-7-7-7-----|
B|--2~----2----5~-----------7~--------7-------9~---7-7-7-7-7-----|
G|--X-------2--X-----6------X~----------------X~---X-X-X-X-X-----|
D|--4~---------7~------7----9~--7-9-7----9-7--11~--9-9-9-9-9-----|
A|-----------------7---------------------------------------------|
E|---------------------------------------------------------------|


    _________________________
  | BACK TO CHORUS!!          |
  | __________________________|



    _________________________________________________________
  | BACK TO INTRO/1ST VERSE!! 2X (QUIETER FOR DISTANT EFFECT)|
  | SECOND TIME IS PLAYED WITH GTR 2 ARPEGIO PART            |
   __________________________________________________________




SOLO 2:44
(GUITAR 1 PLAYS NORMAL CHORUS SOON TO BE 
JOINED IN WITH GUITAR 2 AT 2:55 WITH VOCALS)
GTR 1
e|-------------------------------------|
B|-------------------------------------|
G|-------------------------------------|
D|---7-------4-------7-------4---------|
A|---7-(x16)-4-(x16)-7-(x16)-4-(x16)---|
E|---5-------2-------5-------2---------|
GTR 2
e|----------------------------------------------------------------------|
B|----------------------------------------------------------------------|
G|-9-9-9-9-9-9-9-9-9-9-9-9-11-11-11-11-6-6-6-6-6-6-6-6-6-6-6-6-6-6-6-6--|
D|----------------------------------------------------------------------|
A|----------------------------------------------------------------------|
E|----------------------------------------------------------------------|
CONTINUED                                                              ||
e|--------------------------------------------------------------------------------------|
B|--------------------------------------------------------------------------------------|
G|-9-9-9-9-9-9-9-9-9-9-9-9-14-14-14-14-11-11-11-11-11-11-11-11-11-11-11-11-11-11-11-11--|
D|--------------------------------------------------------------------------------------|
A|--------------------------------------------------------------------------------------|
E|--------------------------------------------------------------------------------------|


    ______________________________________
  | BACK TO CHORUS!! (2ND PART )          |
  | BUT DO NOT END ON THE 7999 CHORD..    |
  | AND CONTINUE ON WITH THE 5776 + 9111111
  | ______________________________________|



    __________________________________
  | BACK TO INTRO/1ST VERSE!!         |
  | AND END WITH ONE SINGLE F#m7 CHORD|
  _____________________________________




===========================================================
Wild One
===========================================================

INTRO
Guitar 1
e|-------------------------------------------------------------------------------|
B|-------------------------------------------------------------------------------|
G|-------------------6666666666666666-77777777-1010101010101010------------------|
D|--7777777777777777-6666666666666666-77777777-1010101010101010-777777777777-7~~-|
A|--7777777777777777-4444444444444444-55555555-8-8-8-8-8-8-8-8--777777777777-7~~-|
E|--5555555555555555--------------------------------------------555555555555-5~~-|

Guitar 2
e|------------------------------------------------------------------------------------|
B|--5--x-55--x-555555-9pb99-666666666666-9pb999-77777777-6pb6666666-5pb55555555555-5\-|
G|------------------------------------------------------------------------------------|
D|------------------------------------------------------------------------------------|
A|------------------------------------------------------------------------------------|
E|------------------------------------------------------------------------------------|

VERSE (BOTH GUITARS)

e|----------------------------------------------------------|
B|----------------------------------------------------------|
G|--------------------------6~-x-66~-x-66~-x-66~-x-67~-x-77~|
D|--7~-x-77~-x-77~-x-77~-x-76~-x-66~-x-66~-x-66~-x-67~-x-77~|
A|--7~-x-77~-x-77~-x-77~-x-74~-x-44~-x-44~-x-44~-x-45~-x-55~|
E|--5~-x-55~-x-55~-x-55~-x-5--------------------------------|

--------------------------------------------|
--------------------------------------------|
-x-710~-x-1010~-x-10------------------------|
-x-710~-x-1010~-x-107~-x-77~-x-77~-x-77~-xx-|
-x-58-~-x-8-8-~-x-8-7~-x-77~-x-77~-x-77~-xx-|
--------------------5~-x-55~-x-55~-x-55~-xx-|

PRE-CHORUS (BOTH GUITARS)
e|-------------------------------------------------------------------------------|
B|-------------------------------------------------------------------------------|
G|-------------------6666666666666666-77777777-1010101010101010------------------|
D|--7777777777777777-6666666666666666-77777777-1010101010101010-7777777777777777-|
A|--7777777777777777-4444444444444444-55555555-8-8-8-8-8-8-8-8--7777777777777777-|
E|--5555555555555555--------------------------------------------5555555555555555-|

CHORUS (BOTH GUITARS)
e|--------------------------------------------------------------------------|
B|--------------------------------------------------------------------------|
G|--77777777----------77777777----------------------------------------------|
D|--77777777-77777777-77777777-77777766-44444444-77777777-55555555-222222xx-|
A|--55555555-77777777-55555555-77777766-44444444-77777777-55555555-222222xx-|
E|-----------55555555----------55555544-22222222-55555555-33333333-000000xx-|

INTERLUDE
Guitar 1
e|-------------------------------------------------------------------------------|
B|-------------------------------------------------------------------------------|
G|-------------------6666666666666666-77777777-1010101010101010------------------|
D|--7777777777777777-6666666666666666-77777777-1010101010101010-777777777777-7~~-|
A|--7777777777777777-4444444444444444-55555555-8-8-8-8-8-8-8-8--777777777777-7~~-|
E|--5555555555555555--------------------------------------------555555555555-5~~-|

Guitar 2
e|------------------------------------------------------------------------------------|
B|--5--x-55--x-555555-9pb99-666666666666-9pb999-77777777-6pb6666666-5pb55555555555-5\-|
G|------------------------------------------------------------------------------------|
D|------------------------------------------------------------------------------------|
A|------------------------------------------------------------------------------------|
E|------------------------------------------------------------------------------------|

VERSE 2 (BOTH GUITARS)

e|-----------------------------------------------------------------|
B|-----------------------------------------------------------------|
G|--------------------------6~-x-66~-x-66~-x-66~-x-67~-x-77~-x-710~|
D|--7~-x-77~-x-77~-x-77~-x-76~-x-66~-x-66~-x-66~-x-67~-x-77~-x-710~|
A|--7~-x-77~-x-77~-x-77~-x-74~-x-44~-x-44~-x-44~-x-45~-x-55~-x-58-~|
E|--5~-x-55~-x-55~-x-55~-x-5---------------------------------------|

-------------------------------------|
-------------------------------------|
-x-1010~-x-10------------------------|
-x-1010~-x-107~-x-77~-x-77~-x-77~-xx-|
-x-8-8-~-x-8-7~-x-77~-x-77~-x-77~-xx-|
-------------5~-x-55~-x-55~-x-55~-xx-|


PRE-CHORUS (BOTH GUITARS)
e|-------------------------------------------------------------------------------|
B|-------------------------------------------------------------------------------|
G|-------------------6666666666666666-77777777-1010101010101010------------------|
D|--7777777777777777-6666666666666666-77777777-1010101010101010-7777777777777777-|
A|--7777777777777777-4444444444444444-55555555-8-8-8-8-8-8-8-8--7777777777777777-|
E|--5555555555555555--------------------------------------------5555555555555555-|

CHORUS (BOTH GUITARS)
e|--------------------------------------------------------------------------|
B|--------------------------------------------------------------------------|
G|--77777777----------77777777----------------------------------------------|
D|--77777777-77777777-77777777-77777766-44444444-77777777-55555555-222222xx-|
A|--55555555-77777777-55555555-77777766-44444444-77777777-55555555-222222xx-|
E|-----------55555555----------55555544-22222222-55555555-33333333-000000xx-|

PRE-SOLO
Guitar 1
e|-------------------------------------------------------------------------------|
B|-------------------------------------------------------------------------------|
G|-------------------6666666666666666-77777777-1010101010101010------------------|
D|--7777777777777777-6666666666666666-77777777-1010101010101010-777777777777-7~~-|
A|--7777777777777777-4444444444444444-55555555-8-8-8-8-8-8-8-8--777777777777-7~~-|
E|--5555555555555555--------------------------------------------555555555555-5~~-|

Guitar 2
e|-------------------------------------------------------------------------------------|
B|--5--x-55--x-555555-9pb99-666666666666-9pb999-77777777-6pb6666666-5pb55555555555-5~~-|
G|-------------------------------------------------------------------------------------|
D|-------------------------------------------------------------------------------------|
A|-------------------------------------------------------------------------------------|
E|-------------------------------------------------------------------------------------|

SOLO
Guitar 1
e|-------------------------------------------------------------------------|
B|-------------------------------------------------------------------------|
G|--------------------------6~-x-66~-x-66~-x-66~-x-67~-x-77~-x-710~-x-1010~|
D|--7~-x-77~-x-77~-x-77~-x-76~-x-66~-x-66~-x-66~-x-67~-x-77~-x-710~-x-1010~|
A|--7~-x-77~-x-77~-x-77~-x-74~-x-44~-x-44~-x-44~-x-45~-x-55~-x-58-~-x-8-8-~|
E|--5~-x-55~-x-55~-x-55~-x-5-----------------------------------------------|

-----------------------------|
-----------------------------|
-x-10------------------------|
-x-107~-x-77~-x-77~-x-77~-xx-|
-x-8-7~-x-77~-x-77~-x-77~-xx-|
-----5~-x-55~-x-55~-x-55~-xx-|

e|-------------------------------------------------------------------------------|
B|-------------------------------------------------------------------------------|
G|-------------------6666666666666666-77777777-1010101010101010------------------|
D|--7777777777777777-6666666666666666-77777777-1010101010101010-7777777777777777-|
A|--7777777777777777-4444444444444444-55555555-8-8-8-8-8-8-8-8--7777777777777777-|
E|--5555555555555555--------------------------------------------5555555555555555-|

Guitar 2
e|---------------------------------------------------------------|
B|---------------------------------------------------------------|
G|--6-9-6pbr-6-4-2-6-9-6pbr-6-4-2-4-2~-4-4pbr-2-------2/6\2/6pbr-|
D|----------------------------------------------3-2~~------------|
A|---------------------------------------------------------------|
E|---------------------------------------------------------------|

e|-------------------------------------------------------------------------|
B|--5--x-55-x-555555-13pb1313-999999999999-13b131312-101010101010-12121212-|
G|-------------------------------------------------------------------------|
D|-------------------------------------------------------------------------|
A|-------------------------------------------------------------------------|
E|-------------------------------------------------------------------------|

-------------------------12------------|
-13131313-12-10-12-10-12----12-10-12pb-|
---------------------------------------|
---------------------------------------|
---------------------------------------|
---------------------------------------|


LAST CHORUS
Guitar 1
e|--------------------------------------------------------------------------|
B|--------------------------------------------------------------------------|
G|--77777777----------77777777----------------------------------------------|
D|--77777777-77777777-77777777-77777766-44444444-77777777-55555555-222222xx-|
A|--55555555-77777777-55555555-77777766-44444444-77777777-55555555-222222xx-|
E|-----------55555555----------55555544-22222222-55555555-33333333-000000xx-|

e|-------------------------------------------------------------------------------|
B|-------------------------------------------------------------------------------|
G|-------------------6666666666666666-77777777-1010101010101010------------------|
D|--7777777777777777-6666666666666666-77777777-1010101010101010-7777777777777777-|
A|--7777777777777777-4444444444444444-55555555-8-8-8-8-8-8-8-8--7777777777777777-|
E|--5555555555555555--------------------------------------------5555555555555555-|

e|-------------------------------------------|
B|-------------------------------------------|
G|--77777777-1010101010101010----------------|
D|--77777777-1010101010101010-7~-x-77~-x-77~-|
A|--55555555-8-8-8-8-8-8-8-8--7~-x-77~-x-77~-|
E|----------------------------5~-x-55~-x-55~-|

Guitar 2
e|--------------------------------------------------------------------------|
B|--------------------------------------------------------------------------|
G|--77777777----------77777777----------------------------------------------|
D|--77777777-77777777-77777777-77777766-44444444-77777777-55555555-222222xx-|
A|--55555555-77777777-55555555-77777766-44444444-77777777-55555555-222222xx-|
E|-----------55555555----------55555544-22222222-55555555-33333333-000000xx-|

e|-------------------------------------------------------------------------------------|
B|--5--x-55--x-555555-9pb99-666666666666-9pb999-77777777-6pb6666666-5pb55555555555-5~~-|
G|-------------------------------------------------------------------------------------|
D|-------------------------------------------------------------------------------------|
A|-------------------------------------------------------------------------------------|
E|-------------------------------------------------------------------------------------|

e|-------------------------------------|
B|--77777777-6pb6666666----------------|
G|-------------------------------------|
D|----------------------7~-x-77~-x-77~-|
A|----------------------7~-x-77~-x-77~-|
E|----------------------5~-x-55~-x-55~-|



===========================================================
Makeout Party
===========================================================

Key:
-  - Nothing
~  - Let notes ring
7b - Bend string to fret
h  - Hammer on
x  - Mute strings
p  - Pull off
/ - Slide up or down




  Intro:         Verse 1:
  |4x*********|      |3x************|
|---------------------------------------------------|
|---------------------------------------------------|
|---------------------------------------------------|
|-7x5x7x10x7x5x--7\--7x5x7x10x7x5x-7\--7x5x7x10x7x0-|
|-7x5x7x10x7x5x--7\--7x5x7x10x7x5x-7\--7x5x7x10x7x0-|
|-5x3x5x8-x5x3x--5\--5x3x5x8-x5x3x-5\--5x3x5x8-x5x0-|

  Chorus:
|----------------------------------------------------------|
|----------------------------------------------------------|
|-7-7-7-7777777--7-7-7-7777777-----------------------------|
|-7-7-7-7777777--7-7-7-7777777--7x5x7x10x7x5x-7x5x7x10x7x0-|
|-5-5-5-5555555--5-5-5-5555555--7x5x7x10x7x5x-7x5x7x10x7x0-|
|-------------------------------5x3x5x8-x5x3x-5x3x5x8-x5x0-|

                                            Verse 2:
                                            |4x************|
|------------------------------------------------------------|
|------------------------------------------------------------|
|-9-9-9-9999999--7-7-7-77777---------------------------------|
|-9-9-9-9999999--7-7-7-77777--7x5x7x10x7x5x-7x5x7x10x7x5x-7\-|
|-7-7-7-7777777--5-5-5-55555--7x5x7x10x7x5x-7x5x7x10x7x5x-7\-|
|-0-0-0-0000000---------------5x3x5x8-x5x3x-5x3x5x8-x5x3x-5\-|

                Chorus:
|------------------------------------------------------------------------|
|------------------------------------------------------------------------|
|---------------7-7-7-7777777--7-7-7-7777777-----------------------------|
|-7x5x7x10x7x0--7-7-7-7777777--7-7-7-7777777--7x5x7x10x7x5x-7x5x7x10x7x0-|
|-7x5x7x10x7x0--5-5-5-5555555--5-5-5-5555555--7x5x7x10x7x5x-7x5x7x10x7x0-|
|-5x3x5x8-x5x0--------------------------------5x3x5x8-x5x3x-5x3x5x8-x5x0-|

|---------------------------------------------------------|
|---------------------------------------------------------|
|-9-9-9-9999999--7-7-7-77777------------------------------|
|-9-9-9-9999999--7-7-7-77777--7x5x7x10x7x5x-7x5x7x10x7x5x-|
|-7-7-7-7777777--5-5-5-55555--7x5x7x10x7x5x-7x5x7x10x7x5x-|
|-0-0-0-0000000---------------5x3x5x8-x5x3x-5x3x5x8-x5x3x-|

 Guitar-Solo:
|--------------------------------------------------------|
|-5-5--5--5--5-5-\---------------5-5-5--5-5--5--5-5h---5-|
|-7b7b-7b-7b-7b7b\---------------7b7b7b-7b7b-7b-7b7b-7-6-|
|------------------7x5x7x10x7x5x-------------------------|
|------------------7x5x7x10x7x5x-------------------------|
|------------------5x3x5x8-x5x3x-------------------------|

|----------------------------------------------------|
|---------------5-5-5-/10--10--10-10-\---------------|
|---------------7b7b7b/12b-12b-12b12b\---------------|
|-7x5x7x10x7x5x------------------------7x5x7x10x7x5x-|
|-7x5x7x10x7x5x------------------------7x5x7x10x7x5x-|
|-5x3x5x8-x5x3x------------------------5x3x5x8-x5x3x-|

|-***17-***-------------------------------------------------------------|
|-***20b***--------------10--10--10~--12h13h15p--12h13h15p--12h13h15p---|
|------------------------12b-12b-12b~----------14---------14---------14-|
|-----------7x5x7x10x7x0------------------------------------------------|
|-----------7x5x7x10x7x0------------------------------------------------|
|-----------5x3x5x8-x5x0------------------------------------------------|

|---------------------------------------------------55-|
|12h13h15p--12h13h15p--12h13h15p---13b--------------55-|
|---------14---------14---------14------55h7p5--5-7b---|
|---------------------------------------------7--------|
|------------------------------------------------------|
|------------------------------------------------------|

|-------------------------------------------------------------------(5)~----|
|-------------------------------------12--12--12~--12-/17--17--17-----------|
|5h7p5--------------------------------14b-14b-14b~-14b/19b-19b-19b----------|
|-----7-5-------------------------------------------------------------------|
|---------7-5-3-0-------------------------------------------------\---------|
|-----------------3-0-/5~\3~/5~/8~\5/-----------------------------\-(5)~-/\-|

 Bass-Solo (2.15 min.):
|--------------------------------------------------------------|
|--------------------------------------------------------------|
|---------------------------2----------------------------------|
|-------------------------25-----------------------------------|
|----0-3--------------35-5---------0-3--------------35-5h7p530-|
|5-3-----0-3--5-3-5-35---------5-3-----0-3--5-3-5-35-----------|

|------------------------------------------------------------|
|------------------------------------------------------------|
|------------------------------------------------------------|
|-------------5h777777-75---------------------------------25-|
|----0-3-----------------75530-------0-3--------------35-5---|
|5-3-----0-3------------------3--5-3-----0-3--5-3-5-35-------|

|---------------------------------------------------------------------------|
|---------------------------------------------------------------------------|
|-------------------------------------------------------------------------2-|
|7777-7777-7777-77/\---------------777-555------------------------------25--|
|-------------------------0-3--------------777-555-5-3-0------------35-5----|
|---------------------5-3-----0-3------------------------3--5-3-5-35--------|

  Chorus:
|----------------------------------------------------------|
|----------------------------------------------------------|
|-7-7-7-7777777--7-7-7-7777777-----------------------------|
|-7-7-7-7777777--7-7-7-7777777--7x5x7x10x7x5x-7x5x7x10x7x0-|
|-5-5-5-5555555--5-5-5-5555555--7x5x7x10x7x5x-7x5x7x10x7x0-|
|-------------------------------5x3x5x8-x5x3x-5x3x5x8-x5x0-|

                              Outro:
                              |4x*********|
|----------------------------------------------|
|----------------------------------------------|
|-9-9-9-9999999--7-7-7-77777-------------------|
|-9-9-9-9999999--7-7-7-77777--7x5x7x10x7x5x-7\-|
|-7-7-7-7777777--5-5-5-55555--7x5x7x10x7x5x-7\-|
|-0-0-0-0000000---------------5x3x5x8-x5x3x-5\-|




===========================================================
Stray Heart
===========================================================

 Verse 1: Pre-Chorus:
|-7---7---4-4-4-4-4-4-4-4-0-0-2-2-7-7-7-7---4-4-4-4-|
|-9---9---4-4-4-4-5-5-5-5-2-2-4-4-9-9-9-9---4-4-4-4-|
|-9---9---4-4-4-4-6-6-6-6-2-2-4-4-9-9-9-9---4-4-4-4-|
|-9---9---6-6-6-6-6-6-6-6-2-2-4-4-9-9-9-9---6-6-6-6-|
|-7---7---6-6-6-6-4-4-4-4-0-0-2-2-7-7-7-7---6-6-6-6-|
|---------4-4-4-4---------------------------4-4-4-4-|

                         Chorus:
                                  |2x***************|
|4-4-4-4-0-0-0-0-0-------33333355-7777-4444-0000-0000-0-|
|5-5-5-5-2-2-2-2-1-------55555577-9999-4444-2222-1111-1-|
|6-6-6-6-2-2-2-2-2-------55555577-9999-4444-2222-2222-2-|
|6-6-6-6-2-2-2-2-2-------55555577-9999-6666-2222-2222-2-|
|4-4-4-4-0-0-0-0-0-------33333355-7777-6666-0000-0000-0-|
|--------------------------------------4444-------------|

 Verse 2: Pre-Chorus:
|-7---7---4-4-4-4-4-4-4-4-0-0-2-2-7-7-7-7---4-4-4-4-|
|-9---9---4-4-4-4-5-5-5-5-2-2-4-4-9-9-9-9---4-4-4-4-|
|-9---9---4-4-4-4-6-6-6-6-2-2-4-4-9-9-9-9---4-4-4-4-|
|-9---9---6-6-6-6-6-6-6-6-2-2-4-4-9-9-9-9---6-6-6-6-|
|-7---7---6-6-6-6-4-4-4-4-0-0-2-2-7-7-7-7---6-6-6-6-|
|---------4-4-4-4---------------------------4-4-4-4-|

                         Chorus:
                                  |2x***************|
|4-4-4-4-0-0-0-0-0-------33333355-7777-4444-0000-0000-0000-|
|5-5-5-5-2-2-2-2-1-------55555577-9999-4444-2222-1111-1111-|
|6-6-6-6-2-2-2-2-2-------55555577-9999-4444-2222-2222-2222-|
|6-6-6-6-2-2-2-2-2-------55555577-9999-6666-2222-2222-2222-|
|4-4-4-4-0-0-0-0-0-------33333355-7777-6666-0000-0000-0000-|
|--------------------------------------4444----------------|

 Solo:
|-/7~7~7~7~\----------/7~7~7~7~/11~11~/13b14~13b14~\-|
|-----------/7~7~7~7~\-------------------------------|
|----------------------------------------------------|
|----------------------------------------------------|
|----------------------------------------------------|
|----------------------------------------------------|

|4-4-4--4-4-44444-4-4-4--4444-4444444------------------------|
|5-5-5--5-5-55555-4-4-4--44h5-5555555-55-44-2-0-/55-44-22-00-|
|4-4-4--4-4-44444-4-4-4--4444-4444444------------------------|
|------------------------------------------------------------|
|------------------------------------------------------------|
|------------------------------------------------------------|

|-----------------4-4-4-4444h7-444--4-4-4--4444-4444444-|
|-222-20-000-000--5-5-5-5555-5-555--4-4-4--44h5-5555555-|
|-----------------4-4-4-4444-4-444--4-4-4--4444-4444444-|
|-------------------------------------------------------|
|-------------------------------------------------------|
|-------------------------------------------------------|

|5-5-5--544-44-444-----------------------------|
|5-5-5--555-55-555--5--5--5-/7--7-7-7--7-7-7-\-|
|6-6-6--644-44-444--7b-7b-7b/9b-9b9b9b-9b9b9b\-|
|----------------------------------------------|
|----------------------------------------------|
|----------------------------------------------|

 Pre-Chorus:
|4444-4444-000-2222-7777--4444-4444-0000-0----------|
|4444-5555-222-4444-9999--4444-5555-2222-1----------|
|4444-6666-222-4444-9999--4444-6666-2222-2----------|
|6666-6666-222-4444-9999--6666-6666-2222-2----------|
|6666-4444-000-2222-7777--6666-4444-0000-0----------|
|4444---------------------4444----------------------|

 Chorus:
          |3x***************|
|33333355-7777-4444-0000-0000-------------------------4\-7--7\|
|55555577-9999-4444-2222-1111-/55554/55554/55554/5555-5\-9--9\|
|55555577-9999-4444-2222-2222-------------------------4\-9--9\|
|55555577-9999-6666-2222-2222----------------------------9--9\|
|33333355-7777-6666-0000-0000----------------------------7--7\|
|--------------4444-------------------------------------------|



===========================================================
Ashley
===========================================================

 Chorus:         Verse 1:
 |2x**********|
|---------------------------------------------------|
|---------------------------------------------------|
|9---9-12----12-----------------------------------9-|
|9-7-9-12-12-12------------------------7--------7-9-|
|7-7-7-10-12-10------5-0------5----7-5---7--7-5---7-|
|--5------10-----0-3------0-3---7-------------------|

  Pre-Chorus:     Chorus:
  |3x***|         |4x**********|
|--------------------------------|
|--------------------------------|
|-5---7-9--5---4--9---9-12----12-|
|-5-5-7-9--5-5-4--9-7-9-12-12-12-|
|-3-5-5-7--3-5-2--7-7-7-10-12-10-|
|---3--------3------5------10----|

 Solo:
 |4x**************************|
|-------------------------------|
|5---5------5-555/8888----8810b-|
|-4-4-44/777----------7777------|
|-------------------------------|
|-------------------------------|
|-------------------------------|

 Bridge:        Verse 2:
|----------------------------------------------------|
|----------------------------------------------------|
|--------5---2-------------------------------------9-|
|5-2-5-2-5-5-2--------------------------7--------7-9-|
|5-2-5-2-3-5-0------5-0------5------7-5---7--7-5---7-|
|3-0-3-0---3----0-3------0-3---7---------------------|

  Pre-Chorus:     Chorus:         Outro:
  |3x***|         |4x**********|
|-----------------------------------------------|
|-----------------------------------------------|
|-5---7-9--5---4--9---9-12----12----------------|
|-5-5-7-9--5-5-4--9-7-9-12-12-12--22-22-22-22/\-|
|-3-5-5-7--3-5-2--7-7-7-10-12-10--22-22-22-22/\-|
|---3--------3------5------10-----00-00-00-00---|




===========================================================
Baby Eyes
===========================================================

  Intro:                        Verse 1:
|--------------------------------------------|
|--------------------------------------------|
|-4---------5-4b-4~--------5-4b-4~9-4------4-|
|-4-4-5-2-5-5------4-5-2-5-5------9-4--2-4-4-|
|-2-4-5-2-5-3------4-5-2-5-3------7-2--2-4-2-|
|---2-3-0-3--------2-3-0-3-------------0-2---|

                Chorus:
|-------------------------------------------|
|-------------------------------------------|
|-4-9-4------4------4-------4--------6------|
|-4-9-4--2-4-4--2-4-4-2-2-4-4--2-4-6-6--2-4-|
|-2-7-2--2-4-2--2-4-2-2-2-4-2--2-4-6-4--2-4-|
|--------0-2----0-2---0-0-2----0-2-4----0-2-|

                                Verse 2:
|--------------------------------------------|
|--------------------------------------------|
|-4---------5-4b-4~--------5-4b-4~9-4------4-|
|-4-4-5-2-5-5------4-5-2-5-5------9-4--2-4-4-|
|-2-4-5-2-5-3------4-5-2-5-3------7-2--2-4-2-|
|---2-3-0-3--------2-3-0-3-------------0-2---|

                Chorus:
|---------------------------------------------------|
|---------------------------------------------------|
|-4-9-4------4------4-------4--------6--------------|
|-4-9-4--2-4-4--2-4-4-2-2-4-4--2-4-6-6--2-4-2-4-2-4~|
|-2-7-2--2-4-2--2-4-2-2-2-4-2--2-4-6-4--2-4-2-4-2-4~|
|--------0-2----0-2---0-0-2----0-2-4----0-2-0-2-0-2~|

  Outro:
              |3x**********|
|----------------------------------|
|----------------------------------|
|-4---------5-4b-4~--------5-4b----|
|-4-4-5-2-5-5------4-5-2-5-5----9\-|
|-2-4-5-2-5-3------4-5-2-5-3----9\-|
|---2-3-0-3--------2-3-0-3------7\-|



===========================================================
Lady Cobra
===========================================================

  Intro/Verse 1: Chorus:
       |11x**|   |2x***************|
|------------------------------------------------|
|------------------------------------------------|
|----------------x7x7x---------------------------|
|-9x9x-7-x9x9x-7-x7x7x-x7x7x-x9x9x-7-x4x4x-x7x7x-|
|-9x9x-7-x9x9x-7-x5x5x-x7x7x-x9x9x-7-x4x4x-x7x7x-|
|-7x7x-5-x7x7x-5-------x5x5x-x7x7x-5-x2x2x-x5x5x-|

                      Verse 2:
                      |3x***|
|-----------------------------------------------------|
|-----------------------------------------------------|
|-----------------------------4/6/8/9/11\9\8~---------|
|-x4x4x-x7x7x-8-9--9--7-x9x9x-----------------x9x9x-7-|
|-x4x4x-x7x7x-8-9--9--7-x9x9x-----------------x9x9x-7-|
|-x2x2x-x5x5x-6-7--7--5-x7x7x-----------------x7x7x-5-|

                                  Chorus:
|-------------------------------------------------------------------|
|-------------------------------------------------------------------|
|-4/6/8/9/11\9\8~-x9x9x---------------------------------------------|
|-----------------x9x9x-7-x9x9x-7-x4x4x-x7x7x-x4x4x-x7x7x-8-9--9--7-|
|-----------------x7x7x-7-x9x9x-7-x4x4x-x7x7x-x4x4x-x7x7x-8-9--9--7-|
|-----------------------5-x7x7x-5-x2x2x-x5x5x-x2x2x-x5x5x-6-7--7--5-|

  Solo:
|------------------------------------------------18b-|
|-----------15b-------------------------------17b----|
|-/11~/16~16---14b--14b14b14b14b-17b17b17b1716-------|
|----------------------------------------------------|
|----------------------------------------------------|
|----------------------------------------------------|

  Chorus:
    |2x***************|
|------------------------------------------------------|
|------------------------------------------------------|
|---x7x7x----------------------------------------------|
|-7-x7x7x-x7x7x-x9x9x-7-x4x4x-x7x7x-x4x4x-x7x7x-8-9--9-|
|-7-x5x5x-x7x7x-x9x9x-7-x4x4x-x7x7x-x4x4x-x7x7x-8-9--9-|
|-5-------x5x5x-x7x7x-5-x2x2x-x5x5x-x2x2x-x5x5x-6-7--7-|

  Outro:
  |4x***|
|--------------|
|--------------|
|--------------|
|-7-x9x9x-7-9\-|
|-7-x9x9x-7-9\-|
|-5-x7x7x-5-7\-|




===========================================================
Nightlife
===========================================================

Chorus 0:09 "My favourite color's candy apple, girl"
G|------------------------------------------------------|
D|--9--------5-----------5------------------------------|
A|---h7--5h7----5h7--5h7----5--------5--5s7--5h7--stop--|
E|---------------------------h7--5h7--------------------| 

Girl Verse 0:21 "What's that I hear? You wanna go for a ride?" 
G|---------------------------------------------------|
D|----------5------------5------------------------5~-|
A|---7~--5h7----5h7~--5h7---5---------5--5s7~--5h7---|
E|----------------------------h7~--5h7---------------|

"I'll be the devil on your shoulder saying"
G|--------------------------------------------------|
D|-9--------5------------5------------------------5-| 
A|--h7~--5h7----5h7~--5h7---5---------5--5s7~--5h7--|
E|---------------------------h7~--5h7---------------|

Chorus 0:40 "Taking a ride to my old haunt"
G|--------------------------------------------------|
D|-9--------5------------5------------------------5-| 
A|--h7~--5h7----5h7~--5h7---5---------5--5s7~--5h7--|
E|---------------------------h7~--5h7---------------|

"My favourite color's candy apple, girl"
G|--------------------------------------------------|
D|-9--------5------------5------------------------5-| 
A|--h7~--5h7----5h7~--5h7---5---------5--5s7~--5h7--|
E|---------------------------h7~--5h7---------------|

Girl Verse 1:00 "Short of breath, Heart beats fast"
G|--------------------------------------------------|
D|-9--------5------------5------------------------5-| 
A|--h7~--5h7----5h7~--5h7---5---------5--5s7~--5h7--|
E|---------------------------h7~--5h7---------------|

"Red velvet walls, Line the sugar-coated halls"
G|--------------------------------------------------|
D|-9--------5------------5------------------------5-| 
A|--h7~--5h7----5h7~--5h7---5---------5--5s7~--5h7--|
E|---------------------------h7~--5h7---------------|

BJA Verse 1:21 "Well I am rollin', strollin' into town"
G|-----------4--------------------------------------|
D|-9h7~--5h7---5---------5------------------------5-| 
A|---------------h7~--5h7---5---------5--5s7~--5h7--|
E|---------------------------h7~--5h7---------------|

"This dirty city is my sugar town"
G|-----------4--------------------------------------|
D|-9h7~--5h7---5---------5--------------------------| 
A|---------------h7~--5h7---5---------5--5s7--stop--|
E|---------------------------h7~--5h7---------------|

Solo 1:41
G|---------------------------------------------------|
D|----------5------------5------------------------5~-|
A|---7~--5h7----5h7~--5h7---5---------5--5s7~--5h7---|
E|----------------------------h7~--5h7---------------|

G|------------------------------------------------------------|
D|-9--------5------------5------------------------5--9~--stop-| 
A|--h7~--5h7----5h7~--5h7---5---------5--5s7~--5h7------------|
E|---------------------------h7~--5h7-------------------------|

SILENCE 2:01 -> 2:21 (When the girl sings)

Chorus 2:21 "Taking a ride to my old haunt"
G|---------------------------------------------------|
D|----------5------------5------------------------5~-|
A|---7~--5h7----5h7~--5h7---5---------5--5s7~--5h7---|
E|----------------------------h7~--5h7---------------|

"My favourite color's candy apple, girl"
G|------------------------------------------------------------|
D|-9--------5------------5------------------------5--9~--stop-| 
A|--h7~--5h7----5h7~--5h7---5---------5--5s7~--5h7------------|
E|---------------------------h7~--5h7-------------------------|

Bass End 2:41




===========================================================
Wow! That's Loud
===========================================================

I'll add the solo eventually

Intro

e--------7-9-11-12-11-12-11-9-7-----|
b----9-11----------------------11~--|
g-11--------------------------------|
d-----------------------------------|
a-----------------------------------|
E-----------------------------------|

e---------------------------------|
b---------------------------------|
g---------------------------------|
d-4-4-4-4-4-4-4-4-4-4-4-4-4-4-4-4-|
a-4-4-4-4-4-4-4-4-4-4-4-4-4-4-4-4-|
E-2-2-2-2-2-2-2-2-2-2-2-2-2-2-2-2-|

Verse 1

e--------------------------------|
b--------------------------------|
g-------------4------------------|
d-4-----------4-(x16)---4--------|
a-4-(x32)-----2---------4-(x16)--|
E-2---------------------2--------|

Prechorus

e-----------------------------------------------------------------|
b-----------------------------------------------------------------|
g-----------------------------------------------------------------|
d-7-7-7-7-7-7-7-7-4-4-4-4-4-4-4-4-7-7-7-7-7-7-7-7-4-4-4-4-4-4-4-4-|
a-7-7-7-7-7-7-7-7-4-4-4-4-4-4-4-4-7-7-7-7-7-7-7-7-4-4-4-4-4-4-4-4-|
E-5-5-5-5-5-5-5-5-2-2-2-2-2-2-2-2-5-5-5-5-5-5-5-5-2-2-2-2-2-2-2-2-|

Chorus

e------------------------------------------------------------------|
b------------------------------------------------------------------|
g-4-4-4-4-4-4-4-4-4-4-4-4-4-4/5-5/6-6-6-6-6-6-6-6-6-6-6-6-6-6-6-6--|
d-4-4-4-4-4-4-4-4-4-4-4-4-4-4/5-5/6-6-6-6-6-6-6-6-6-6-6-6-6-6-6-6--|
a-2-2-2-2-2-2-2-2-2-2-2-2-2-2/3-3/4-4-4-4-4-4-4-4-4-4-4-4-4-4-4-4--|
E------------------------------------------------------------------|


Preverse

e--------7-9-11-12-11-12-11-9-7-----|
b----9-11----------------------11~--|
g-11--------------------------------|
d-----------------------------------|
a-----------------------------------|
E-----------------------------------|

Verse 2

e--------------------------------|
b--------------------------------|
g-------------4------------------|
d-4-----------4-(x16)---4--------|
a-4-(x32)-----2---------4-(x16)--|
E-2---------------------2--------|


Prechorus

e-----------------------------------------------------------------|
b-----------------------------------------------------------------|
g-----------------------------------------------------------------|
d-7-7-7-7-7-7-7-7-4-4-4-4-4-4-4-4-7-7-7-7-7-7-7-7-4-4-4-4-4-4-4-4-|
a-7-7-7-7-7-7-7-7-4-4-4-4-4-4-4-4-7-7-7-7-7-7-7-7-4-4-4-4-4-4-4-4-|
E-5-5-5-5-5-5-5-5-2-2-2-2-2-2-2-2-5-5-5-5-5-5-5-5-2-2-2-2-2-2-2-2-|

Chorus

e------------------------------------------------------------------|
b------------------------------------------------------------------|
g-4-4-4-4-4-4-4-4-4-4-4-4-4-4/5-5/6-6-6-6-6-6-6-6-6-6-6-6-6-6-6-6--|
d-4-4-4-4-4-4-4-4-4-4-4-4-4-4/5-5/6-6-6-6-6-6-6-6-6-6-6-6-6-6-6-6--|
a-2-2-2-2-2-2-2-2-2-2-2-2-2-2/3-3/4-4-4-4-4-4-4-4-4-4-4-4-4-4-4-4--|
E------------------------------------------------------------------|

Presolo

Guitar One:
e--------7-9-11-12-11-12-11-9-7-----|
b----9-11----------------------11~--|
g-11--------------------------------|
d-----------------------------------|(x3)
a-----------------------------------|
E-----------------------------------|

Guitar Two (Starts at 1:32)
e-----------------------------------|
b-----------------------------------|
g-----------------------------------|
d-4---------------------------------|
a-4-(x32)---------------------------|
E-2---------------------------------|

Solo:
e-------------------------------------------------------------|
b-------------------------------------------------------------|
g-4-4-4-4-4-4-4-4-4-4-4-4-4-4---------------------------------|
d-4-4-4-4-4-4-4-4-4-4-4-4-4-4-4-4-4-4-4-4-4-4-4-4-4-4-4-4-4-4-|
a-2-2-2-2-2-2-2-2-2-2-2-2-2-2-4-4-4-4-4-4-4-4-4-4-4-4-4-4-4-4-|
E-----------------------------2-2-2-2-2-2-2-2-2-2-2-2-2-2-2-2-|

e-------------------------------------------------------------------|
b-------------------------------------------------------------------|
g-4-4-4-4-4-4-4-4-4-4-4-4-4-4/5-5/6-6-6-6-6-6-6-6-6-6-6-6-6-6-6-6---|
d-4-4-4-4-4-4-4-4-4-4-4-4-4-4/5-5/6-6-6-6-6-6-6-6-6-6-6-6-6-6-6-6---|
a-2-2-2-2-2-2-2-2-2-2-2-2-2-2/3-3/4-4-4-4-4-4-4-4-4-4-4-4-4-4-4-4---|
E-------------------------------------------------------------------|

e--------------------------------------------------------------------|
b--------------------------------------------------------------------|
g--------------------------------------------------------------------|
d-4------------------------------------------------------------------|
a-4------------------------------------------------------------------|
E-2-2~~~~--------------------7/6/7/9~~~/12~~/7~~~/9~/12~~12~~12~~7~~-|

Verse 3
e-/---/---/---/-------------------------------------------/---/---/---/
b-/---/---/---/-------------------------------------------/---/---/---/
g-/---/---/---/-------------------------------------------/---/---/---/
d-/---/---/---/-------------------------------------------/---/---/---/
a-/---/---/---/-------------------------------------------/---/---/---/
E-/---/---/---/---2~~~~~~~~~~~~~~~~~/7~~~~~~~~~~~/2~~~~~~-/---/---/---/
   slide                                                      slide

Prechorus


e-----------------------------------------------------------------|
b-----------------------------------------------------------------|
g-----------------------------------------------------------------|
d-7-7-7-7-7-7-7-7-4-4-4-4-4-4-4-4-7-7-7-7-7-7-7-7-4-4-4-4-4-4-4-4-|
a-7-7-7-7-7-7-7-7-4-4-4-4-4-4-4-4-7-7-7-7-7-7-7-7-4-4-4-4-4-4-4-4-|
E-5-5-5-5-5-5-5-5-2-2-2-2-2-2-2-2-5-5-5-5-5-5-5-5-2-2-2-2-2-2-2-2-|

Chorus

e------------------------------------------------------------------|
b------------------------------------------------------------------|
g-4-4-4-4-4-4-4-4-4-4-4-4-4-4/5-5/6-6-6-6-6-6-6-6-6-6-6-6-6-6-6-6--|
d-4-4-4-4-4-4-4-4-4-4-4-4-4-4/5-5/6-6-6-6-6-6-6-6-6-6-6-6-6-6-6-6--|
a-2-2-2-2-2-2-2-2-2-2-2-2-2-2/3-3/4-4-4-4-4-4-4-4-4-4-4-4-4-4-4-4--|
E------------------------------------------------------------------|

Extended Ending

e--------7-9-11-12-11-12-11-9-7-----|
b----9-11----------------------11~--|
g-11--------------------------------|
d-----------------------------------|
a-----------------------------------|
E-----------------------------------|


e---------------------------------|
b---------------------------------|
g---------------------------------|
d-4-4-4-4-4-4-4-4-4-4-4-4-4-4-4-4-|
a-4-4-4-4-4-4-4-4-4-4-4-4-4-4-4-4-|
E-2-2-2-2-2-2-2-2-2-2-2-2-2-2-2-2-|




===========================================================
Amy
===========================================================

Capo 4


Intro 2x: Bm  F#m 

D                     Bm
Is your heart singing out of tune
         G         D
Are your eyes just singing the blues
D                  F#m
Dirty records from another time
     G                    A
Some blood stains on your shoes
D                   Bm
No one really knows about your soul
      G                     D
And I barely really know your name
D                   F#m
Burning rhythms and posting lies
      G              A        D
And a bunch of fools drown in shame

Chorus:
              Bm
Amy don't you go
           D
I want you around
        Bm   F#m
Singin' woah please don't go
       G          A         D
Do you wanna be a friend of mine?
         
       G          A         
Do you wanna be a friend of 

Bm      F#m   Bm      F#m
mine?

D                Bm
Did you tattoo a lucky charm
   G               D
To keep you out of harms way?
D               F#m
Warding off all evil signs
       G            A                 
But  never really kept you safe

D                        Bm
Now You're too young for the golden age
          G            D
Cause the record bin's been replaced
D       F#m
27 go  without a trace
        G           A          D
And you walked away from your drink

Chorus:
             Bm
Amy don't you go
           D
I want you around
        Bm   F#m
Singin' woah please don't go
       G          A         D
Do you wanna be a friend of mine?
         
       G          A         
Do you wanna be a friend of 

C                G  Gm  
Amy please don't Go

C                G   A
Amy please don't Go

D                     Bm
Is your heart singing out of tune
         G         D
Are your eyes just singing the blues
D                  F#m
Dirty records from another time
     G                    A
Some blood stains on your shoes

D                Bm
May I have this last dance
   G                   D
By chance if we should meet?
D                  F#m
Can you write me a lullaby?
      G        A      D
So we can sing you to sleep

              Bm
Amy don't you go
           D
I want you around
        Bm   F#m
Singin' woah please don't go
       G          A         D
Do you wanna be a friend of mine?
         
       G          A         D
Do you wanna be a friend of mine?

       G          A        
Do you wanna be a friend of 

Bm      F#m   Bm      F#m
mine?
comments
print report bad tab
3 comments total.
+1 reply
RockinRyan13 wrote on November 27 2012, 06:13 pm

i see a bunch of things that are off. 2 stars.

0 reply
pillarocka wrote on December 2 2012, 07:03 pm

Honestly probably should've waited a bit to make this just until people make more accurate and easier versions of the songs.

0 reply
SimounZon wrote on June 1 2013, 01:20 pm

Hmmmmm the solo of lady cobra is a bit off well that's hard to tab cause it's a combination of Billie's experimental solo (i think) and Jason's experimental solo and Billie is using a (i dunno what is that but it's a bar that's in the side of guitar and then when u pull it off the guitar will cry) THAT'S IT !!! and the rest is NICE!!

I want to post or [tab]
guest
You may want to rate the tab now too:
select rating
Please do not post tabs as comments. Select "correction" instead!