Oops, an error
Loading. Please wait.

Dos Tab

ver2
ver2

Album

More versions @911Tabs.com
1,777 views 1 this week
no commentswrite comment
1 2 3 4 5
not so good
x 3
add to favorites launch autoscroll
font size
0
reset
Autoscroll
+/-
esc
set tempo
stop
Contributor
Difficulty
intermediate
WARNING: You are trying to view
                                    content from Ultimate-Guitar.com
                                    in an unauthorized application,
                                    which is prohibited.

                                    Please use an official Ultimate
                                    Guitar Tabs application for iPhone,
                                    iPad or Android to access legitimate
                                    chords, guitar, bass, and drum tabs
                                    from Ultimate-Guitar.com database.

                                    Type "ultimate guitar tabs" in Apple
                                    App Store's or Android Market's
                                    search to find the application.
Artist: Green Day
Album: ¡DOS!
Instrument: Guitar
Submitter: GuitarPunk94, deathfromala

Feel free to rate + comment! Join the GreenDayCommunity(GDC) :-)





-----------------------------------------------------------------------------
                             Green Day - See You Tonight
-----------------------------------------------------------------------------

Artist: Green Day
Album: ¡DOS!
Song: See You Tonight
Instrument: Guitar
Submitter: GuitarPunk94

Feel free to rate + comment! Join the GreenDayCommunity(GDC) :-)

Standard Tuning


Key:
-  - Nothing
~  - Let notes ring
x  - Mute strings




|-x-0-0-0-0-0-0-0-0--0-0-0-0-0-0-0-0-0-0-0-0-0-0-0-0-|
|-x-2-3-2-2-2-3-2-2--2-3-2-2-2-3-2-2-2-3-2-2-2-3-2-2-|
|-x-2-2-2-2-2-2-2-2--2-2-2-2-2-2-2-2-2-2-2-2-2-2-2-2-|
|-x-2-0-2-2-2-0-2-2--2-0-2-2-2-0-2-2-2-0-2-2-2-0-2-2-|
|-x-0-0-0-0-0-0-0-0--0-0-0-0-0-0-0-0-0-0-0-0-0-0-0-0-|
|-x-x-x-x-x-x-x-x-x--x-x-x-x-x-x-x-x-x-x-x-x-x-x-x-x-|

|-0-0-0-0-0-0-0-0--0-0-0-0-0-0-0-0--0-0-0-0-0-0-0-0~-|
|-0-0-3-2-0-0-3-2--3-3-2-2-0-3-2-2--2-3-2-2-2-3-2-2~-|
|-1-1-2-2-1-1-2-2--2-2-2-2-1-1-2-2--2-2-2-2-2-2-2-2~-|
|-2-2-0-2-2-2-0-2--0-0-2-2-2-2-2-2--2-0-2-2-2-0-2-2~-|
|-2-2-0-0-2-2-0-0--0-0-0-0-2-2-0-0--0-0-0-0-0-0-0-0~-|
|-0-0-x-x-0-0-x-x--x-x-x-x-0-0-x-x--x-x-x-x-x-x-x-x~-|



-----------------------------------------------------------------------------
                             Green Day - Fuck Time
-----------------------------------------------------------------------------

Artist: Green Day
Album: ¡DOS!
Song: Fuck Time
Instrument: Guitar
Submitter: GuitarPunk94

Feel free to rate + comment! Join the GreenDayCommunity(GDC) :-)

Standard Tuning


Key:
-  - Nothing
~  - Let notes ring
*  - Harmonics
2b - Bend string to fret
X  - Mute string
h  - Hammer on
p  - Pull off
/ - Slide up or down



 Intro/Verse 1:  Chorus:
  |6x*******|
|------------------------------------------------|
|------------------------------------------------|
|----12----9\------------------------------------|
|-12-12-12-9\------------2-2-4-2---------2-2-4-2-|
|-12-10-12-7\----0-0-4-4---------0-0-4-4---------|
|-10----10---------------------------------------|

|--------------------------------------------------|
|--------------------------------------------------|
|--------------------------------------------------|
|------------------------------------------2-2-4-2-|
|---------2-2-4-2---------2-2-4-2--0-0-4-4---------|
|-0-0-4-4---------0-0-4-4--------------------------|

                       Bridge:   
|---------------------------------------------------------|
|-----------------4----------5-5--------------------------|
|-----------------4--------2-5-5--7-12----9\-----12----9\-|
|--------2-2-4-2--4----2-5-2-5-5--7-12-12-9\--12-12-12-9\-|
|0-0-4-4----------2----2-5-0-3-3--5-10-12-7\--12-10-12-7\-|
|----------------------0-3-------------10-----10----10----|
     
      Verse 2:       Chorus:
      |4x*******|
|----------------------------------------------------|
|----------------------------------------------------|
|-2b\----12----9\------------------------------------|
|-----12-12-12-9\------------2-2-4-2---------2-2-4-2-|
|-----12-10-12-7\----0-0-4-4---------0-0-4-4---------|
|-----10----10---------------------------------------|

|--------------------------------------------------|
|--------------------------------------------------|
|--------------------------------------------------|
|------------------------------------------2-2-4-2-|
|---------2-2-4-2---------2-2-4-2--0-0-4-4---------|
|-0-0-4-4---------0-0-4-4--------------------------|

                       Bridge:
|---------------------------------------------|
|-----------------4----------5-5\-------------|
|-----------------4--------2-5-5\--7-12----9\-|
|--------2-2-4-2--4----2-5-2-5-5\--7-12-12-9\-|
|0-0-4-4----------2----2-5-0-3-3\--5-10-12-7\-|
|----------------------0-3--------------10----|

 Solo:
|----------------------------------12-----------|
|------------12-10---------12--12--12-12--15b~\-|
|-2b-2b-2b/\-------12-9-12-14b-14bh---14b-------|
|-----------------------------------------------|
|-----------------------------------------------|
|-----------------------------------------------|

                              |3x***|
|-----------------------------\----X---\---|
|-15b15b15b15b-12p10h---10b~\-\----X---\---|
|--------------------12p------\----X---\---|
|-----------------------------\---(2)--\---|
|-----------------------------\---(2)--\---|
|----------------------------(12)-(0)-(12)-|

|-10--10--------10h--10--10--------10h---17----------|
|-10--10--------10h--10--10--------10h---17----------|
|-12bh12b-------12b1212bh12b-------12b12/19b---------|
|--------12-10--------------12-10-----------21-19-17-|
|-------------12-----------------12------------------|
|----------------------------------------------------|

|17--17--17----------16b15-------------------------12*-|
|17--17--17--15b~--17-----17-15-15b-15p13h15b15-12*----|
|19bh19bh19bh------------------------------------------|
|------------------------------------------------------|
|------------------------------------------------------|
|------------------------------------------------------|

|----------------------------------------|
|-12h~-12-12-12-12~-/16h~-16-16-16-16~\--|
|-14bh~14b14b14b14b~/18bh~18b18b18b18b~\-|
|----------------------------------------|
|----------------------------------------|
|----------------------------------------|

 Bridge:            Outro:
                                |3x*******|
|-------------------------------------------------------------|
|---------------5-5-------------------------------------------|
|-----2-5-----2-5-5--7-12----9\-----12----9\-2b~-----12----9\-|
|-2-5-2-5-2-5-2-5-5--7-12-12-9\--12-12-12-9\------12-12-12-9\-|
|-2-5-0-3-2-5-0-3-3--5-10-12-7\--12-10-12-7\------12-10-12-7\-|
|-0-3-----0-3-------------10-----10----10---------10----10----|



-----------------------------------------------------------------------------
                             Green Day - Stop When The Red Lights Flash
-----------------------------------------------------------------------------

Artist: Green Day
Album: ¡DOS!
Song: Stop When The Red Lights Flash
Instrument: Guitar
Submitter: GuitarPunk94

Feel free to rate + comment! Join the GreenDayCommunity(GDC) :-)

Standard Tuning



Key:
-  - Nothing
.  - Palm mute
~  - Let notes ring
12b - Bend string to fret
x  - Mute strings
/ - Slide up or down




 Intro:             Verse 1:
 |12x************|                  |2x*************|
|-----------------------------------------------------|
|-----------------------------------------------------|
|--7----------------7777-12-777777----7---------------|
|7-7-7-xx-7-5-7-xx--7777-12-777777--7-7-7-xx-7-5-7-xx-|
|7-5-7-xx-7-5-7-xx--5555-10-555555--7-5-7-xx-7-5-7-xx-|
|5---5-xx-5-3-5-xx------------------5---5-xx-5-3-5-xx-|

                                     Pre-Chorus:
                  |2x*************|  
|----------------------------------------------|
|----------------------------------------------|
|-7777-12-777777----7----------------9999-7777-|
|-7777-12-777777--7-7-7-xx-7-5-7-xx--9999-7777-|
|-5555-10-555555--7-5-7-xx-7-5-7-xx--7777-5555-|
|-----------------5---5-xx-5-3-5-xx--0000------|

 Chorus:            Verse 2:
 |4x*************|                  |2x*************|
|-----------------------------------------------------|
|-----------------------------------------------------|
|--7----------------7777-12-777777----7---------------|
|7-7-7-xx-7-5-7-xx--7777-12-777777--7-7-7-xx-7-5-7-xx-|
|7-5-7-xx-7-5-7-xx--5555-10-555555--7-5-7-xx-7-5-7-xx-|
|5---5-xx-5-3-5-xx------------------5---5-xx-5-3-5-xx-|

                                     Pre-Chorus:
                  |2x*************|
|----------------------------------------------|
|----------------------------------------------|
|-7777-12-777777----7----------------9999-7777-|
|-7777-12-777777--7-7-7-xx-7-5-7-xx--9999-7777-|
|-5555-10-555555--7-5-7-xx-7-5-7-xx--7777-5555-|
|-----------------5---5-xx-5-3-5-xx--0000------|

 Chorus:            Solo:
 |4x*************|
|-------------------------------------------|
|-------------------10-10-10--10-10--10-10--|
|--7----------------12b12b12b-12b12b-12-11--|
|7-7-7-xx-7-5-7-xx--------------------------|
|7-5-7-xx-7-5-7-xx--------------------------|
|5---5-xx-5-3-5-xx--------------------------|

|--------------------------------------------|
|10-10-10--12-12-12--12-12--14~-17-14--------|
|12b12b12b-14b14b14b-14b14b-16b~-----16-16b\-|
|--------------------------------------------|
|--------------------------------------------|
|--------------------------------------------|

|----------------------------------------------------|
|10-10--10-10-10-10--10-10-10--12-12-12--12-12--14~--|
|12b12b-12b12-12-11--12b12b12b-14b14b14b-14b14b-16b~-|
|----------------------------------------------------|
|----------------------------------------------------|
|----------------------------------------------------|

                               Bridge:
|--------------------------------------------------------|
|14-14-14-14--14-14--------------------------------------|
|16b16-16b16b-16-14-/16~-16~---7/99999-7/99999-777777777-|
|------------------------------7/99999-7/99999-777777777-|
|------------------------------5/77777-5/77777-555555555-|
|--------------------------------------------------------|
                                  ....    ...   ....

 Outro:
  |8x*************|
|---------------------------|
|---------------------------|
|---7------------------7----|
|-7-7-7-xx-7-5-7-xx--7-7-7\-|
|-7-5-7-xx-7-5-7-xx--7-5-7\-|
|-5---5-xx-5-3-5-xx--5---5\-|



-----------------------------------------------------------------------------
                             Green Day - Lazy Bones
-----------------------------------------------------------------------------

Submitter: deathfromala ( http://tabs.ultimate-guitar.com/g/green_day/lazy_bones_tab.htm )

"GREEN DAY
DOS!
LAZY BONES

UPDATE ON 7/11/12. HALF OF SONG TO FULL SONG.! 
PREVIOUS NOTES AND CHORUSES HAVE NOT BEEN CHANGED.

STANDARD, SAYS I
and this is how i do it:


INTRO IS DRUMS

INTRO+ 1ST VERSE 0:05 (half clean)
e|--9---------><(mute)---11---------X(mute)--------|
B|--10--------14---------12---------9--------------|
G|--9--(x16)--14--(x16)--11--(x16)--9--(x16)-------|
D|--11--------14---------13---------9--------------| X3
A|--9---------12---------11---------7--------------|
E|-------------------------------------------------|
   F#m7      Amaj       Abm7       Emaj




CHORUS 0:40
e|-------------------------------------|
B|-------------------------------------|
G|-------------------------------------|
D|---7-------4-------7-------4---------|
A|---7-(x16)-4-(x16)-7-(x16)-4-(x16)---|
E|---5-------2-------5-------2---------|...

0:52 the D and F# are the only powerchords
e|----------------------------------------|---------------------------------|
B|----------9--9-9-9--5--5-5-5----(elevens|------------9--9-9-9--2----------|
G|7--7-7-7--9--9-9-9--6--6-6-6--11-111111-|--7--7-7-7--9--9-9-9--2----------|
D|7--7-7-7--9--9-9-9--6--6-6-6--11-111111-|--7--7-7-7--9--9-9-9--2-(x16)----|
A|5--5-5-5--7--7-7-7--4--4-4-4--9--9-9-9--|--5--5-5-5--7--7-7-7--0----------|
E|----------------------------------------|---------------------------------|

1:03
e|------------------------------------------|
B|---------------9--9-9-9-9-9--5--5-5-5-5-5-|
G|-7--7-7-7-7-7--9--9-9-9-9-9--6--6-6-6-6-6-|
D|-7--7-7-7-7-7--9--9-9-9-9-9--6--6-6-6-6-6-|
A|-5--5-5-5-5-5--7--7-7-7-7-7--4--4-4-4-4-4-|
E|------------------------------------------|...
...
e|------------------------------------------------|
B|----------------7--7-7-7-7-7--9--9-9-9-9-9------|
G|-11-1111111111--7--7-7-7-7-7--9--9-9-9-9-9------|
D|-11-1111111111--7--7-7-7-7-7--9--9-9-9-9-9------|
A|-9--9-9-9-9-9---5--5-5-5-5-5--7--7-7-7-7-7------|
E|------------------------------------------------|


    _________________________
  | BACK TO INTRO/1ST VERSE!! |
  | __________________________|



VERSE 2 1:24 (REPEAT EACH CHORD PATTERN TWICE)
e|--9--9---9------X--X---X----11-11--11----X-X--X-----------|
B|--10-10--10----14-14--14----12-12--12----9-9--9-----------|
G|--9--9---9-----14-14--14----11-11--11----9-9--9-----------|
D|--11-11--11----14-14--14----13-13--13----9-9--9-----------|
A|--9--9---9-----12-12--12----11-11--11----7-7--7-----------|
E|----------------------------------------------------------|

1:36-1:46 
ONLY ONE STRUM + GTR 2 COMES IN
(REPEAT ONE STRUMS 4TIMES. 3 STRUM 2 TIMES.)
e|-----9------X-----11-11--11----X-X--X--------|
B|-----10----14-----12-12--12----9-9--9--------|
G|-----9-----14-----11-11--11----9-9--9--------|
D|-----11----14-----13-13--13----9-9--9--------|
A|-----9-----12-----11-11--11----7-7--7--------|
E|---------------------------------------------|
GUITAR 2 ARPEGIO PART (1:36 - 1:46)
e|--2~--2------5~-----------7~----------------9~---7-7-7-7-7-----|
B|--2~----2----5~-----------7~--------7-------9~---7-7-7-7-7-----|
G|--X-------2--X-----6------X~----------------X~---X-X-X-X-X-----|
D|--4~---------7~------7----9~--7-9-7----9-7--11~--9-9-9-9-9-----|
A|-----------------7---------------------------------------------|
E|---------------------------------------------------------------|


    _________________________
  | BACK TO CHORUS!!          |
  | __________________________|



    _________________________________________________________
  | BACK TO INTRO/1ST VERSE!! 2X (QUIETER FOR DISTANT EFFECT)|
  | SECOND TIME IS PLAYED WITH GTR 2 ARPEGIO PART            |
   __________________________________________________________




SOLO 2:44
(GUITAR 1 PLAYS NORMAL CHORUS SOON TO BE 
JOINED IN WITH GUITAR 2 AT 2:55 WITH VOCALS)
GTR 1
e|-------------------------------------|
B|-------------------------------------|
G|-------------------------------------|
D|---7-------4-------7-------4---------|
A|---7-(x16)-4-(x16)-7-(x16)-4-(x16)---|
E|---5-------2-------5-------2---------|
GTR 2
e|----------------------------------------------------------------------|
B|----------------------------------------------------------------------|
G|-9-9-9-9-9-9-9-9-9-9-9-9-11-11-11-11-6-6-6-6-6-6-6-6-6-6-6-6-6-6-6-6--|
D|----------------------------------------------------------------------|
A|----------------------------------------------------------------------|
E|----------------------------------------------------------------------|
CONTINUED                                                              ||
e|-----------------------------------------------------------------|
B|-----------------------------------------------------------------|
G|-9-9-9-9-9-9-9-9-9-9-14-14-14-14-11-11-11-11-11-11-11-11-11-11---|
D|-----------------------------------------------------------------|
A|-----------------------------------------------------------------|
E|-----------------------------------------------------------------|


    ______________________________________
  | BACK TO CHORUS!! (2ND PART )          |
  | BUT DO NOT END ON THE 7999 CHORD..    |
  | AND CONTINUE ON WITH THE 5776 + 9111111
  | ______________________________________|



    __________________________________
  | BACK TO INTRO/1ST VERSE!!         |
  | AND END WITH ONE SINGLE F#m7 CHORD|
  _____________________________________

DONE!!!! CHEERS.
PLZ RATE AND COMMENT! :P 
UPDATED ON APPROVAL QUEUE)"




-----------------------------------------------------------------------------
                             Green Day - Wild One
-----------------------------------------------------------------------------

Submitter: Unknown ( http://tabs.ultimate-guitar.com/g/green_day/wild_one_tab.htm )

"INTRO
Guitar 1
e|--------------------------------------------------------------------------|
B|--------------------------------------------------------------------------|
G|--------------6666666666666666-77777777-1010101010101010------------------|
D|7777777777777-6666666666666666-77777777-1010101010101010-777777777777-7~~-|
A|7777777777777-4444444444444444-55555555-8-8-8-8-8-8-8-8--777777777777-7~~-|
E|5555555555555--------------------------------------------555555555555-5~~-|

Guitar 2
e|--------------------------------------------------------------------------|
B|5--x-55--x-555-9pb99-6666666-9pb999-77777777-6pb6666666-5pb55555555555-5\-|
G|--------------------------------------------------------------------------|
D|--------------------------------------------------------------------------|
A|--------------------------------------------------------------------------|
E|--------------------------------------------------------------------------|

VERSE (BOTH GUITARS)

e|----------------------------------------------------------|
B|----------------------------------------------------------|
G|--------------------------6~-x-66~-x-66~-x-66~-x-67~-x-77~|
D|--7~-x-77~-x-77~-x-77~-x-76~-x-66~-x-66~-x-66~-x-67~-x-77~|
A|--7~-x-77~-x-77~-x-77~-x-74~-x-44~-x-44~-x-44~-x-45~-x-55~|
E|--5~-x-55~-x-55~-x-55~-x-5--------------------------------|

--------------------------------------------|
--------------------------------------------|
-x-710~-x-1010~-x-10------------------------|
-x-710~-x-1010~-x-107~-x-77~-x-77~-x-77~-xx-|
-x-58-~-x-8-8-~-x-8-7~-x-77~-x-77~-x-77~-xx-|
--------------------5~-x-55~-x-55~-x-55~-xx-|

PRE-CHORUS (BOTH GUITARS)
e|--------------------------------------------------------------------------|
B|--------------------------------------------------------------------------|
G|--------------6666666666666666-77777777-1010101010101010------------------|
D|7777777777777-6666666666666666-77777777-1010101010101010-7777777777777777-|
A|7777777777777-4444444444444444-55555555-8-8-8-8-8-8-8-8--7777777777777777-|
E|5555555555555--------------------------------------------5555555555555555-|

CHORUS (BOTH GUITARS)
e|--------------------------------------------------------------------------|
B|--------------------------------------------------------------------------|
G|--77777777----------77777777----------------------------------------------|
D|--77777777-77777777-77777777-77777766-44444444-77777777-55555555-222222xx-|
A|--55555555-77777777-55555555-77777766-44444444-77777777-55555555-222222xx-|
E|-----------55555555----------55555544-22222222-55555555-33333333-000000xx-|

INTERLUDE
Guitar 1
e|--------------------------------------------------------------------------|
B|--------------------------------------------------------------------------|
G|--------------6666666666666666-77777777-1010101010101010------------------|
D|7777777777777-6666666666666666-77777777-1010101010101010-777777777777-7~~-|
A|7777777777777-4444444444444444-55555555-8-8-8-8-8-8-8-8--777777777777-7~~-|
E|5555555555555--------------------------------------------555555555555-5~~-|

Guitar 2
e|--------------------------------------------------------------------------|
B|5--x-55--x-5555-9pb99-66666666-9pb999-77777777-6pb66666-5pb55555555555-5\-|
G|--------------------------------------------------------------------------|
D|--------------------------------------------------------------------------|
A|--------------------------------------------------------------------------|
E|--------------------------------------------------------------------------|

VERSE 2 (BOTH GUITARS)

e|-----------------------------------------------------------------|
B|-----------------------------------------------------------------|
G|--------------------------6~-x-66~-x-66~-x-66~-x-67~-x-77~-x-710~|
D|--7~-x-77~-x-77~-x-77~-x-76~-x-66~-x-66~-x-66~-x-67~-x-77~-x-710~|
A|--7~-x-77~-x-77~-x-77~-x-74~-x-44~-x-44~-x-44~-x-45~-x-55~-x-58-~|
E|--5~-x-55~-x-55~-x-55~-x-5---------------------------------------|

-------------------------------------|
-------------------------------------|
-x-1010~-x-10------------------------|
-x-1010~-x-107~-x-77~-x-77~-x-77~-xx-|
-x-8-8-~-x-8-7~-x-77~-x-77~-x-77~-xx-|
-------------5~-x-55~-x-55~-x-55~-xx-|


PRE-CHORUS (BOTH GUITARS)
e|--------------------------------------------------------------------------|
B|--------------------------------------------------------------------------|
G|--------------6666666666666666-77777777-1010101010101010------------------|
D|7777777777777-6666666666666666-77777777-1010101010101010-7777777777777777-|
A|7777777777777-4444444444444444-55555555-8-8-8-8-8-8-8-8--7777777777777777-|
E|5555555555555--------------------------------------------5555555555555555-|

CHORUS (BOTH GUITARS)
e|--------------------------------------------------------------------------|
B|--------------------------------------------------------------------------|
G|--77777777----------77777777----------------------------------------------|
D|--77777777-77777777-77777777-77777766-44444444-77777777-55555555-222222xx-|
A|--55555555-77777777-55555555-77777766-44444444-77777777-55555555-222222xx-|
E|-----------55555555----------55555544-22222222-55555555-33333333-000000xx-|

PRE-SOLO
Guitar 1
e|--------------------------------------------------------------------------|
B|--------------------------------------------------------------------------|
G|--------------6666666666666666-77777777-1010101010101010------------------|
D|7777777777777-6666666666666666-77777777-1010101010101010-777777777777-7~~-|
A|7777777777777-4444444444444444-55555555-8-8-8-8-8-8-8-8--777777777777-7~~-|
E|5555555555555--------------------------------------------555555555555-5~~-|

Guitar 2
e|--------------------------------------------------------------------------|
B|5--x-55--x-5555-9pb99-66666-9pb999-77777777-6pb6666666-5pb55555555555-5~~-|
G|--------------------------------------------------------------------------|
D|--------------------------------------------------------------------------|
A|--------------------------------------------------------------------------|
E|--------------------------------------------------------------------------|

SOLO
Guitar 1
e|-------------------------------------------------------------------------|
B|-------------------------------------------------------------------------|
G|--------------------------6~-x-66~-x-66~-x-66~-x-67~-x-77~-x-710~-x-1010~|
D|--7~-x-77~-x-77~-x-77~-x-76~-x-66~-x-66~-x-66~-x-67~-x-77~-x-710~-x-1010~|
A|--7~-x-77~-x-77~-x-77~-x-74~-x-44~-x-44~-x-44~-x-45~-x-55~-x-58-~-x-8-8-~|
E|--5~-x-55~-x-55~-x-55~-x-5-----------------------------------------------|

-----------------------------|
-----------------------------|
-x-10------------------------|
-x-107~-x-77~-x-77~-x-77~-xx-|
-x-8-7~-x-77~-x-77~-x-77~-xx-|
-----5~-x-55~-x-55~-x-55~-xx-|

e|--------------------------------------------------------------------------|
B|--------------------------------------------------------------------------|
G|--------------6666666666666666-77777777-1010101010101010------------------|
D|7777777777777-6666666666666666-77777777-1010101010101010-7777777777777777-|
A|7777777777777-4444444444444444-55555555-8-8-8-8-8-8-8-8--7777777777777777-|
E|5555555555555--------------------------------------------5555555555555555-|

Guitar 2
e|---------------------------------------------------------------|
B|---------------------------------------------------------------|
G|--6-9-6pbr-6-4-2-6-9-6pbr-6-4-2-4-2~-4-4pbr-2-------2/6\2/6pbr-|
D|----------------------------------------------3-2~~------------|
A|---------------------------------------------------------------|
E|---------------------------------------------------------------|

e|-------------------------------------------------------------------------|
B|--5--x-55-x-555555-13pb1313-999999999999-13b131312-101010101010-12121212-|
G|-------------------------------------------------------------------------|
D|-------------------------------------------------------------------------|
A|-------------------------------------------------------------------------|
E|-------------------------------------------------------------------------|

-------------------------12------------|
-13131313-12-10-12-10-12----12-10-12pb-|
---------------------------------------|
---------------------------------------|
---------------------------------------|
---------------------------------------|


LAST CHORUS
Guitar 1
e|--------------------------------------------------------------------------|
B|--------------------------------------------------------------------------|
G|--77777777----------77777777----------------------------------------------|
D|--77777777-77777777-77777777-77777766-44444444-77777777-55555555-222222xx-|
A|--55555555-77777777-55555555-77777766-44444444-77777777-55555555-222222xx-|
E|-----------55555555----------55555544-22222222-55555555-33333333-000000xx-|

e|--------------------------------------------------------------------------|
B|--------------------------------------------------------------------------|
G|--------------6666666666666666-77777777-1010101010101010------------------|
D|7777777777777-6666666666666666-77777777-1010101010101010-7777777777777777-|
A|7777777777777-4444444444444444-55555555-8-8-8-8-8-8-8-8--7777777777777777-|
E|5555555555555--------------------------------------------5555555555555555-|

e|-------------------------------------------|
B|-------------------------------------------|
G|--77777777-1010101010101010----------------|
D|--77777777-1010101010101010-7~-x-77~-x-77~-|
A|--55555555-8-8-8-8-8-8-8-8--7~-x-77~-x-77~-|
E|----------------------------5~-x-55~-x-55~-|

Guitar 2
e|--------------------------------------------------------------------------|
B|--------------------------------------------------------------------------|
G|--77777777----------77777777----------------------------------------------|
D|--77777777-77777777-77777777-77777766-44444444-77777777-55555555-222222xx-|
A|--55555555-77777777-55555555-77777766-44444444-77777777-55555555-222222xx-|
E|-----------55555555----------55555544-22222222-55555555-33333333-000000xx-|

e|--------------------------------------------------------------------------|
B|5--x-55--x-5555-9pb99-66666-9pb999-77777777-6pb6666666-5pb55555555555-5~~-|
G|--------------------------------------------------------------------------|
D|--------------------------------------------------------------------------|
A|--------------------------------------------------------------------------|
E|--------------------------------------------------------------------------|

e|-------------------------------------|
B|--77777777-6pb6666666----------------|
G|-------------------------------------|
D|----------------------7~-x-77~-x-77~-|
A|----------------------7~-x-77~-x-77~-|
E|----------------------5~-x-55~-x-55~-|"




-----------------------------------------------------------------------------
                             Green Day - Makeout Party
-----------------------------------------------------------------------------

Artist: Green Day
Album: ¡DOS!
Song: Makeout Party
Instrument: Guitar
Submitter: GuitarPunk94

Feel free to rate + comment! Join the GreenDayCommunity(GDC) :-)

Standard Tuning


Key:
-  - Nothing
~  - Let notes ring
7b - Bend string to fret
h  - Hammer on
x  - Mute strings
p  - Pull off
/ - Slide up or down




  Intro:         Verse 1:
  |4x*********|      |3x************|
|---------------------------------------------------|
|---------------------------------------------------|
|---------------------------------------------------|
|-7x5x7x10x7x5x--7\--7x5x7x10x7x5x-7\--7x5x7x10x7x0-|
|-7x5x7x10x7x5x--7\--7x5x7x10x7x5x-7\--7x5x7x10x7x0-|
|-5x3x5x8-x5x3x--5\--5x3x5x8-x5x3x-5\--5x3x5x8-x5x0-|

  Chorus:
|----------------------------------------------------------|
|----------------------------------------------------------|
|-7-7-7-7777777--7-7-7-7777777-----------------------------|
|-7-7-7-7777777--7-7-7-7777777--7x5x7x10x7x5x-7x5x7x10x7x0-|
|-5-5-5-5555555--5-5-5-5555555--7x5x7x10x7x5x-7x5x7x10x7x0-|
|-------------------------------5x3x5x8-x5x3x-5x3x5x8-x5x0-|

                                            Verse 2:
                                            |4x************|
|------------------------------------------------------------|
|------------------------------------------------------------|
|-9-9-9-9999999--7-7-7-77777---------------------------------|
|-9-9-9-9999999--7-7-7-77777--7x5x7x10x7x5x-7x5x7x10x7x5x-7\-|
|-7-7-7-7777777--5-5-5-55555--7x5x7x10x7x5x-7x5x7x10x7x5x-7\-|
|-0-0-0-0000000---------------5x3x5x8-x5x3x-5x3x5x8-x5x3x-5\-|

                Chorus:
|------------------------------------------------------------------------|
|------------------------------------------------------------------------|
|---------------7-7-7-7777777--7-7-7-7777777-----------------------------|
|-7x5x7x10x7x0--7-7-7-7777777--7-7-7-7777777--7x5x7x10x7x5x-7x5x7x10x7x0-|
|-7x5x7x10x7x0--5-5-5-5555555--5-5-5-5555555--7x5x7x10x7x5x-7x5x7x10x7x0-|
|-5x3x5x8-x5x0--------------------------------5x3x5x8-x5x3x-5x3x5x8-x5x0-|

|---------------------------------------------------------|
|---------------------------------------------------------|
|-9-9-9-9999999--7-7-7-77777------------------------------|
|-9-9-9-9999999--7-7-7-77777--7x5x7x10x7x5x-7x5x7x10x7x5x-|
|-7-7-7-7777777--5-5-5-55555--7x5x7x10x7x5x-7x5x7x10x7x5x-|
|-0-0-0-0000000---------------5x3x5x8-x5x3x-5x3x5x8-x5x3x-|

 Guitar-Solo:
|--------------------------------------------------------|
|-5-5--5--5--5-5-\---------------5-5-5--5-5--5--5-5h---5-|
|-7b7b-7b-7b-7b7b\---------------7b7b7b-7b7b-7b-7b7b-7-6-|
|------------------7x5x7x10x7x5x-------------------------|
|------------------7x5x7x10x7x5x-------------------------|
|------------------5x3x5x8-x5x3x-------------------------|

|----------------------------------------------------|
|---------------5-5-5-/10--10--10-10-\---------------|
|---------------7b7b7b/12b-12b-12b12b\---------------|
|-7x5x7x10x7x5x------------------------7x5x7x10x7x5x-|
|-7x5x7x10x7x5x------------------------7x5x7x10x7x5x-|
|-5x3x5x8-x5x3x------------------------5x3x5x8-x5x3x-|

|-***17-***-------------------------------------------------------------|
|-***20b***--------------10--10--10~--12h13h15p--12h13h15p--12h13h15p---|
|------------------------12b-12b-12b~----------14---------14---------14-|
|-----------7x5x7x10x7x0------------------------------------------------|
|-----------7x5x7x10x7x0------------------------------------------------|
|-----------5x3x5x8-x5x0------------------------------------------------|

|---------------------------------------------------55-|
|12h13h15p--12h13h15p--12h13h15p---13b--------------55-|
|---------14---------14---------14------55h7p5--5-7b---|
|---------------------------------------------7--------|
|------------------------------------------------------|
|------------------------------------------------------|

|-------------------------------------------------------------------(5)~----|
|-------------------------------------12--12--12~--12-/17--17--17-----------|
|5h7p5--------------------------------14b-14b-14b~-14b/19b-19b-19b----------|
|-----7-5-------------------------------------------------------------------|
|---------7-5-3-0-------------------------------------------------\---------|
|-----------------3-0-/5~\3~/5~/8~\5/-----------------------------\-(5)~-/\-|

 Bass-Solo (2.15 min.):
|--------------------------------------------------------------|
|--------------------------------------------------------------|
|---------------------------2----------------------------------|
|-------------------------25-----------------------------------|
|----0-3--------------35-5---------0-3--------------35-5h7p530-|
|5-3-----0-3--5-3-5-35---------5-3-----0-3--5-3-5-35-----------|

|------------------------------------------------------------|
|------------------------------------------------------------|
|------------------------------------------------------------|
|-------------5h777777-75---------------------------------25-|
|----0-3-----------------75530-------0-3--------------35-5---|
|5-3-----0-3------------------3--5-3-----0-3--5-3-5-35-------|

|---------------------------------------------------------------------------|
|---------------------------------------------------------------------------|
|-------------------------------------------------------------------------2-|
|7777-7777-7777-77/\---------------777-555------------------------------25--|
|-------------------------0-3--------------777-555-5-3-0------------35-5----|
|---------------------5-3-----0-3------------------------3--5-3-5-35--------|

  Chorus:
|----------------------------------------------------------|
|----------------------------------------------------------|
|-7-7-7-7777777--7-7-7-7777777-----------------------------|
|-7-7-7-7777777--7-7-7-7777777--7x5x7x10x7x5x-7x5x7x10x7x0-|
|-5-5-5-5555555--5-5-5-5555555--7x5x7x10x7x5x-7x5x7x10x7x0-|
|-------------------------------5x3x5x8-x5x3x-5x3x5x8-x5x0-|

                              Outro:
                              |4x*********|
|----------------------------------------------|
|----------------------------------------------|
|-9-9-9-9999999--7-7-7-77777-------------------|
|-9-9-9-9999999--7-7-7-77777--7x5x7x10x7x5x-7\-|
|-7-7-7-7777777--5-5-5-55555--7x5x7x10x7x5x-7\-|
|-0-0-0-0000000---------------5x3x5x8-x5x3x-5\-|




-----------------------------------------------------------------------------
                             Green Day - Stray Heart
-----------------------------------------------------------------------------

Artist: Green Day
Album: ¡DOS!
Song: Stray Heart
Instrument: Guitar
Submitter: GuitarPunk94

Feel free to rate + comment! Join the GreenDayCommunity(GDC) :-)

Standard Tuning


Key:

-  - Nothing
~  - Let notes ring
(7b) - Bend string to fret
h  - Hammer on
/ - Slide up or down



 Verse 1: Pre-Chorus:
|-7---7---4-4-4-4-4-4-4-4-0-0-2-2-7-7-7-7---4-4-4-4-|
|-9---9---4-4-4-4-5-5-5-5-2-2-4-4-9-9-9-9---4-4-4-4-|
|-9---9---4-4-4-4-6-6-6-6-2-2-4-4-9-9-9-9---4-4-4-4-|
|-9---9---6-6-6-6-6-6-6-6-2-2-4-4-9-9-9-9---6-6-6-6-|
|-7---7---6-6-6-6-4-4-4-4-0-0-2-2-7-7-7-7---6-6-6-6-|
|---------4-4-4-4---------------------------4-4-4-4-|

                         Chorus:
                                  |2x***************|
|4-4-4-4-0-0-0-0-0-------33333355-7777-4444-0000-0000-0-|
|5-5-5-5-2-2-2-2-1-------55555577-9999-4444-2222-1111-1-|
|6-6-6-6-2-2-2-2-2-------55555577-9999-4444-2222-2222-2-|
|6-6-6-6-2-2-2-2-2-------55555577-9999-6666-2222-2222-2-|
|4-4-4-4-0-0-0-0-0-------33333355-7777-6666-0000-0000-0-|
|--------------------------------------4444-------------|

 Verse 2: Pre-Chorus:
|-7---7---4-4-4-4-4-4-4-4-0-0-2-2-7-7-7-7---4-4-4-4-|
|-9---9---4-4-4-4-5-5-5-5-2-2-4-4-9-9-9-9---4-4-4-4-|
|-9---9---4-4-4-4-6-6-6-6-2-2-4-4-9-9-9-9---4-4-4-4-|
|-9---9---6-6-6-6-6-6-6-6-2-2-4-4-9-9-9-9---6-6-6-6-|
|-7---7---6-6-6-6-4-4-4-4-0-0-2-2-7-7-7-7---6-6-6-6-|
|---------4-4-4-4---------------------------4-4-4-4-|

                         Chorus:
                                  |2x***************|
|4-4-4-4-0-0-0-0-0-------33333355-7777-4444-0000-0000-0000-|
|5-5-5-5-2-2-2-2-1-------55555577-9999-4444-2222-1111-1111-|
|6-6-6-6-2-2-2-2-2-------55555577-9999-4444-2222-2222-2222-|
|6-6-6-6-2-2-2-2-2-------55555577-9999-6666-2222-2222-2222-|
|4-4-4-4-0-0-0-0-0-------33333355-7777-6666-0000-0000-0000-|
|--------------------------------------4444----------------|

 Solo:
|-/7~7~7~7~\----------/7~7~7~7~/11~11~/13b14~13b14~\-|
|-----------/7~7~7~7~\-------------------------------|
|----------------------------------------------------|
|----------------------------------------------------|
|----------------------------------------------------|
|----------------------------------------------------|

|4-4-4--4-4-44444-4-4-4--4444-4444444------------------------|
|5-5-5--5-5-55555-4-4-4--44h5-5555555-55-44-2-0-/55-44-22-00-|
|4-4-4--4-4-44444-4-4-4--4444-4444444------------------------|
|------------------------------------------------------------|
|------------------------------------------------------------|
|------------------------------------------------------------|

|-----------------4-4-4-4444h7-444--4-4-4--4444-4444444-|
|-222-20-000-000--5-5-5-5555-5-555--4-4-4--44h5-5555555-|
|-----------------4-4-4-4444-4-444--4-4-4--4444-4444444-|
|-------------------------------------------------------|
|-------------------------------------------------------|
|-------------------------------------------------------|

|5-5-5--544-44-444-----------------------------|
|5-5-5--555-55-555--5--5--5-/7--7-7-7--7-7-7-\-|
|6-6-6--644-44-444--7b-7b-7b/9b-9b9b9b-9b9b9b\-|
|----------------------------------------------|
|----------------------------------------------|
|----------------------------------------------|

 Pre-Chorus:
|4444-4444-000-2222-7777--4444-4444-0000-0----------|
|4444-5555-222-4444-9999--4444-5555-2222-1----------|
|4444-6666-222-4444-9999--4444-6666-2222-2----------|
|6666-6666-222-4444-9999--6666-6666-2222-2----------|
|6666-4444-000-2222-7777--6666-4444-0000-0----------|
|4444---------------------4444----------------------|

 Chorus:
          |3x***************|
|33333355-7777-4444-0000-0000-------------------------4\-7--7\|
|55555577-9999-4444-2222-1111-/55554/55554/55554/5555-5\-9--9\|
|55555577-9999-4444-2222-2222-------------------------4\-9--9\|
|55555577-9999-6666-2222-2222----------------------------9--9\|
|33333355-7777-6666-0000-0000----------------------------7--7\|
|--------------4444-------------------------------------------|




-----------------------------------------------------------------------------
                             Green Day - Ashley
-----------------------------------------------------------------------------

Artist: Green Day
Album: ¡DOS!
Song: Ashley
Instrument: Guitar
Submitter: GuitarPunk94

Feel free to rate + comment! Join the GreenDayCommunity(GDC) :-)

Standard Tuning



Key:
-  - Nothing
10b- Bend string to fret
/ - Slide up or down




 Chorus:         Verse 1:
 |2x**********|
|---------------------------------------------------|
|---------------------------------------------------|
|9---9-12----12-----------------------------------9-|
|9-7-9-12-12-12------------------------7--------7-9-|
|7-7-7-10-12-10------5-0------5----7-5---7--7-5---7-|
|--5------10-----0-3------0-3---7-------------------|

  Pre-Chorus:     Chorus:
  |3x***|         |4x**********|
|--------------------------------|
|--------------------------------|
|-5---7-9--5---4--9---9-12----12-|
|-5-5-7-9--5-5-4--9-7-9-12-12-12-|
|-3-5-5-7--3-5-2--7-7-7-10-12-10-|
|---3--------3------5------10----|

 Solo:
 |4x**************************|
|-------------------------------|
|5---5------5-555/8888----8810b-|
|-4-4-44/777----------7777------|
|-------------------------------|
|-------------------------------|
|-------------------------------|

 Bridge:        Verse 2:
|----------------------------------------------------|
|----------------------------------------------------|
|--------5---2-------------------------------------9-|
|5-2-5-2-5-5-2--------------------------7--------7-9-|
|5-2-5-2-3-5-0------5-0------5------7-5---7--7-5---7-|
|3-0-3-0---3----0-3------0-3---7---------------------|

  Pre-Chorus:     Chorus:         Outro:
  |3x***|         |4x**********|
|-----------------------------------------------|
|-----------------------------------------------|
|-5---7-9--5---4--9---9-12----12----------------|
|-5-5-7-9--5-5-4--9-7-9-12-12-12--22-22-22-22/\-|
|-3-5-5-7--3-5-2--7-7-7-10-12-10--22-22-22-22/\-|
|---3--------3------5------10-----00-00-00-00---|




-----------------------------------------------------------------------------
                             Green Day - Baby Eyes
-----------------------------------------------------------------------------

Artist: Green Day
Album: ¡DOS!
Song: Baby Eyes
Instrument: Guitar
Submitter: GuitarPunk94

Feel free to rate + comment! Join the GreenDayCommunity(GDC) :-)

Standard Tuning



Key:
-  - Nothing
~  - Let notes ring
4b - Bend string to fret
/ - Slide up or down





  Intro:                        Verse 1:
|--------------------------------------------|
|--------------------------------------------|
|-4---------5-4b-4~--------5-4b-4~9-4------4-|
|-4-4-5-2-5-5------4-5-2-5-5------9-4--2-4-4-|
|-2-4-5-2-5-3------4-5-2-5-3------7-2--2-4-2-|
|---2-3-0-3--------2-3-0-3-------------0-2---|

                Chorus:
|-------------------------------------------|
|-------------------------------------------|
|-4-9-4------4------4-------4--------6------|
|-4-9-4--2-4-4--2-4-4-2-2-4-4--2-4-6-6--2-4-|
|-2-7-2--2-4-2--2-4-2-2-2-4-2--2-4-6-4--2-4-|
|--------0-2----0-2---0-0-2----0-2-4----0-2-|

                                Verse 2:
|--------------------------------------------|
|--------------------------------------------|
|-4---------5-4b-4~--------5-4b-4~9-4------4-|
|-4-4-5-2-5-5------4-5-2-5-5------9-4--2-4-4-|
|-2-4-5-2-5-3------4-5-2-5-3------7-2--2-4-2-|
|---2-3-0-3--------2-3-0-3-------------0-2---|

                Chorus:
|---------------------------------------------------|
|---------------------------------------------------|
|-4-9-4------4------4-------4--------6--------------|
|-4-9-4--2-4-4--2-4-4-2-2-4-4--2-4-6-6--2-4-2-4-2-4~|
|-2-7-2--2-4-2--2-4-2-2-2-4-2--2-4-6-4--2-4-2-4-2-4~|
|--------0-2----0-2---0-0-2----0-2-4----0-2-0-2-0-2~|

  Outro:
              |3x**********|
|----------------------------------|
|----------------------------------|
|-4---------5-4b-4~--------5-4b----|
|-4-4-5-2-5-5------4-5-2-5-5----9\-|
|-2-4-5-2-5-3------4-5-2-5-3----9\-|
|---2-3-0-3--------2-3-0-3------7\-|



-----------------------------------------------------------------------------
                             Green Day - Lady Cobra
-----------------------------------------------------------------------------

Artist: Green Day
Album: ¡DOS!
Song: Lady Cobra
Instrument: Guitar
Submitter: GuitarPunk94

Feel free to rate + comment! Join the GreenDayCommunity(GDC) :-)

Standard Tuning



Key:
-  - Nothing
~  - Let notes ring
15b- Bend string to fret
x  - Mute strings
/ - Slide up or down




  Intro/Verse 1: Chorus:
       |11x**|   |2x***************|
|------------------------------------------------|
|------------------------------------------------|
|----------------x7x7x---------------------------|
|-9x9x-7-x9x9x-7-x7x7x-x7x7x-x9x9x-7-x4x4x-x7x7x-|
|-9x9x-7-x9x9x-7-x5x5x-x7x7x-x9x9x-7-x4x4x-x7x7x-|
|-7x7x-5-x7x7x-5-------x5x5x-x7x7x-5-x2x2x-x5x5x-|

                      Verse 2:
                      |3x***|
|-----------------------------------------------------|
|-----------------------------------------------------|
|-----------------------------4/6/8/9/11\9\8~---------|
|-x4x4x-x7x7x-8-9--9--7-x9x9x-----------------x9x9x-7-|
|-x4x4x-x7x7x-8-9--9--7-x9x9x-----------------x9x9x-7-|
|-x2x2x-x5x5x-6-7--7--5-x7x7x-----------------x7x7x-5-|

                                  Chorus:
|-------------------------------------------------------------------|
|-------------------------------------------------------------------|
|-4/6/8/9/11\9\8~-x9x9x---------------------------------------------|
|-----------------x9x9x-7-x9x9x-7-x4x4x-x7x7x-x4x4x-x7x7x-8-9--9--7-|
|-----------------x7x7x-7-x9x9x-7-x4x4x-x7x7x-x4x4x-x7x7x-8-9--9--7-|
|-----------------------5-x7x7x-5-x2x2x-x5x5x-x2x2x-x5x5x-6-7--7--5-|

  Solo:
|------------------------------------------------18b-|
|-----------15b-------------------------------17b----|
|-/11~/16~16---14b--14b14b14b14b-17b17b17b1716-------|
|----------------------------------------------------|
|----------------------------------------------------|
|----------------------------------------------------|

  Chorus:
    |2x***************|
|------------------------------------------------------|
|------------------------------------------------------|
|---x7x7x----------------------------------------------|
|-7-x7x7x-x7x7x-x9x9x-7-x4x4x-x7x7x-x4x4x-x7x7x-8-9--9-|
|-7-x5x5x-x7x7x-x9x9x-7-x4x4x-x7x7x-x4x4x-x7x7x-8-9--9-|
|-5-------x5x5x-x7x7x-5-x2x2x-x5x5x-x2x2x-x5x5x-6-7--7-|

  Outro:
  |4x***|
|--------------|
|--------------|
|--------------|
|-7-x9x9x-7-9\-|
|-7-x9x9x-7-9\-|
|-5-x7x7x-5-7\-|



-----------------------------------------------------------------------------
                             Green Day - Nightlife
-----------------------------------------------------------------------------

*I cant find a guitar tab for this in the internet (20.Nov.2012) and I 
 dont want to tab this kind of GD-song*



-----------------------------------------------------------------------------
                             Green Day - Wow! That's Loud
-----------------------------------------------------------------------------

Artist: Green Day
Album: ¡DOS!
Song: Wow! That's Loud
Instrument: Guitar
Submitter: GuitarPunk94

Feel free to rate + comment! Join the GreenDayCommunity(GDC) :-)

Standard Tuning


Key:
-  - Nothing
~  - Let notes ring
16b- Bend string to fret
x  - Mute strings
p  - Pull off
/ - Slide up or down




 Intro:
|---------7-9~-11-12~-11-12-11-9-7----|
|----9-11~------------------------11~-|
|-11~---------------------------------|
|-------------------------------------|
|-------------------------------------|
|-------------------------------------|

 Verse 1:
    |3x*************|  |2x*************|  |2x*************|
|-----------------------------------------------------------|
|-----------------------------------------------------------|
|----------------------4-4-4-4-4-4-4-4-x--------------------|
|-2-4-4-4-4-4-4-4-4-x--4-4-4-4-4-4-4-4-x--4-4-4-4-4-4-4-4-x-|
|-2-4-4-4-4-4-4-4-4-x--2-2-2-2-2-2-2-2-0--4-4-4-4-4-4-4-4-x-|
|-0-2-2-2-2-2-2-2-2-0---------------------2-2-2-2-2-2-2-2-0-|

 Pre-Chorus:
|-----------------------------------------------------------------|
|-----------------------------------------------------------------|
|-2-2-2-2-2-2-2-2-----------------2-2-2-2-2-2-2-2-----------------|
|-2-2-2-2-2-2-2-2-4-4-4-4-4-4-4-4-2-2-2-2-2-2-2-2-4-4-4-4-4-4-4-4-|
|-0-0-0-0-0-0-0-0-4-4-4-4-4-4-4-4-0-0-0-0-0-0-0-0-4-4-4-4-4-4-4-4-|
|-----------------2-2-2-2-2-2-2-2-----------------2-2-2-2-2-2-2-2-|

 Chorus:
|---------------------|
|---------------------|
|-4-4-4-4-5-5-6-6-6-6-|
|-4-4-4-4-5-5-6-6-6-6-|
|-2-2-2-2-3-3-4-4-4-4-|
|---------------------|

|---------7-9~-11-12~-11-12-11-9-7----|
|----9-11~------------------------11~-|
|-11~---------------------------------|
|-------------------------------------|
|-------------------------------------|
|-------------------------------------|

 Verse 2:
    |2x*************|  |2x*************|  |2x*************|
|-----------------------------------------------------------|
|-----------------------------------------------------------|
|----------------------4-4-4-4-4-4-4-4-x--------------------|
|-2-4-4-4-4-4-4-4-4-x--4-4-4-4-4-4-4-4-x--4-4-4-4-4-4-4-4-x-|
|-2-4-4-4-4-4-4-4-4-x--2-2-2-2-2-2-2-2-0--4-4-4-4-4-4-4-4-x-|
|-0-2-2-2-2-2-2-2-2-0---------------------2-2-2-2-2-2-2-2-0-|

 Pre-Chorus:
|-----------------------------------------------------------------|
|-----------------------------------------------------------------|
|-2-2-2-2-2-2-2-2-----------------2-2-2-2-2-2-2-2-----------------|
|-2-2-2-2-2-2-2-2-4-4-4-4-4-4-4-4-2-2-2-2-2-2-2-2-4-4-4-4-4-4-4-4-|
|-0-0-0-0-0-0-0-0-4-4-4-4-4-4-4-4-0-0-0-0-0-0-0-0-4-4-4-4-4-4-4-4-|
|-----------------2-2-2-2-2-2-2-2-----------------2-2-2-2-2-2-2-2-|

 Chorus:
|---------------------|
|---------------------|
|-4-4-4-4-5-5-6-6-6-6-|
|-4-4-4-4-5-5-6-6-6-6-|
|-2-2-2-2-3-3-4-4-4-4-|
|---------------------|
 
 Bridge/Solo:
  |3x*******************************|
|---------7-9~-11-12~-11-12-11-9-7----|
|----9-11~------------------------11~-|
|-11~---------------------------------|
|-------------------------------------|
|-------------------------------------|
|-------------------------------------|

|--------------------------------------|
|-14-----------------14-----14----14---|
|-16b-16~16~-16~-16~-16b-16~--16~-16b\-|
|--------------------------------------|
|--------------------------------------|
|--------------------------------------|

|---------7-9~-11-12~-11-12-11-9-7----|
|----9-11~------------------------11~-|
|-11~---------------------------------|
|-------------------------------------|
|-------------------------------------|
|-------------------------------------|

 Guitar 1 - Solo (*i'll try to add the solo later*)
|---------------------------------------------------|
|---------------------------------------------------|
|---------------------------------------------------|
|---------------------------------------------------|
|---------------------------------------------------|
|---------------------------------------------------|

 Guitar 2
|---------------------|
|---------------------|
|-4-4-4-4-5-5-6-6-6-6-|
|-4-4-4-4-5-5-6-6-6-6-|
|-2-2-2-2-3-3-4-4-4-4-|
|---------------------|

 Guitar 1    *(2:18min.)
|--------------------------------------------------------------|
|--------------------------------------------------------------|
|--------------------------------------------------------------|
|-4------------------------------------------------------------|
|-4------------------------------------------------------------|
|-2~2~-------/7\6~/7~/9~-/12~-\6~-/9~-/12~-12~-12~-12~-12~-\6~-|

          Verse 3:
                 *(2:46)    *(2:51)
|------------------------------------------|
|------------------------------------------|
|------------------------------------------|
|------------------------------------------|
|------------------------------------------|
|-\-\-\-\-2~-2~--/7~---7/9\-2~-----\-\-\-\-|

 Pre-Chorus:
|-----------------------------------------------------------------|
|-----------------------------------------------------------------|
|-2-2-2-2-2-2-2-2-----------------2-2-2-2-2-2-2-2-----------------|
|-2-2-2-2-2-2-2-2-4-4-4-4-4-4-4-4-2-2-2-2-2-2-2-2-4-4-4-4-4-4-4-4-|
|-0-0-0-0-0-0-0-0-4-4-4-4-4-4-4-4-0-0-0-0-0-0-0-0-4-4-4-4-4-4-4-4-|
|-----------------2-2-2-2-2-2-2-2-----------------2-2-2-2-2-2-2-2-|

 Chorus:
|---------------------------------|
|-7--7--7--7-8---9---9---9---9----|
|-9b-9b-9b-9b10b-11b-11b-11b-11b\-|
|---------------------------------|
|---------------------------------|
|---------------------------------|
 
 Outro:
  |4x*******************************|
|---------7-9~-11-12~-11-12-11-9-7----|
|----9-11~------------------------11~-|
|-11~---------------------------------|
|-------------------------------------|
|-------------------------------------|
|-------------------------------------|

                      *(3:42)
|------------------------------------|
|-2--2--2--2--2--2----11-9-11-9-11-9-|
|-4b-4b-4b-4b-4b-4b---x--x-x--x-x--x-|
|---------------------8--6-8--6-8--6-|
|------------------------------------|
|------------------------------------|

  *(3:49) *(3:53)
|----------------------------------|
|----------------------------------|
|----------------------------------|
|-4-------4------------------------|
|-4-------4------------------------|
|-2-2~----2-2~~~~~2b~~~~2~~~~2b~~~-|



-----------------------------------------------------------------------------
                             Green Day - Amy
-----------------------------------------------------------------------------

Artist: Green Day
Album: ¡DOS!
Song: Amy
Instrument: Guitar
Submitter: GuitarPunk94

Feel free to rate + comment! Join the GreenDayCommunity(GDC) :-)


*The notes might not be 100% correct to the studio version,
 but its a nice cover and sounds close to the original song which
 Billie Joe Armstrong wrote in no more than 20 minutes before
 the very first secret show at the Tiki Bar.

*Let all notes ring.


Standard Tuning



Key:
-  - Nothing
x  - Mute strings
/ - Slide up or down




 Intro:
|-------------------------------|
|--7-7------------7-7-----------|
|--8--8-----6-----8--8-----6----|
|------8--8-88-8------8--8-88-8-|
|-6-6------8--8--6-6------8--8--|
|--------6--------------6-------|

 Verse 1:
|-----------------------------------------|
|--11-11--------7----------------11-------|
|--11-1111----8-88-8--8-8----11--1111--11-|
|---------11---8--8---9--9-----11----11---|
|-9--9-------6------------9-9-------------|
|--------------------7-7------------------|

|------------------------------------------|
|--11-11-----------------------------------|
|--11-1111------6-----8-8---------11-------|
|---------11--8-88-8--9--9----11----11--11-|
|-9--9---------8--8-------------11----11---|
|------------6-------7-7--7/99-------------|

|-----------------------------------------|
|--11-11--------7----------------11-------|
|--11-1111----8-88-8--8-8----11--1111--11-|
|---------11---8--8---9--9-----11----11---|
|-9--9-------6------------9-9-------------|
|--------------------7-7------------------|

|------------------------------------------x-|
|--11-11--------------------------------11-x-|
|--11-1111------6---------------------1111-x-|
|---------11--8-88-8---9-----11----11------x-|
|-9--9---------8--8---9----11--11-9--9-----x-|
|------------6-------7--7/9----------------x-|

 Chorus:
|----------------------------------------------------------------|
|--7---7--7-----11-----11----11-------7-7------------------------|
|--8-8--8--8----11-11----11----11-----8--8-----6-----------------|
|-----8--8--8--------11----11----11-------8--8-88-----9-----11---|
|-6-6--------6/9--9----------------9\6-6------8--8---9----11--11-|
|-------------------------------------------6-----6/7--7/9-------|

|---------------------------|
|-----11--------------------|
|-----1111--11---8-----10---|
|--11-----11-----9-----11---|
|-9--9----------9----11--11-|
|--------------7--7/9-------|

 Bridge:
|-------------------------------|
|--7-7------------7-7-----------|
|--8--8-----6-----8--8-----6----|
|------8--8-88-8------8--8-88-8-|
|-6-6------8--8--6-6------8--8--|
|--------6--------------6-------|

 Verse 2:
|-----------------------------------------|
|--11-11--------7----------------11-------|
|--11-1111----8-88-8--8-8----11--1111--11-|
|---------11---8--8---9--9-----11----11---|
|-9--9-------6------------9-9-------------|
|--------------------7-7------------------|

|------------------------------------------|
|--11-11-----------------------------------|
|--11-1111------6-----8-8---------11-------|
|---------11--8-88-8--9--9----11----11--11-|
|-9--9---------8--8-------------11----11---|
|------------6-------7-7--7/99-------------|

|-----------------------------------------|
|--11-11--------7----------------11-------|
|--11-1111----8-88-8--8-8----11--1111--11-|
|---------11---8--8---9--9-----11----11---|
|-9--9-------6------------9-9-------------|
|--------------------7-7------------------|

|------------------------------------------x-|
|--11-11--------------------------------11-x-|
|--11-1111------6---------------------1111-x-|
|---------11--8-88-8---9-----11----11------x-|
|-9--9---------8--8---9----11--11-9--9-----x-|
|------------6-------7--7/9----------------x-|

 Chorus:
|----------------------------------------------------------------|
|--7---7--7-----11-----11----11-------7-7------------------------|
|--8-8--8--8----11-11----11----11-----8--8-----6-----------------|
|-----8--8--8--------11----11----11-------8--8-88-----9-----11---|
|-6-6--------6/9--9----------------9\6-6------8--8---9----11--11-|
|-------------------------------------------6-----6/7--7/9-------|

|---------------------------|
|-----11--------------------|
|-----1111--11---8-----10---|
|--11-----11-----9-----11---|
|-9--9----------9----11--11-|
|--------------7--7/9-------|

 Bridge:
|--------------------------------------------------------------|
|-9----9--9-----------------9----9--9999-----------------------|
|-9--9-99-99-9--8-8-7--7----9--9-99-9999--8-----------10-------|
|-9---9--9--9---9-9-99-99-9-9---9--9------9-9-----11--1111--11-|
|-7-7--------------9--9--9--7-7--------------9------11----11---|
|--------------7-7-----------------------7-7--7/99-------------|

 Verse 3:
|-----------------------------------------|
|--11-11--------7----------------11-------|
|--11-1111----8-88-8--8-8----11--1111--11-|
|---------11---8--8---9--9-----11----11---|
|-9--9-------6------------9-9-------------|
|--------------------7-7------------------|

|------------------------------------------|
|--11-11-----------------------------------|
|--11-1111------6-----8-8---------11-------|
|---------11--8-88-8--9--9----11----11--11-|
|-9--9---------8--8-------------11----11---|
|------------6-------7-7--7/99-------------|

|-----------------------------------------|
|--11-11--------7----------------11-------|
|--11-1111----8-88-8--8-8----11--1111--11-|
|---------11---8--8---9--9-----11----11---|
|-9--9-------6------------9-9-------------|
|--------------------7-7------------------|

|------------------------------------------x-|
|--11-11--------------------------------11-x-|
|--11-1111------6---------------------1111-x-|
|---------11--8-88-8---9-----11----11------x-|
|-9--9---------8--8---9----11--11-9--9-----x-|
|------------6-------7--7/9----------------x-|

 Chorus:
|----------------------------------------------------------------|
|--7---7--7-----11-----11----11-------7-7------------------------|
|--8-8--8--8----11-11----11----11-----8--8-----6-----------------|
|-----8--8--8--------11----11----11-------8--8-88-----9-----11---|
|-6-6--------6/9--9----------------9\6-6------8--8---9----11--11-|
|-------------------------------------------6-----6/7--7/9-------|

|-----------------------------------------------------|
|-----11------------------------11--------------------|
|-----1111--11---8-----10-------1111--11---8-----10---|
|--11-----11-----9-----11----11-----11-----9-----11---|
|-9--9----------9----11--11-9--9----------9----11--11-|
|--------------7--7/9--------------------7--7/9-------|

 Outro:
|-----------------------------------------------------------------|
|--7-7------------7-7------------7-7------------7-7------------11-|
|--8--8-----6-----8--8-----6-----8--8-----6-----8--8-----6-----11-|
|------8--8-88-8------8--8-88-8------8--8-88-8------8--8-88-8--11-|
|-6-6------8--8--6-6------8--8--6-6------8--8--6-6------8--8---9--|
|--------6--------------6--------------6--------------6-----------|
comments
We did not receive enough feedback on this tab! Please rate:
print report bad tab
1 2 3 4 5
I want to post or [tab]
guest
You may want to rate the tab now too:
select rating
Please do not post tabs as comments. Select "correction" instead!