Oops, an error
Loading. Please wait.

Extraordinary Girl Tab

ver4
ver4

Whole song

Interactive

More versions @911Tabs.com
742 views 1 this week
1 commentread comment
1 2 3 4 5
accurate
x 1
Autoscroll
+/-
esc
set tempo
stop
Contributor
Difficulty
intermediate
Hey! There's an official Ultimate Guitar app which is ideal
for learning songs when you're away from computer. Get the app
WARNING: You are trying to view
                                    content from Ultimate-Guitar.com
                                    in an unauthorized application,
                                    which is prohibited.

                                    Please use an official Ultimate
                                    Guitar Tabs application for iPhone,
                                    iPad or Android to access legitimate
                                    chords, guitar, bass, and drum tabs
                                    from Ultimate-Guitar.com database.

                                    Type "ultimate guitar tabs" in Apple
                                    App Store's or Android Market's
                                    search to find the application.
This song is played before letterbomb, they're meant to be one song


Key: / or \ - Slide up or down

Intro


(Gtr 1)

e|--0----------0-1--------3-1-0----------0-1--------3-1----------------------|
B|--2--2--2--3-2-3--3--3--3-3-2--2--2--3-2-3--3--3--3-3----------------------|
G|--2--2--2--2-2-2--2--2--2-2-2--2--2--2-2-2--2--2--2-2----------------------|
D|--2--2--2--2-2-0--0--0--0-0-2--2--2--2-2-0--0--0--0-0----------------------|
A|--0--0--0--0-0-0--0--0--0-0-0--0--0--0-0-0--0--0--0-0----------------------|
E|---------------------------------------------------------------------------|


(Gtr 2)

e|---------------------------------------------------------------------------|
B|---------------------------------------------------------------------------|
G|---------------7--7--7--7-7--------------7--7--7--7-7----------------------|
D|--7--7--7--7-7-7--7--7--7-7-7--7--7--7-7-7--7--7--7-7----------------------|
A|--7--7--7--7-7-5--5--5--5-5-7--7--7--7-7-5--5--5--5-5----------------------|
E|--5--5--5--5-5--------------5--5--5--5-5-----------------------------------|

Verse 1


(Gtr 1)

e|--0------------------------------------------------------------------------|
B|--2--2--2--2-2-3--3--3--3-3-2--2--2--2-2-3--3--3--3-3-2--2--2--2-2-3-------|
G|--2--2--2--2-2-2--2--2--2-2-2--2--2--2-2-2--2--2--2-2-2--2--2--2-2-0-------|
D|--2--2--2--2-2-0--0--0--0-0-2--2--2--2-2-0--0--0--0-0-2--2--2--2-2-0-------|
A|--0--0--0--0-0-0--0--0--0-0-0--0--0--0-0-0--0--0--0-0-0--0--0--0-0-2-------|
E|-------------------------------------------------------------------3-------|

e|---------------------------------------------------------------------------|
B|--3--3--3-3-2--2-0-2--2-0-2-3-2-0-2--2-0-----------------------------------|
G|--0--0--0-0-2--2-2-2--2-2-2-2-2-2-2--2-2-----------------------------------|
D|--0--0--0-0-2--2-2-2--2-2-2-2-2-2-2--2-2-----------------------------------|
A|--2--2--2-2-0--0-0-0--0-0-0-0-0-0-0--0-0-----------------------------------|
E|--3--3--3-3----------------------------------------------------------------|

e|--0----------0-1--------3-1-0----------0-1--------3-1-0----------0-3-------|
B|--2--2--2--3-2-3--3--3--3-3-2--2--2--3-2-3--3--3--3-3-2--2--2--3-2-3-------|
G|--2--2--2--2-2-2--2--2--2-2-2--2--2--2-2-2--2--2--2-2-2--2--2--2-2-0-------|
D|--2--2--2--2-2-0--0--0--0-0-2--2--2--2-2-0--0--0--0-0-2--2--2--2-2-0-------|
A|--0--0--0--0-0-0--0--0--0-0-0--0--0--0-0-0--0--0--0-0-0--0--0--0-0-2-------|
E|-------------------------------------------------------------------3-------|

e|--3--3--0------------------------------------------------------------------|
B|--3--3--3-3-2--2-0-2--2-0-2-3-2-0-2----------------------------------------|
G|--0--0--0-0-2--2-2-2--2-2-2-2-2-2-2----------------------------------------|
D|--0--0--0-0-2--2-2-2--2-2-2-2-2-2-2----------------------------------------|
A|--2--2--2-2-0--0-0-0--0-0-0-0-0-0-0----------------------------------------|
E|--3--3--3-3----------------------------------------------------------------|


(Gtr 2)

e|---------------------------------------------------------------------------|
B|---------------------------------------------------------------------------|
G|---------------7--7--7--7-7--------------7--7--7--7-7----------------------|
D|--7--7--7--7-7-7--7--7--7-7-7--7--7--7-7-7--7--7--7-7-7--7--7--7-7-5-------|
A|--7--7--7--7-7-5--5--5--5-5-7--7--7--7-7-5--5--5--5-5-7--7--7--7-7-5-------|
E|--5--5--5--5-5--------------5--5--5--5-5--------------5--5--5--5-5-3-------|

e|---------------------------------------------------------------------------|
B|---------------------------------------------------------------------------|
G|---------------------------------------------------------------------------|
D|--5--5--5-5-11--11-9-11--11-9-11-12-11-9-11--11-9--------------------------|
A|--5--5--5-5--0---0-0--0---0-0--0--0--0-0--0---0-0--------------------------|
E|--3--3--3-3----------------------------------------------------------------|

e|---------------------------------------------------------------------------|
B|---------------------------------------------------------------------------|
G|---------------7--7--7--7-7--------------7--7--7--7-7----------------------|
D|--7--7--7--7-7-7--7--7--7-7-7--7--7--7-7-7--7--7--7-7-7--7--7--7-7-5-------|
A|--7--7--7--7-7-5--5--5--5-5-7--7--7--7-7-5--5--5--5-5-7--7--7--7-7-5-------|
E|--5--5--5--5-5--------------5--5--5--5-5--------------5--5--5--5-5-3-------|

e|---------------------------------------------------------------------------|
B|---------------------------------------------------------------------------|
G|---------------------------------------------------------------------------|
D|--5--5--5-5-11--11-9-11--11-9-11-12-11-9-11--------------------------------|
A|--5--5--5-5--0---0-0--0---0-0--0--0--0-0--0--------------------------------|
E|--3--3--3-3----------------------------------------------------------------|

Chorus


(Gtr 1)

e|---------------------------------------------------------------------------|
B|---------------------------------------------------------------------------|
G|---------------7--7--9-9-9--11--11--9-9-9--7--7--9-9-9--7--7--7--7-7-------|
D|--4--4--2-2-2--7--7--9-9-9--11--11--9-9-9--7--7--9-9-9--7--7--7--7-7-------|
A|--4--4--2-2-2--5--5--7-7-7---9---9--7-7-7--5--5--7-7-7--5--5--5--5-5-------|
E|--2--2--0-0-0--------------------------------------------------------------|

e|---------------------------------------------------------------------------|
B|-----------------------6---------------------------------------------------|
G|--9--9--9--9-9-7-------7---------------------------------------------------|
D|--9--9--9--9-9-7-------7---------------------------------------------------|
A|--7--7--7--7-7-5-------5---------------------------------------------------|
E|---------------------------------------------------------------------------|


(Gtr 2)

e|---------------------------------------------------------------------------|
B|-------------------------------10------------------------------------------|
G|---------------7--7--9-9-9--/11--11----9-9-9--7--7--9-9-9--7--7--7--7-7----|
D|--4--4--2-2-2--7--7--9-9-9---------11--9-9-9--7--7--9-9-9--7--7--7--7-7----|
A|--4--4--2-2-2--5--5--7-7-7-------------7-7-7--5--5--7-7-7--5--5--5--5-5----|
E|--2--2--0-0-0--------------------------------------------------------------|

e|---------------------------------------------------------------------------|
B|-----------------------6---------------------------------------------------|
G|--9--9--9--9-9-7-------7---------------------------------------------------|
D|--9--9--9--9-9-7-------7---------------------------------------------------|
A|--7--7--7--7-7-5-------5---------------------------------------------------|
E|---------------------------------------------------------------------------|


(Gtr 1)

e|--0----------0-1--------3-1-0----------0-1--------3-1----------------------|
B|--2--2--2--3-2-3--3--3--3-3-2--2--2--3-2-3--3--3--3-3----------------------|
G|--2--2--2--2-2-2--2--2--2-2-2--2--2--2-2-2--2--2--2-2----------------------|
D|--2--2--2--2-2-0--0--0--0-0-2--2--2--2-2-0--0--0--0-0----------------------|
A|--0--0--0--0-0-0--0--0--0-0-0--0--0--0-0-0--0--0--0-0----------------------|
E|---------------------------------------------------------------------------|

(Gtr 2)

e|---------------------------------------------------------------------------|
B|---------------------------------------------------------------------------|
G|---------------7--7--7--7-7--------------7--7--7--7-7----------------------|
D|--7--7--7--7-7-7--7--7--7-7-7--7--7--7-7-7--7--7--7-7----------------------|
A|--7--7--7--7-7-5--5--5--5-5-7--7--7--7-7-5--5--5--5-5----------------------|
E|--5--5--5--5-5--------------5--5--5--5-5-----------------------------------|



Verse 2


(Gtr 1)

e|--0------------------------------------------------------------------------|
B|--2--2--2--2-2-3--3--3--3-3-2--2--2--2-2-3--3--3--3-3-2--2--2--2-2-3-------|
G|--2--2--2--2-2-2--2--2--2-2-2--2--2--2-2-2--2--2--2-2-2--2--2--2-2-0-------|
D|--2--2--2--2-2-0--0--0--0-0-2--2--2--2-2-0--0--0--0-0-2--2--2--2-2-0-------|
A|--0--0--0--0-0-0--0--0--0-0-0--0--0--0-0-0--0--0--0-0-0--0--0--0-0-2-------|
E|-------------------------------------------------------------------3-------|

e|---------------------------------------------------------------------------|
B|--3--3--3-3-2--2-0-2--2-0-2-3-2-0-2--2-0-----------------------------------|
G|--0--0--0-0-2--2-2-2--2-2-2-2-2-2-2--2-2-----------------------------------|
D|--0--0--0-0-2--2-2-2--2-2-2-2-2-2-2--2-2-----------------------------------|
A|--2--2--2-2-0--0-0-0--0-0-0-0-0-0-0--0-0-----------------------------------|
E|--3--3--3-3----------------------------------------------------------------|

e|--0----------0-1--------3-1-0----------0-1--------3-1-0----------0-3-------|
B|--2--2--2--3-2-3--3--3--3-3-2--2--2--3-2-3--3--3--3-3-2--2--2--3-2-3-------|
G|--2--2--2--2-2-2--2--2--2-2-2--2--2--2-2-2--2--2--2-2-2--2--2--2-2-0-------|
D|--2--2--2--2-2-0--0--0--0-0-2--2--2--2-2-0--0--0--0-0-2--2--2--2-2-0-------|
A|--0--0--0--0-0-0--0--0--0-0-0--0--0--0-0-0--0--0--0-0-0--0--0--0-0-2-------|
E|-------------------------------------------------------------------3-------|

e|--3--3--0------------------------------------------------------------------|
B|--3--3--3-3-2--2-0-2--2-0-2-3-2-0-2----------------------------------------|
G|--0--0--0-0-2--2-2-2--2-2-2-2-2-2-2----------------------------------------|
D|--0--0--0-0-2--2-2-2--2-2-2-2-2-2-2----------------------------------------|
A|--2--2--2-2-0--0-0-0--0-0-0-0-0-0-0----------------------------------------|
E|--3--3--3-3----------------------------------------------------------------|


(Gtr 2)

e|---------------------------------------------------------------------------|
B|---------------------------------------------------------------------------|
G|---------------7--7--7--7-7--------------7--7--7--7-7----------------------|
D|--7--7--7--7-7-7--7--7--7-7-7--7--7--7-7-7--7--7--7-7-7--7--7--7-7-5-------|
A|--7--7--7--7-7-5--5--5--5-5-7--7--7--7-7-5--5--5--5-5-7--7--7--7-7-5-------|
E|--5--5--5--5-5--------------5--5--5--5-5--------------5--5--5--5-5-3-------|

e|---------------------------------------------------------------------------|
B|---------------------------------------------------------------------------|
G|---------------------------------------------------------------------------|
D|--5--5--5-5-11--11-9-11--11-9-11-12-11-9-11--11-9--------------------------|
A|--5--5--5-5--0---0-0--0---0-0--0--0--0-0--0---0-0--------------------------|
E|--3--3--3-3----------------------------------------------------------------|

e|---------------------------------------------------------------------------|
B|---------------------------------------------------------------------------|
G|---------------7--7--7--7-7--------------7--7--7--7-7----------------------|
D|--7--7--7--7-7-7--7--7--7-7-7--7--7--7-7-7--7--7--7-7-7--7--7--7-7-5-------|
A|--7--7--7--7-7-5--5--5--5-5-7--7--7--7-7-5--5--5--5-5-7--7--7--7-7-5-------|
E|--5--5--5--5-5--------------5--5--5--5-5--------------5--5--5--5-5-3-------|

e|---------------------------------------------------------------------------|
B|---------------------------------------------------------------------------|
G|---------------------------------------------------------------------------|
D|--5--5--5-5-11--11-9-11--11-9-11-12-11-9-11--------------------------------|
A|--5--5--5-5--0---0-0--0---0-0--0--0--0-0--0--------------------------------|
E|--3--3--3-3----------------------------------------------------------------|

Chorus


(Gtr 1)

e|---------------------------------------------------------------------------|
B|---------------------------------------------------------------------------|
G|---------------7--7--9-9-9--11--11--9-9-9--7--7--9-9-9--7--7--7--7-7-------|
D|--4--4--2-2-2--7--7--9-9-9--11--11--9-9-9--7--7--9-9-9--7--7--7--7-7-------|
A|--4--4--2-2-2--5--5--7-7-7---9---9--7-7-7--5--5--7-7-7--5--5--5--5-5-------|
E|--2--2--0-0-0--------------------------------------------------------------|

e|---------------------------------------------------------------------------|
B|----------------------6----------------------------------------------------|
G|--9--9--9--9-9-7------7----------------------------------------------------|
D|--9--9--9--9-9-7------7----------------------------------------------------|
A|--7--7--7--7-7-5------5----------------------------------------------------|
E|---------------------------------------------------------------------------|


(Gtr 2)

e|---------------------------------------------------------------------------|
B|-------------------------------10------------------------------------------|
G|---------------7--7--9-9-9--/11--11----9-9-9--7--7--9-9-9--7--7--7--7-7----|
D|--4--4--2-2-2--7--7--9-9-9---------11--9-9-9--7--7--9-9-9--7--7--7--7-7----|
A|--4--4--2-2-2--5--5--7-7-7-------------7-7-7--5--5--7-7-7--5--5--5--5-5----|
E|--2--2--0-0-0--------------------------------------------------------------|

e|---------------------------------------------------------------------------|
B|-----------------------6---------------------------------------------------|
G|--9--9--9--9-9-7-------7---------------------------------------------------|
D|--9--9--9--9-9-7-------7---------------------------------------------------|
A|--7--7--7--7-7-5-------5---------------------------------------------------|
E|---------------------------------------------------------------------------|

Bridge


(Gtr 1)

e|--0----------0-1--------3-1-0----------0-1--------3-1-0----------0-3-------|
B|--2--2--2--3-2-3--3--3--3-3-2--2--2--3-2-3--3--3--3-3-2--2--2--3-2-3-------|
G|--2--2--2--2-2-2--2--2--2-2-2--2--2--2-2-2--2--2--2-2-2--2--2--2-2-0-------|
D|--2--2--2--2-2-0--0--0--0-0-2--2--2--2-2-0--0--0--0-0-2--2--2--2-2-0-------|
A|--0--0--0--0-0-0--0--0--0-0-0--0--0--0-0-0--0--0--0-0-0--0--0--0-0-2-------|
E|-------------------------------------------------------------------3-------|

e|--3--3--0------------------------------------------------------------------|
B|--3--3--3-3-2--2-0-2--2-0-2-3-2-0-2--2-0-----------------------------------|
G|--0--0--0-0-2--2-2-2--2-2-2-2-2-2-2--2-2-----------------------------------|
D|--0--0--0-0-2--2-2-2--2-2-2-2-2-2-2--2-2-----------------------------------|
A|--2--2--2-2-0--0-0-0--0-0-0-0-0-0-0--0-0-----------------------------------|
E|--3--3--3-3----------------------------------------------------------------|

e|--0----------0-1--------3-1-0----------0-1--------3-1-0----------0-3-------|
B|--2--2--2--3-2-3--3--3--3-3-2--2--2--3-2-3--3--3--3-3-2--2--2--3-2-3-------|
G|--2--2--2--2-2-2--2--2--2-2-2--2--2--2-2-2--2--2--2-2-2--2--2--2-2-0-------|
D|--2--2--2--2-2-0--0--0--0-0-2--2--2--2-2-0--0--0--0-0-2--2--2--2-2-0-------|
A|--0--0--0--0-0-0--0--0--0-0-0--0--0--0-0-0--0--0--0-0-0--0--0--0-0-2-------|
E|-------------------------------------------------------------------3-------|

e|--3--3--0------------------------------------------------------------------|
B|--3--3--3-3-2--2-0-2--2-0-2-3-2-0-2----------------------------------------|
G|--0--0--0-0-2--2-2-2--2-2-2-2-2-2-2----------------------------------------|
D|--0--0--0-0-2--2-2-2--2-2-2-2-2-2-2----------------------------------------|
A|--2--2--2-2-0--0-0-0--0-0-0-0-0-0-0----------------------------------------|
E|--3--3--3-3----------------------------------------------------------------|


(Gtr 2)

e|---------------------------------------------------------------------------|
B|---------------------------------------------------------------------------|
G|---------------7--7--7--7-7--------------7--7--7--7-7----------------------|
D|--7--7--7--7-7-7--7--7--7-7-7--7--7--7-7-7--7--7--7-7-7--7--7--7-7-5-------|
A|--7--7--7--7-7-5--5--5--5-5-7--7--7--7-7-5--5--5--5-5-7--7--7--7-7-5-------|
E|--5--5--5--5-5--------------5--5--5--5-5--------------5--5--5--5-5-3-------|

e|---------------------------------------------------------------------------|
B|---------------------------------------------------------------------------|
G|---------------------------------------------------------------------------|
D|--5--5--5-5-11--11-9-11--11-9-11-12-11-9-11--11-9--------------------------|
A|--5--5--5-5--0---0-0--0---0-0--0--0--0-0--0---0-0--------------------------|
E|--3--3--3-3----------------------------------------------------------------|

e|---------------------------------------------------------------------------|
B|---------------------------------------------------------------------------|
G|---------------7--7--7--7-7--------------7--7--7--7-7----------------------|
D|--7--7--7--7-7-7--7--7--7-7-7--7--7--7-7-7--7--7--7-7-7--7--7--7-7-5-------|
A|--7--7--7--7-7-5--5--5--5-5-7--7--7--7-7-5--5--5--5-5-7--7--7--7-7-5-------|
E|--5--5--5--5-5--------------5--5--5--5-5--------------5--5--5--5-5-3-------|

e|---------------------------------------------------------------------------|
B|---------------------------------------------------------------------------|
G|---------------------------------------------------------------------------|
D|--5--5--5-5-11--11-9-11--11-9-11-12-11-9-11--------------------------------|
A|--5--5--5-5--0---0-0--0---0-0--0--0--0-0--0--------------------------------|
E|--3--3--3-3----------------------------------------------------------------|

Chorus


(Gtr 1)

e|---------------------------------------------------------------------------|
B|---------------------------------------------------------------------------|
G|---------------7--7--9-9-9--11--11--9-9-9--7--7--9-9-9--7--7--7--7-7-------|
D|--4--4--2-2-2--7--7--9-9-9--11--11--9-9-9--7--7--9-9-9--7--7--7--7-7-------|
A|--4--4--2-2-2--5--5--7-7-7---9---9--7-7-7--5--5--7-7-7--5--5--5--5-5-------|
E|--2--2--0-0-0--------------------------------------------------------------|

e|---------------------------------------------------------------------------|
B|------------------------------------------------------------------------6--|
G|--9--9--9--9-9-7--7--7--7-7-9--9--9--9-9-7--7--7--7-7-9--9--9--9-9-7----7--|
D|--9--9--9--9-9-7--7--7--7-7-9--9--9--9-9-7--7--7--7-7-9--9--9--9-9-7----7--|
A|--7--7--7--7-7-5--5--5--5-5-7--7--7--7-7-5--5--5--5-5-7--7--7--7-7-5----5--|
E|---------------------------------------------------------------------------|


(Gtr 2)

e|---------------------------------------------------------------------------|
B|-------------------------------10------------------------------------------|
G|---------------7--7--9-9-9--/11--11----9-9-9--7--7--9-9-9--7--7--7--7-7----|
D|--4--4--2-2-2--7--7--9-9-9---------11--9-9-9--7--7--9-9-9--7--7--7--7-7----|
A|--4--4--2-2-2--5--5--7-7-7-------------7-7-7--5--5--7-7-7--5--5--5--5-5----|
E|--2--2--0-0-0--------------------------------------------------------------|

e|---------------------------------------------------------------------------|
B|------------------------------------------------------------------------6--|
G|--9--9--9--9-9-7--7--7--7-7-9--9--9--9-9-7--7--7--7-7-9--9--9--9-9-7----7--|
D|--9--9--9--9-9-7--7--7--7-7-9--9--9--9-9-7--7--7--7-7-9--9--9--9-9-7----7--|
A|--7--7--7--7-7-5--5--5--5-5-7--7--7--7-7-5--5--5--5-5-7--7--7--7-7-5----5--|
E|---------------------------------------------------------------------------|

Outro


(Gtr 1)

e|--0----------0-1--------3-1-0----------0-1--------3-1----------------------|
B|--2--2--2--3-2-3--3--3--3-3-2--2--2--3-2-3--3--3--3-3----------------------|
G|--2--2--2--2-2-2--2--2--2-2-2--2--2--2-2-2--2--2--2-2----------------------|
D|--2--2--2--2-2-0--0--0--0-0-2--2--2--2-2-0--0--0--0-0----------------------|
A|--0--0--0--0-0-0--0--0--0-0-0--0--0--0-0-0--0--0--0-0----------------------|
E|---------------------------------------------------------------------------|

e|--0----------0-1--------3-1-0----------0-1--------3-1-0--------------------|
B|--2--2--2--3-2-3--3--3--3-3-2--2--2--3-2-3--3--3--3-3-2--------------------|
G|--2--2--2--2-2-2--2--2--2-2-2--2--2--2-2-2--2--2--2-2-2--------------------|
D|--2--2--2--2-2-0--0--0--0-0-2--2--2--2-2-0--0--0--0-0-2--------------------|
A|--0--0--0--0-0-0--0--0--0-0-0--0--0--0-0-0--0--0--0-0-0--------------------|
E|---------------------------------------------------------------------------|


(Gtr 2)

e|---------------------------------------------------------------------------|
B|---------------------------------------------------------------------------|
G|---------------7--7--7--7-7--------------7--7--7--7-7----------------------|
D|--7--7--7--7-7-7--7--7--7-7-7--7--7--7-7-7--7--7--7-7----------------------|
A|--7--7--7--7-7-5--5--5--5-5-7--7--7--7-7-5--5--5--5-5----------------------|
E|--5--5--5--5-5--------------5--5--5--5-5-----------------------------------|

e|---------------------------------------------------------------------------|
B|---------------------------------------------------------------------------|
G|---------------7--7--7--7-7--------------7--7--7--7-7----------------------|
D|--7--7--7--7-7-7--7--7--7-7-7--7--7--7-7-7--7--7--7-7-7--------------------|
A|--7--7--7--7-7-5--5--5--5-5-7--7--7--7-7-5--5--5--5-5-7--------------------|
E|--5--5--5--5-5--------------5--5--5--5-5--------------5--------------------|
comments
We did not receive enough feedback on this tab! Please rate:
print report bad tab
1 2 3 4 5
1 comment total.
0 reply
harrysaphir wrote on July 10 2014, 12:34 pm

didn't like this contribution

I want to post or [tab]
guest
You may want to rate the tab now too:
select rating
Please do not post tabs as comments. Select "correction" instead!