Oops, an error
Loading. Please wait.

Hitchin A Ride Tab

ver8
ver8
More versions @911Tabs.com
53,421 views 48 this week
2 commentsread comments
1 2 3 4 5
accurate
x 7
Autoscroll
+/-
esc
set tempo
stop
Contributor
Hey! There's an official Ultimate Guitar app which is ideal
for learning songs when you're away from computer. Get the app
WARNING: You are trying to view
                                    content from Ultimate-Guitar.com
                                    in an unauthorized application,
                                    which is prohibited.

                                    Please use an official Ultimate
                                    Guitar Tabs application for iPhone,
                                    iPad or Android to access legitimate
                                    chords, guitar, bass, and drum tabs
                                    from Ultimate-Guitar.com database.

                                    Type "ultimate guitar tabs" in Apple
                                    App Store's or Android Market's
                                    search to find the application.
Green Day Hitchin' A Ride
From the album Nimrod and International Superhits
Track numbers 2 and 14
Tabbed by Liam
Email: guitar_rocker_47@hotmail.com
Tuning: Standard   

IMPORTANT the tab doesn't make any sense unless you pay close attention to the order
at the end of this tab. Okay!

In the Main Riff the first bar sounds the same as the 2nd bar even though it is a
different chord you play, this is the way Billie Joe plays it because it easier to
reach. And it sounds exactly the same. Give it a try if you're confused email me or
leave a comment

Violin Intro (transcribed For Guitar)
e|-----------------------------------------------------------|
B|------3/4--6b~~-----7--6—4--3b4----------------------------|
G|-4/5---------------------------5~~-------------------------|
D|-----------------------------------------------------------|
A|-----------------------------------------------------------|
E|-----------------------------------------------------------|

Main Riff 
E|------------------------|------------------------|
B|------------------------|------------------------|
G|------------------------|-4-4--2-2---------------|
D|-9-9--7-7--6-6--5-5-5-5-|-4-4--2-2--6-6--5-5-5-5-|
A|-9-9--7-7--6-6--5-5-5-5-|-2-2--0-0--6-6--5-5-5-5-|
E|-7-7--5-5--4-4--3-3-3-3-|-----------4-4--3-3-3-3-|
PM ***********************************************

Pre Chorus (a second guitar plays this when Guitar 1 is finishes the Main Riff)
E|------------------------------|
B|------------------------------|
G|------------------------------|
D|-2-2-2-2--4-4-4-4-------------|
A|-2-2-2-2--4-4-4-4-------------|
E|-0-0-0-0--2-2-2-2-------------|

Chorus
E|------------------------|------------------------|------------------------|
B|------------------------|------------------------|------------------------|
G|------------------------|------------------------|------------------------|
D|-9-9--7-7--6-6--5-5-5-5-|-9-9--7-7--6-6--5-5-5-5-|-9-9--7-7--6-6--5-5-5-5-|
A|-9-9--7-7--6-6--5-5-5-5-|-9-9--7-7--6-6--5-5-5-5-|-9-9--7-7--6-6--5-5-5-5-|
E|-7-7--5-5--4-4--3-3-3-3-|-7-7--5-5--4-4--3-3-3-3-|-7-7--5-5--4-4--3-3-3-3-|

E|-----------------------------|
B|-----------------------------|
G|----------------(drum fill)--|
D|-9-9--7-7--6-6---------------|
A|-9-9--7-7--6-6---------------|
E|-7-7--5-5--4-4---------------|

Chorus 2
E|------------------------|------------------------|------------------------|
B|------------------------|------------------------|------------------------|
G|------------------------|------------------------|------------------------|
D|-9-9--7-7--6-6--5-5-5-5-|-9-9--7-7--6-6--5-5-5-5-|-9-9--7-7--6-6--5-5-5-5-|
A|-9-9--7-7--6-6--5-5-5-5-|-9-9--7-7--6-6--5-5-5-5-|-9-9--7-7--6-6--5-5-5-5-|
E|-7-7--5-5--4-4--3-3-3-3-|-7-7--5-5--4-4--3-3-3-3-|-7-7--5-5--4-4--3-3-3-3-|

E|------------------------------------|------------------|------------------------|
B|------------------------------------|------------------|------------------------|
G|------------------------------------|------------------|------------------------|
D|-9-9-9-9--7-7-7-7--6-6-6-6--5-5-5-5-|-2-2-2-2--4-4-4-4-|-9-9--7-7--6-6--5-5-5-5-|
A|-9-9-9-9--7-7-7-7--6-6-6-6--5-5-5-5-|-2-2-2-2--4-4-4-4-|-9-9--7-7--6-6--5-5-5-5-|
E|-7-7-7-7--5-5-5-5--4-4-4-4--3-3-3-3-|-0-0-0-0--2-2-2-2-|-7-7--5-5--4-4--3-3-3-3-|

E|------------------------------|
B|------------------------------|
G|------------------------------|
D|-2-2-2-2--4-4-4-4-------------|
A|-2-2-2-2--4-4-4-4-------------|
E|-0-0-0-0--2-2-2-2-------------|

Pre Solo
E|------------------------|------------------------|------------------------|
B|------------------------|------------------------|------------------------|
G|------------------------|-4-4--2-2---------------|------------------------|
D|-9-9--7-7--6-6--5-5-5-5-|-4-4--2-2--6-6--5-5-5-5-|-9-9--7-7--6-6--5-5-5-5-|
A|-9-9--7-7--6-6--5-5-5-5-|-2-2--0-0--6-6--5-5-5-5-|-9-9--7-7--6-6--5-5-5-5-|
E|-7-7--5-5--4-4--3-3-3-3-|-----------4-4--3-3-3-3-|-7-7--5-5--4-4--3-3-3-3-|

E|------------------------|------------------------|
B|------------------------|------------------------|
G|------------------------|-4-4--2-2---------------|
D|-9-9--7-7--6-6--5-5-5-5-|-4-4--2-2--6-6--5-5-5-5-|
A|-9-9--7-7--6-6--5-5-5-5-|-2-2--0-0--6-6--5-5-5-5-|
E|-7-7--5-5--4-4--3-3-3-3-|-----------4-4--3-3-3-3-|



Solo (there are two guitar tracks in the solo (Billie Plays Guitar 1)

Guitar 2
E|-------------------------|-------------------------|-------------------------|
B|-------------------------|-------------------------|-------------------------|
G|-------7-7---------------|-------7-7---------------|-------7-7---------------|
D|--9-9--7-7--5-5--4-4-4---|--9-9--7-7--5-5--4-4-4---|--9-9--7-7--5-5--4-4-4---|
A|--9-9--5-5--5-5--4-4-4---|--9-9--5-5--5-5--4-4-4---|--9-9--5-5--5-5--4-4-4---|
E|--7-7-------3-3--2-2-2---|--7-7-------3-3--2-2-2---|--7-7-------3-3--2-2-2---|
   
Guitar 1                                                 
E|-------------------------|-------------------------|-------------------------|
B|-12-12-12-12-12-12-12-12-|-15-15-15-15-15-15-15-15-|-12-12-12-12-12-12-12-12-|
G|--x--x--x--x--x--x--x--x-|--x--x--x--x--x--x--x--x-|--x--x--x--x--x--x--x--x-|
D|--9--9--9--9--9--9--9--9-|-12-12-12-12-12-12-12-12-|--9--9--9--9--9--9--9--9-|
A|-------------------------|-------------------------|-------------------------|
E|-------------------------|-------------------------|-------------------------|

Guitar 2
E|-------------------------|-------------------------|-------------------------|
B|-------------------------|-------------------------|-------------------------|
G|-------7-7---------------|-------7-7---------------|-------7-7---------------|
D|--9-9--7-7--5-5--4-4-4---|--9-9--7-7--5-5--4-4-4---|--9-9--7-7--5-5--4-4-4---|
A|--9-9--5-5--5-5--4-4-4---|--9-9--5-5--5-5--4-4-4---|--9-9--5-5--5-5--4-4-4---|
E|--7-7-------3-3--2-2-2---|--7-7-------3-3--2-2-2---|--7-7-------3-3--2-2-2---|

Guitar 1
E|-------------------------|-------------------------|-------------------------|
B|-17-17-17-17-15-15-15-15-|-12-12-12-12-12-12-12-12-|-15-15-15-15-15-15-15-15-|
G|--x--x--x--x--x--x--x--x-|--x--x--x--x--x--x--x--x-|--x--x--x--x--x--x--x--x-|
D|-14-14-14-14-12-12-12-12-|--9--9--9--9--9--9--9--9-|-12-12-12-12-12-12-12-12-|
A|-------------------------|-------------------------|-------------------------|
E|-------------------------|-------------------------|-------------------------|

Guitar 2
E|-------------------------|-------------------------|-------------------------|
B|-------------------------|-------------------------|-------------------------|
G|-------7-7---------------|-------7-7---------------|-------7-7---------------|
D|--9-9--7-7--5-5--4-4-4---|--9-9--7-7--5-5--4-4-4---|--9-9--7-7--5-5--4-4-4---|
A|--9-9--5-5--5-5--4-4-4---|--9-9--5-5--5-5--4-4-4---|--9-9--5-5--5-5--4-4-4---|
E|--7-7-------3-3--2-2-2---|--7-7-------3-3--2-2-2---|--7-7-------3-3--2-2-2---|

Guitar 1
E|-------------------------|-------------------------|--------------------------|
B|-17-17-17-17-17-17-17-17-|-17-17-17-17-17-17-17-17-|-17-15-12-15--17-15-12-15-|
G|--x--x--x--x--x--x--x--x-|--x--x--x--x--x--x--x--x-|--x--x--x--x---x--x--x--x-|
D|-14-14-14-14-14-14-14-14-|-14-14-14-14-14-14-14-14-|-14-12--9-12--14-12--9-12-|
A|-------------------------|-------------------------|--------------------------|
E|-------------------------|-------------------------|--------------------------|
Bend upwards!

Guitar 2
E|--------------------------|--------------------------|--------------------------|
B|--------------------------|--------------------------|--------------------------|
G|-------7-7----------------|-------7-7----------------|-------7-7----------------|
D|--9-9--7-7--5-5--4-4-4----|--9-9--7-7--5-5--4-4-4----|--9-9--7-7--5-5--4-4-4----|
A|--9-9--5-5--5-5--4-4-4----|--9-9--5-5--5-5--4-4-4----|--9-9--5-5--5-5--4-4-4----|
E|--7-7-------3-3--2-2-2----|--7-7-------3-3--2-2-2----|--7-7-------3-3--2-2-2----|

Guitar 1
E|--------------------------|--------------------------|
B|-17-15-12-15--17-15-12-10-|-12-15-17-15--12-15-17-15-|
G|--x--x--x--x---x--x--x--x-|--x--x--x--x---x--x--x--x-|
D|-14-12--9-12--14-12--9--7-|--9-12-14-12---9-12-14-12-|
A|--------------------------|--------------------------|
E|--------------------------|--------------------------|

Guitar 2
E|------------------------------------------------|
B|------------------------------------------------|
G|------------7----7------------------------------|
D|--9----9----7----7----5----5-----4----4----4----|
A|--9----9----5----5----5----5-----4----4----4----|
E|--7----7--------------3----3-----2----2----2----|

Guitar 1
E|-------------------------|-------------------------|
B|-17-17-17-17-17-17-17-17-|-17-17-17-17-17-17-17-17-|
G|--x--x--x--x--x--x--x--x-|--x--x--x--x--x--x--x--x-|
D|-14-14-14-14-14-14-14-14-|-14-14-14-14-14-14-14-14-|
A|-------------------------|-------------------------|
E|-------------------------|-------------------------|
Bend upwards!

Post Solo
E|------------------|-------------------------|------------------|
B|------------------|-------------------------|------------------|
G|------------------|-------------------------|------------------|
D|-2-2-2-2--4-4-4-4-|--9-9--7-7--6-6--5-5-5-5-|-2-2-2-2--4-4-4-4-|
A|-2-2-2-2--4-4-4-4-|--7-7--5-5--4-4--3-3-3-3-|-2-2-2-2--4-4-4-4-|
E|-0-0-0-0--2-2-2-2-|--7-7--5-5--4-4--3-3-3-3-|-0-0-0-0--2-2-2-2-|

Outro

E|----------------------|----------------------|----------------------|
B|----------------------|----------------------|----------------------|
G|------7-7-------------|------7-7-------------|------7-7-------------|
D|-9-9--7-7--5-5--4-4-4-|-9-9--7-7--5-5--4-4-4-|-9-9--7-7--5-5--4-4-4-|
A|-9-9--5-5--5-5--4-4-4-|-9-9--5-5--5-5--4-4-4-|-9-9--5-5--5-5--4-4-4-|
E|-7-7-------3-3--2-2-2-|-7-7-------3-3--2-2-2-|-7-7-------3-3--2-2-2-|

E|----------------------|----------------------|----------------------|
B|----------------------|----------------------|----------------------|
G|------7-7-------------|------7-7-------------|------7-7-------------|
D|-9-9--7-7--5-5--4-4-4-|-9-9--7-7--5-5--4-4-4-|-9-9--7-7--5-5--4-4-4-|
A|-9-9--5-5--5-5--4-4-4-|-9-9--5-5--5-5--4-4-4-|-9-9--5-5--5-5--4-4-4-|
E|-7-7-------3-3--2-2-2-|-7-7-------3-3--2-2-2-|-7-7-------3-3--2-2-2-|

E|----------------------|-------------------------|-------------------------|
B|----------------------|-17-17-17-17-17-17-17-17-|-17-17-17-17-17-17-17-17-|
G|------7-7-------------|--x--x--x--x--x--x--x--x-|--x--x--x--x--x--x--x--x-|
D|-9-9--7-7--5-5--4-4-4-|-14-14-14-14-14-14-14-14-|-14-14-14-14-14-14-14-14-|
A|-9-9--5-5--5-5--4-4-4-|-------------------------|-------------------------|
E|-7-7-------3-3--2-2-2-|-------------------------|-------------------------|
                      Bend upwards!

Order

Violin Intro
Main Riff x 5
Pre chorus
Chorus
Main Riff x 4
Pre Chorus
Chorus 2
Pre Solo
Solo
Post Solo
Outro

Did you like it? If you did please rate it or make some comments, cos writing that
solo was the hardest thing I ever did! Thanks bye!
comments
print report bad tab
2 comments total.
0 reply
Thedboy wrote on October 15 2007, 10:34 am

solo isn't in octaves, its in powerchords. its kinda hard to explain. if you watch live performances, you'll see what i mean.

-1 reply
Gibson970 wrote on November 20 2010, 06:32 am

@Thedboy solo is in octaves but bille plays it one octave lower live, not a bad tab some incoreect parts but solo being the hardest thing youve ever done is a little sad, good tab though.

I want to post or [tab]
guest
You may want to rate the tab now too:
select rating
Please do not post tabs as comments. Select "correction" instead!