Oops, an error
Loading. Please wait.

Homecoming Tab

ver3
ver3

Whole song

Video

More versions @911Tabs.com
2,825 views 1 this week
5 commentsread comments
1 2 3 4 5
worth learning
x 7
Autoscroll
+/-
esc
set tempo
stop
Difficulty
intermediate
Hey! There's an official Ultimate Guitar app which is ideal
for learning songs when you're away from computer. Get the app
WARNING: You are trying to view
                                    content from Ultimate-Guitar.com
                                    in an unauthorized application,
                                    which is prohibited.

                                    Please use an official Ultimate
                                    Guitar Tabs application for iPhone,
                                    iPad or Android to access legitimate
                                    chords, guitar, bass, and drum tabs
                                    from Ultimate-Guitar.com database.

                                    Type "ultimate guitar tabs" in Apple
                                    App Store's or Android Market's
                                    search to find the application.
[NOTE. I've only been playing guitar for Barely a year. And I nicked this from
and some of it didn't look right to me. I could be wrong. But remember....I DIDN'T TAB 
Kay?
me if it's right or anything, whatever. And I realize how gay my email is. And I'm not 
what kinda tuning this is. I'm just retarded...but GD did say that they were doing a
of songs in Standard tuning, aside from they're older stuff. Maybe that'll help.]

Key : / or \ - Slide up or down
      Harm.. - Harmonics
        p    - Pull off
        x    - Muffled

+ The Death Of St. Jimmy


Intro

e|---------0--0-0--0-0-0-2----0--0-x-x-0--0-0--0-0-0-2----0------------------|
B|---------2--2-0--0-0-0-3----2--2-x-x-2--2-0--0-0-0-3----2------------------|
G|---------2--2-1--1-1-1-2----2--2-x-x-2--2-1--1-1-1-2----2------------------|
D|-------2-2--2-2--2-2-2-0--4-2--2-x-x-2--2-2--2-2-2-0--4-2------(x3)--------|
A|--14\--2-0--0-2--2-2-2-0--4-0--0-x-x-0--0-2--2-2-2-0--4-0------------------|
E|--14\--0------0--0-0-0-----------x-x------0--0-0-0-------------------------|


e|-------000--0-0-0--0-0-0--0-0--------------0--0-0-0--0-0-0-----------------|
B|-------000--0-0-0--0-0-2--2-2-3p2-2-3p2-22-0--0-0-0--0-0-2-----------------|
G|-------111--1-1-1--1-1-2--2-2-----2-----22-1--1-1-1--1-1-2-----------------|
D|-------222--2-2-2--2-2-2--2-2-----2-----22-2--2-2-2--2-2-2-----------------|
A|--14\--222--2-2-2--2-2-0--0-0-----0-----00-2--2-2-2--2-2-0-----------------|
E|--14\--000--0-0-0--0-0---------------------0--0-0-0--0-0-------------------|


e|--2--2--2-2--22-0--0-0--2--0--0--------------------------------------------|
B|--3--3--3-3--33-2--2-2--3--2--0--------------------------------------------|
G|--2--2--2-2--22-2--2-2--2--2--1--------------------------------------------|
D|--0--0--0-0--00-2--2-2--0--2--2--------------------------------------------|
A|--0--0--0-0--00-0--0-0--0--0--2--------------------------------------------|
E|------------------------------0--------------------------------------------|


e|---------0---2-0--0--2-0-2-0---------0--0--00-0-2-0--0--0-0--0-0--0--0-----|
B|---------2---3-0--2--3-2-3-0---------2--2--22-2-3-0--0--0-0--0-0--2--2-----|
G|---------2---2-1--2--2-2-2-1---------2--2--22-2-2-1--1--1-1--1-1--2--2-----|
D|-------2-2---0-2--2--0-2-0-2-------2-2--2--22-2-0-2--2--2-2--2-2--2--2-----|
A|--14\--2-0---0-2--0--0-0-0-2--14\--2-0--0--00-0-0-2--2--2-2--2-2--0--0-----|
E|--14\--0-------0-----------0--14\--0--------------0--0--0-0--0-0-----------|


e|--2-0-2-0--0--0-0--0-0-----------------------------------------------------|
B|--3-2-3-0--0--0-0--0-0-----------------------------------------------------|
G|--2-2-2-1--1--1-1--1-1-----------------------------------------------------|
D|--0-2-0-2--2--2-2--2-2-----------------------------------------------------|
A|--0-0-0-2--2--2-2--2-2-----------------------------------------------------|
E|--------0--0--0-0--0-0-----------------------------------------------------|

Verse 1  x2

e|--0--0--00-0-2-0--0--0-0--0-0--0--0--2-0-2-0--0--0-0--0-0------------------|
B|--2--2--22-2-3-0--0--0-0--0-0--2--2--3-2-3-0--0--0-0--0-0------------------|
G|--2--2--22-2-2-1--1--1-1--1-1--2--2--2-2-2-1--1--1-1--1-1------------------|
D|--2--2--22-2-0-2--2--2-2--2-2--2--2--0-2-0-2--2--2-2--2-2------------------|
A|--0--0--00-0-0-2--2--2-2--2-2--0--0--0-0-0-2--2--2-2--2-2------------------|
E|---------------0--0--0-0--0-0--------------0--0--0-0--0-0------------------|


e|--0--0--00-0-2-0--0--0-0--0-0----------------------------------------------|
B|--2--2--22-2-3-0--0--0-0--0-0----------------------------------------------|
G|--2--2--22-2-2-1--1--1-1--1-1--7--7-7-7---7-9--9--99-9-9-------------------|
D|--2--2--22-2-0-2--2--2-2--2-2--7--7-7-7-7-7-9--9--99-9-9-------------------|
A|--0--0--00-0-0-2--2--2-2--2-2--5--5-5-5-7-5-7--7--77-7-7-------------------|
E|---------------0--0--0-0--0-0-----------5----------------------------------|

Chorus

e|---------------------------------------------------------------------------|
B|---------------------------------------------------------------------------|
G|-----------------2-2-2--22-2-2------------77777--7-----7-9-9-999-9---------|
D|--44444----------2-2-2--22-2-2----(x3)----77777--7-7-7-7-9-9-999-9---------|
A|--44444----------0-0-0--00-0-0------------55555--5-7-7-5-7-7-777-7---------|
E|--22222--2-0-2-4-----------------------------------5-5---------------------|

e|---------0--0--00-0-2-0--0--0-0--0-0--0--0--2-0-2-0--0--0-0--0-0-----------|
B|---------2--2--22-2-3-0--0--0-0--0-0--2--2--3-2-3-0--0--0-0--0-0-----------|
G|---------2--2--22-2-2-1--1--1-1--1-1--2--2--2-2-2-1--1--1-1--1-1-----------|
D|-------2-2--2--22-2-0-2--2--2-2--2-2--2--2--0-2-0-2--2--2-2--2-2-----------|
A|--14\--2-0--0--00-0-0-2--2--2-2--2-2--0--0--0-0-0-2--2--2-2--2-2-----------|
E|--14\--0--------------0--0--0-0--0-0--------------0--0--0-0--0-0-----------|

Verse 2

e|--0--0--00-0-2-0--0--0-0--0-0--0--0--2-0-2-0--0--0-0--0-0------------------|
B|--2--2--22-2-3-0--0--0-0--0-0--2--2--3-2-3-0--0--0-0--0-0------------------|
G|--2--2--22-2-2-1--1--1-1--1-1--2--2--2-2-2-1--1--1-1--1-1------------------|
D|--2--2--22-2-0-2--2--2-2--2-2--2--2--0-2-0-2--2--2-2--2-2------------------|
A|--0--0--00-0-0-2--2--2-2--2-2--0--0--0-0-0-2--2--2-2--2-2------------------|
E|---------------0--0--0-0--0-0--------------0--0--0-0--0-0------------------|


e|--0--0--00-0-2-0--0--0-0--0-0----------------------------------------------|
B|--2--2--22-2-3-0--0--0-0--0-0----------------------------------------------|
G|--2--2--22-2-2-1--1--1-1--1-1--7--7-7-7---7-9--9--99-9-9-------------------|
D|--2--2--22-2-0-2--2--2-2--2-2--7--7-7-7-7-7-9--9--99-9-9-------------------|
A|--0--0--00-0-0-2--2--2-2--2-2--5--5-5-5-7-5-7--7--77-7-7-------------------|
E|---------------0--0--0-0--0-0-----------5----------------------------------|

Chorus

e|---------------------------------------------------------------------------|
B|---------------------------------------------------------------------------|
G|-----------------2-2-2--22-2-2------------77777--7-----7-9-9-999-9---------|
D|--44444----------2-2-2--22-2-2----(x3)----77777--7-7-7-7-9-9-999-9---------|
A|--44444----------0-0-0--00-0-0------------55555--5-7-7-5-7-7-777-7---------|
E|--22222--2-0-2-4-----------------------------------5-5---------------------|

+ East 12Th Street


Intro

Harm.......           ..   ..           ..   ..           ..   ..
e|---------------------------------------------------------------------------|
B|---------------------------------------------------------------------------|
G|------------7-----------------7-----------------7-----------------7--------|
D|----------7-7-7-5-7----7----7-7-7-5-7----7----7-7-7-5-7----7----7-7-7-5-7--|
(x3)
A|----------7-5-7-5-7----7----7-5-7-5-7----7----7-5-7-5-7----7----7-5-7-5-7--|
E|--5555555-5---5-3-5-55-5-55-5---5-3-5-55-5-55-5---5-3-5-55-5-55-5---5-3-5--|


Harm.......
e|---------------------------------------------------------------------------|
B|---------------------------------------------------------------------------|
G|---------------------------------------------------------------------------|
D|---------------------------------------------------------------------------|
A|---------------------------------------------------------------------------|
E|--5555555------------------------------------------------------------------|

Verse 1

e|--2--2-2-2--2-2-3--3-3-2--2-2-3--3-3-3--3-3-0--0-0-0-0-0-0-----------------|
B|--3--3-3-3--3-3-3--3-3-3--3-3-3--3-3-3--3-3-2--2-2-2-2-2-2-----------------|
G|--2--2-2-2--2-2-0--0-0-2--2-2-0--0-0-0--0-0-2--2-2-2-2-2-2-----------------|
D|--0--0-0-0--0-0-0--0-0-0--0-0-0--0-0-0--0-0-2--2-2-2-2-2-2------(x4)-------|
A|--0--0-0-0--0-0-2--2-2-0--0-0-2--2-2-2--2-2-0--0-0-0-0-0-0-----------------|
E|----------------3--3-3--------3--3-3-3--3-3--------------------------------|


(Gtr 1a)

e|--22222-3-2-0-2------------------------------------------------------------|
B|--33333-3-3-3-3------------------------------------------------------------|
G|--22222-2-2-2-2-------------------------(x4)-------------------------------|
D|--00000-0-0-0-0------------------------------------------------------------|
A|---------------------------------------------------------------------------|
E|---------------------------------------------------------------------------|


(Gtr 2a)

e|---------------------------------------------------------------------------|
B|---------------------------------------------------------------------------|
G|------------------77777-------7--------------------------------------------|
D|------------------77777-7-5-7-7---------(x4)-------------------------------|
A|------------------55555-7-5-7-5--------------------------------------------|
E|------------------------5-3-5----------------------------------------------|


(Gtr 1 and Gtr 2)

e|---------------------------------------------------------------------------|
B|---------------------------------------------------------------------------|
G|--5--5-5--5-5-5--5-5-5--5-5-5----------------------------------------------|
D|--5--5-5--5-5-5--5-5-5--5-5-5-7--7-7--7-7-7--7-7-7--7-7-7------(x4)--------|
A|--3--3-3--3-3-3--3-3-3--3-3-3-7--7-7--7-7-7--7-7-7--7-7-7------------------|
E|------------------------------5--5-5--5-5-5--5-5-5--5-5-5------------------|


(Gtr 1b)

e|---------------------------------------------------------------------------|
B|---------------------------------------------------------------------------|
G|--5--5-5--5-5-5------------------------------------------------------------|
D|--5--5-5--5-5-5-7--7-7--7-7-7------------(x4)------------------------------|
A|--3--3-3--3-3-3-7--7-7--7-7-7----------------------------------------------|
E|----------------5--5-5--5-5-5----------------------------------------------|


e|---------------------------------------------------------------------------|
B|---------------------------------------------------------------------------|
G|--7------5-----------------------------------------------------------------|
D|--7------5------5------7---------------------------------------------------|
A|--5------3------5------7---------------------------------------------------|
E|----------------3------5---------------------------------------------------|


(Gtr 2b)

e|---------------------------------------------------------------------------|
B|--5--5-5--5-5-5/10--10-10--10-10-10--5--5-5--5-5-5/14--14-14--14-14-14-----|
G|---------------------------------------------------------------------------|
D|---------------------------------------------------------------------------|
A|---------------------------------------------------------------------------|
E|---------------------------------------------------------------------------|

e|---------------------------------------------------------------------------|
B|--15-----13-----8------10--------------------------------------------------|
G|---------------------------------------------------------------------------|
D|---------------------------------------------------------------------------|
A|---------------------------------------------------------------------------|
E|---------------------------------------------------------------------------|


(Gtr 1 and Gtr 2)

e|---------------------------------------------------------------------------|
B|---------------------------------------------------------------------------|
G|--7--7--7------7-------7\--------------------------------------------------|
D|--7--7--7--5-7-7-------7\--------------------------------------------------|
A|--5--5--5--5-7-5-------5\--------------------------------------------------|
E|-----------3-5-------------------------------------------------------------|

+ Nobody Likes You


Intro

e|---------------------------------------------------------------------------|
B|---------------------------------------------------------------------------|
G|--7-7-7-7-7-7-7-7-7-7-7-7-7-7-7-7-7-7-7-7-7-7-7----------------------------|
D|--7-7-7-7-7-7-7-7-7-7-7-7-7-7-7-7-7-7-7-7-7-7-7-----(x2)-------------------|
A|--5-5-5-5-5-5-5-5-5-5-5-5-5-5-5-5-5-5-5-5-5-5-5----------------------------|
E|---------------------------------------------------------------------------|

Verse 1

e|---------------------------------------------------------------------------|
B|---------------------------------------------------------------------------|
G|--7-7-7-7-7-7--------------------------------------------------------------|
D|--7-7-7-7-7-7-7-7-7-7-7-7-5-5-5-5-5-5-7-7-7-7-7-7-------(x4)---------------|
A|--5-5-5-5-5-5-7-7-7-7-7-7-5-5-5-5-5-5-7-7-7-7-7-7--------------------------|
E|--------------5-5-5-5-5-5-3-3-3-3-3-3-5-5-5-5-5-5--------------------------|

Chorus

e|---------------------------------------------------------------------------|
B|---------------------------------------------------------------------------|
G|--------------------------------------7-7-7-7-7-7--------------------------|
D|--9-9-9-9-9-9-7-7-7-7-7-7-5-5-5-5-5-5-7-7-7-7-7-7--------------------------|
A|--9-9-9-9-9-9-7-7-7-7-7-7-5-5-5-5-5-5-5-5-5-5-5-5--------------------------|
E|--7-7-7-7-7-7-5-5-5-5-5-5-3-3-3-3-3-3--------------------------------------|


e|---------------------------------------------------------------------------|
B|---------------------------------------------------------------------------|
G|---------------------------------------------------------------------------|
D|--9-9-9-9-9-9-7-7-7-7-7-7-5-5-5-5-5-5-5-5-5-5-5-5--------------------------|
A|--9-9-9-9-9-9-7-7-7-7-7-7-5-5-5-5-5-5-5-5-5-5-5-5--------------------------|
E|--7-7-7-7-7-7-5-5-5-5-5-5-3-3-3-3-3-3-3-3-3-3-3-3--------------------------|

Verse 2

e|---------------------------------------------------------------------------|
B|---------------------------------------------------------------------------|
G|--7-7-7-7-7-7--------------------------------------------------------------|
D|--7-7-7-7-7-7-7-7-7-7-7-7-5-5-5-5-5-5-7-7-7-7-7-7-------(x4)---------------|
A|--5-5-5-5-5-5-7-7-7-7-7-7-5-5-5-5-5-5-7-7-7-7-7-7--------------------------|
E|--------------5-5-5-5-5-5-3-3-3-3-3-3-5-5-5-5-5-5--------------------------|

+ Rock'N' Roll Girlfriend


Intro

e|---------------------------------------------------------------------------|
B|---------------------------------------------------------------------------|
G|--777----------999---------------------------------------------------------|
D|--777----------999---------------------------------------------------------|
A|--555----------777---------------------------------------------------------|
E|---------------------------------------------------------------------------|


Verse x2

e|---------------------------------------------------------------------------|
B|---------------------------------------------------------------------------|
G|------------------------------7-7--7-7-7--7-7-7--7-7-7--7------------------|
D|--7-7--7-7-7--7-7-7--7-7-7--7-7-7--7-7-7--7-7-7--7-7-7--7------------------|
A|--7-7--7-7-7--7-7-7--7-7-7--7-5-5--5-5-5--5-5-5--5-5-5--5------------------|
E|--5-5--5-5-5--5-5-5--5-5-5--5----------------------------------------------|


e|---------------------------------------------------------------------------|
B|---------------------------------------------------------------------------|
G|------------------------------9-9--9-9-9--9-9-9--9-9-9--9------------------|
D|--7-7--7-7-7--7-7-7--7-7-7--7-9-9--9-9-9--9-9-9--9-9-9--9------------------|
A|--7-7--7-7-7--7-7-7--7-7-7--7-7-7--7-7-7--7-7-7--7-7-7--7------------------|
E|--5-5--5-5-5--5-5-5--5-5-5--5----------------------------------------------|


(Gtr 2)

And I can plan the guitar...

e|-----------12-----12-------------------------------------------------------|
B|---------------------------------------------------------------------------|
G|--14^16-16----^16-----13-14------------------------------------------------|
D|---------------------------------------------------------------------------|
A|---------------------------------------------------------------------------|
E|---------------------------------------------------------------------------|

e|---------------------------------------------------------------------------|
B|---------------------------------------------------------------------------|
G|------------------------------7-7--7-7-7--7-7-7--7-7-7--7------------------|
D|--7-7--7-7-7--7-7-7--7-7-7--7-7-7--7-7-7--7-7-7--7-7-7--7------------------|
A|--7-7--7-7-7--7-7-7--7-7-7--7-5-5--5-5-5--5-5-5--5-5-5--5------------------|
E|--5-5--5-5-5--5-5-5--5-5-5--5----------------------------------------------|


e|---------------------------------------------------------------------------|
B|---------------------------------------------------------------------------|
G|------------------------------9-9--9-9-9--9-9-9----------------------------|
D|--7-7--7-7-7--7-7-7--7-7-7--7-9-9--9-9-9--9-9-9--5-5-5--7--7-7-7-----------|
A|--7-7--7-7-7--7-7-7--7-7-7--7-7-7--7-7-7--7-7-7--5-5-5--7--7-7-7-----------|
E|--5-5--5-5-5--5-5-5--5-5-5--5--------------------3-3-3--5--5-5-5-----------|


e|---------------------------------------------------------------------------|
B|---------------------------------------------------------------------------|
G|---------------------------------------------------------------------------|
D|--5-5-5--7--7-7-7--5-5-5-5--7--7--7----------------------------------------|
A|--5-5-5--7--7-7-7--5-5-5-5--7--7--7----------------------------------------|
E|--3-3-3--5--5-5-5--3-3-3-3--5--5--5----------------------------------------|

+ We're Coming Home Again


Intro

e|---------------------------------------------------------------------------|
B|---------------------------------------------------------------------------|
G|--7-7-xxxx-7-7-------------------------------------------------------------|
D|--7-7-xxxx-7-7--999-9-9--5--7-----------------(x4)-------------------------|
A|--5-5-xxxx-5-5--999-9-9--5--7----------------------------------------------|
E|----------------777-7-7--3--5----------------------------------------------|

Verse

e|---10----------10-----------10---------------------------------------------|
B|---------12----------12--8--------12----8----10----------------------------|
G|---------------------------------------------------------------------------|
D|---------------------------------------------------5--7--------------------|
A|---------------------------------------------------5--7--------------------|
E|---------------------------------------------------3--5--------------------|


e|---10----------10-----------10---------------------------------------------|
B|---------12----------12--8--------12----8----10----------------------------|
G|---------------------------------------------------7-----------------------|
D|---------------------------------------------------7--7--------------------|
A|---------------------------------------------------5--7--------------------|
E|------------------------------------------------------5--------------------|

The world is spinning around and around...

e|---------------------------------------------------------------------------|
B|---------------------------------------------------------------------------|
G|--------------------------------------------------------7------------------|
D|--5--5--5--5-5-5-7--7--7--7-7-7-5--5--5--5-5-5-7-7-7-7--7--7---------------|
A|--5--5--5--5-5-5-7--7--7--7-7-7-5--5--5--5-5-5-7-7-7-7--5--7---------------|
E|--3--3--3--3-3-3-5--5--5--5-5-5-3--3--3--3-3-3-5-5-5-5-----5---------------|


e|---------------------------------------------------------------------------|
B|---------------------------------------------------------------------------|
G|------------------------------------------------999999999999---------------|
D|--5--5--5--5-5-5-7--7--7--7-7-7-9-9-9-9-9-9-9-9-999999999999---------------|
A|--5--5--5--5-5-5-7--7--7--7-7-7-9-9-9-9-9-9-9-9-777777777777---------------|
E|--3--3--3--3-3-3-5--5--5--5-5-5-7-7-7-7-7-7-7-7----------------------------|


e|---------------------------------------------------------------------------|
B|---------------------------------------------------------------------------|
G|--7-7-7-7-------------------------7-7-7-7----------------------------------|
D|--7-7-7-7-5-5-5-5-7-7-7-7-7-7-7-7-7-7-7-7-5-5-5-5-7-7-7-7-7-7-7-7----------|
A|--5-5-5-5-5-5-5-5-7-7-7-7-7-7-7-7-5-5-5-5-5-5-5-5-7-7-7-7-7-7-7-7----------|
E|----------3-3-3-3-5-5-5-5-5-5-5-5---------3-3-3-3-5-5-5-5-5-5-5-5----------|


e|---------------------------------------------------------------------------|
B|---------------------------------------------------------------------------|
G|----------------------------7----------------------------------------------|
D|--555555555555777777--5--7--7----------------7-----------------------------|
A|--555555555555777777--5--7--5----------------7-----------------------------|
E|--333333333333555555--3--5-------------------5-----------------------------|

Home                 we're coming home...

e|--2--2-3-2-0-2-----0----------------2--2-3-2-0-2-----0---------------------|
B|--3----------------2----------------3--3-3-3-3-3-----2---------------------|
G|--2----------------2----------------2--2-2-2-2-2-----2---------------------|
D|--0----------------2----------------0--0-0-0-0-0-----2---------------------|
A|--0----------------0----------------0----------------0---------------------|
E|---------------------------------------------------------------------------|


I started fuckin'running...

e|--3----------------2----------------3----------------0---------------------|
B|--3----------------3----------------3----------------2---------------------|
G|--0----------------2----------------0----------------2---------------------|
D|--0----------------0----------------0----------------2---------------------|
A|--2----------------0----------------2----------------0---------------------|
E|--3---------------------------------3--------------------------------------|


Home...

e|--2--2-3-2-0-2--2-3-2--0----------------2----------------0-----------------|
B|--3-------------3-3-3--2----------------3----------------2-----------------|
G|--2-------------2-2-2--2----------------2----------------2-----------------|
D|--0--------------------2----------------0----------------2-----------------|
A|--0--------------------0----------------0----------------0-----------------|
E|---------------------------------------------------------------------------|


e|--2-------------2-3-2--0----------------2----------------0-----------------|
B|--3-------------3-3-3--2----------------3----------------2-----------------|
G|--2-------------2-2-2--2----------------2----------------2-----------------|
D|--0--------------------2----------------0----------------2-----------------|
A|--0--------------------0----------------0----------------0-----------------|
E|---------------------------------------------------------------------------|

Outro

e|---------------------------------------------------------------------------------|
B|---------------------------------------------------------------------------------|
G|--7--7-7-7-7--7-7-7-7--7-7-7-7-7-7-7-7-7-----------------------------------------|
D|--7--7-7-7-7--7-7-7-7--7-7-7-7-7-7-7-7-7-7--7-7-7-7--7-7-7-7--7-7-7-5-5-5-5-5-5--|(x3)
A|--5--5-5-5-5--5-5-5-5--5-5-5-5-5-5-5-5-5-7--7-7-7-7--7-7-7-7--7-7-7-5-5-5-5-5-5--|
E|-----------------------------------------5--5-5-5-5--5-5-5-5--5-5-5-3-3-3-3-3-3--|

e|---------------------------------------------------------------------------|
B|---------------------------------------------------------------------------|
G|--7--7-7-7-7--7-7-7-7--7-7-7-7-7-7-7-7-7-----------------------------------|
D|--7--7-7-7-7--7-7-7-7--7-7-7-7-7-7-7-7-7-7--7-7-7-7--7-7-7-7--7-7-7--------|
A|--5--5-5-5-5--5-5-5-5--5-5-5-5-5-5-5-5-5-7--7-7-7-7--7-7-7-7--7-7-7--------|
E|-----------------------------------------5--5-5-5-5--5-5-5-5--5-5-5--------|


e|---------------------------------------------------------------------------|
B|---------------------------------------------------------------------------|
G|-----------------------7---------------------------------------------------|
D|--5--5--5--5---5---5---7---------------------------------------------------|
A|--5--5--5--3---3---3---5---------------------------------------------------|
E|--3--3--3--3---3---3-------------------------------------------------------|
comments
print report bad tab
5 comments total. Showing first comments.
0 reply
z3r0element07 wrote on June 7 2006, 09:55 pm

In the beginning, shut up, I don't care. Good tab though, I esspecially like the 1st part.

0 reply
mcl guitar wrote on August 9 2006, 06:31 pm

not bad but i wish there will be a perfect homcoming tab please someone 3 stars anyway

0 reply
Crutchy wrote on September 20 2006, 10:10 am

i tried posting a homecoming tab on saturday but its still not on

I want to post or [tab]
guest
You may want to rate the tab now too:
select rating
Please do not post tabs as comments. Select "correction" instead!