Oops, an error
Loading. Please wait.

Insomniac Bass Tab

7,332 views 6 this week
no commentswrite comment
1 2 3 4 5
worth learning
x 4
add to favorites launch autoscroll
font size
0
reset
Autoscroll
+/-
esc
set tempo
stop
WARNING: You are trying to view
                                    content from Ultimate-Guitar.com
                                    in an unauthorized application,
                                    which is prohibited.

                                    Please use an official Ultimate
                                    Guitar Tabs application for iPhone,
                                    iPad or Android to access legitimate
                                    chords, guitar, bass, and drum tabs
                                    from Ultimate-Guitar.com database.

                                    Type "ultimate guitar tabs" in Apple
                                    App Store's or Android Market's
                                    search to find the application.
hi i realised there is no insomniac bass tab so i thought i tab it, even though it,s old but 
its's awesome


good classic green day

INSOMNIAC

1.Armatage shanks
2.Brat
3.Stuck with me
4.Geek stink breath
5.No pride
6.Bab's uvala who?
7.86
8.Panic song
9.Stuart and the ave
10.Brain stew
11.Jaded
12.Westbound sign
13.Tight wad hill
14.Walking contradidction



    1. ARMATAGE SHANKS


 Tuning: half step down

Intro
Gb|----------------------------|
Db|-2222222222222222222200-----|
Ab|-----------------------4422-|
Eb|----------------------------|

Verse
Gb|-------------------------------------------|
Db|-------------------------------------------|
Ab|-----455554----45555------45555------------|
Eb|-5555------5555------2222------00000910987-|

Chorus
Gb|---------------------------------------------------|
Db|-------------------------------------222222200-----|
Ab|-5555554------77777----24555554---------------4422-|
Eb|--------555555-----5-55--------555555--------------|

Bridge
Gb|-------------------------------------------|
Db|-------------------------------757---------|
Ab|-00000--------00000------555555---77777777-|
Eb|------2222222------222222------------------|

Outro
Gb|-----------------------------|
Db|-----------------------------|
Ab|-777777777777777777777777777-|
Eb|-----------------------------|


   Lyrics

Stranded, lost inside myself
My own worst friend
And my own closest enemy			(Verse 1)
Branded, maladjusted
Never trusted anyone
Let alone myself

I must insist on being a pessimist		(Chorus 1)
I'm a loner in a catastrophic mind

Elected, the rejected
I perfected the science
Of the idiot					(Verse 2)
No meaning, and no healing
Self-loathing freak
And introverted deviot

(Chorus 1)
(Bridge)

Stranded, lost inside myself
My own worst friend
And my own closest enemy			(Verse 3)
Elected, the rejected
I perfected the science
Of the idiot

(Chorus 1)

I'm gettin pissed, I'm a worthless pessimist	(Chorus 2)
I'm a loner in a claustrophobic mind


     
   2. BRAT

 
Verse
  G|----------------------|--------------------------|
  D|----------------------|--------------------------|
  A|------3-33------------|-3-33------55-5h7-5-4-----|
  E|-3-33------3333-2h333-|------3-33------------7-5-|

                       G|--------------------------|
                       D|-(play every other time)--|
                       A|-3-33------55-44----------|
                       E|------3-33-------77-55----|

Chorus
G|----------------------------------------------|
D|--------------------------------------5-4-----|
A|-3-33------3-33------3-33------55-5h7-----7-5-|
E|------3-33------3-33------3-33----------------|

G|---------------------------------------------------------|
D|----------------------------------------00000000-000-----|
A|-3-33------3-33------3-33----------------------------320-|
E|------3-33------3-33------3-33-11111111------------------|

Structure
Verse 2nd half x1
Verse x3
Chorus
Verse x4
Chorus
Verse x4
Chorus

    Lyrics

Mom and Dad don't look so hot these days
They're getting over the hill
Death is closing in and catching up
As far as I can tell				(Verse 1)
Got a plan of action and cold blood
And it smells of defiance
I'll just wait for Mom and Dad to die
Get my inheritance

Well now I want more
Cuz I'm getting bored
And I'm going nowhere fast
I was once full of doubt			(Chorus)
But it's all figured out
Well nothing good can last

Crow's feet and rot are setting in
And time is running out
My parent's income interest rate
Is gaining higher clout				(Verse 2)
I'm a snot-nosed slob without a job
And I know I damn well should
Mom and Dad don't look so hot these days
But my future's looking good


       3. STUCK WITH ME



Intro:

Gb:-----------------------------------------------------------------------|
Db:-----------------7x5x4x5-7p5p4---------11-9-x-77-55-44-55-77-55-44-5---|
Ab:-7777777-4-2-00---------------7777777----------------------------------|
Eb:-----------------------------------------------------------------------|

verse:

Gb:-------------------------------------------------|
Db:-------------------------------------------------|
Ab:7777777777---------------------------------------|
Eb:----------7777777777-555555-777777-555555-777777-|

chorus:

Gb:-------------------------99-----------------------------------------------|
Db:--------------------99--------99--9---------------------------------------|
Ab:-44444444444-----77----77---77--77--44444444444---777777-9-7-6-6-7-7-4444-|
Eb:-------------55----------------------------------55-----------------------|

----------------------------------------------------|
----------------------------------------------------|
-444444--777777------------------------7777777777777|
-------55-------9-7-6-6-77-55555-77777--------------|

Bridge:

Gb:-------------------------------------------------------------------------|
Db:-------------------7-5-4-5p4-------------------7x5x4x5-7p5p4-------------|
Ab:-7777777-4-2-00000-------------7777777-4-2-00----------------------------|
Eb:-------------------------------------------------------------------------|

----------------------------------------------------------------|
------------------14-12-11-12p11------------------7x5x4x5-7p5p4-|
-7777777-4-2-00000---------------7777777-4-2-00000--------------|
----------------------------------------------------------------|

solo:

Gb:-----------------------------------------------------------------|
Db:----------6-7-8-9-7-6----------------------------9-7-6-----------|
Ab:----6-7-9-------------9-7-6--------6-7-9-7-6-----------9-7-6-----|
Eb:-9-7------------------------9-8-7-9----------9-7-------------9-7-|

Song Order:

Intro
Verse (2X)
Chorus
Verse (2X)
Chorus
Bridge
Chorus

    Order

Intro x2
Verse 1 (PM first E5)
Chorus
Verse 2 (PM last E5)
Chorus
Intro x4 (use last E5 from chorus)
Bass Riff (1..2..3..4) (PM B5)
Chorus


Lyrics

I'm not part of your elite
I'm just alright
Class structures waving colours
Bleeding from my throat
Not subservient to you
I'm just alright
Downclassed by the powers that be
Give me loss of hope

Cast out, buried in a hole
Struck down, forcing me to fall
Destroyed, giving up the fight		(Chorus)
Well I know I'm not alright

What's ny price and will you pay it?
If it's alright
Take it from my dignity
Waste it till it's dead
Throw me back into the gutter
Cuz it's alright
Find another pleasure fucker
Drag him down to hell

(Chorus)
(Bridge)
(Chorus)

    4. GEEK STINK BREATH


Intro
G:------------------------------------------------------
D:-5-5-5-5----------------------------------------------
A:------------------------------------------------------
E:3-3-3-3-15-15h3---------------------------------------

Repeat 11x
G:------------------------------------------------------
D:------------------------------------------------------
A:--2h3--3h2--------------------------------------------
E:33---11-----------------------------------------------

G:------------------------------------------------------
D:-5-55-3--------3--------3--------3--------------------
A:-----1------0-1------0-1------0-1---------------------
E:3-3----1-1-3----1-1-3----1-1-3----1-1-1---------------

G:------------------------------------------------------
D:-5------5------5----3/5555----------------------------
A:------------------------------------------------------
E:3-1111-3-1111-3-1111----------------------------------

Repeat 9x
G:------------------------------------------------------
D:------------------------------------------------------
A:--2h3--3h2--------------------------------------------
E:33---11-----------------------------------------------

G:------------------------------------------------------
D:-5-55-3--------3--------3--------3--------------------
A:-----1------0-1------0-1------0-1---------------------
E:3-3----1-1-3----1-1-3----1-1-3----1-1-1---------------

G:------------------------------------------------------
D:-5------5------5----3/5555----------------------------
A:------------------------------------------------------
E:3-1111-3-1111-3-1111----------------------------------

Repeat 8x
G:------------------------------------------------------
D:-5----------------------------------------------------
A:--88--------------------------------------------------
E:3---88------------------------------------------------

Repeat 7x
G:------------------------------------------------------
D:------------------------------------------------------
A:--2-3-3-2-0-------------------------------------------
E:33---1------------------------------------------------

G:------------------------------------------------------
D:-5-55-3--------3--------3--------3--------------------
A:-----1------0-1------0-1------0-1---------------------
E:3-3----1-1-3----1-1-3----1-1-3----1-1-1---------------

G:------------------------------------------------------
D:-5------5------5----3/5555----------------------------
A:------------------------------------------------------
E:3-1111-3-1111-3-1111----------------------------------

Repeat 4x
G:------------------------------------------------------
D:-5----------------------------------------------------
A:--88--------------------------------------------------
E:3---88------------------------------------------------

G:------------------------------------------------------
D:-5-5-5------------------------------------------------
A:------------------------------------------------------
E:3-3-3-------------------------------------------------

    Lyrics

I'm on a mission
I've made my decision
To lead a path of self-destruction
Slow progression			(Verse 1)
Killin my complexion
And it's rotting out my teeth

I'm on a roll
No self-control
I'm blowing off steam
With methaphetamine			(Chorus)
I don't know what I want
And it's all that I've got
And I'm picking scabs off my face

Every hour
My blood is turning sour
And my pulse is beating out of time
I found a treasure			(Verse 2)
Filled with sick pleasure
And it sits on a thick white line

(Chorus)
(Bridge)

I'm on a mission
I got no decision
Like a cripple running the rat race
Wish in one hand			(Verse 3)
Shit in the other
And see which one gets filled first

(Chorus)

Geek...stink...breath!



   5. NO PRIDE


Intro/Bridge
Gb--1h2--------------------------------------
Db-----------------------------------5h6-5------
Ab-------------6-6--4-4-4-4------6-6-------8-6--
Eb--------4-4----------------4-4----------------

Verse
Gb------------------------------------------
Db------------------------------------------
Ab------------6-6-6-6-6-4-4-4-4-4-----------
Eb--4-4-4-4-4---------------------4-4-4-4-4-

Gb-----------------------------------------------
Db--------------------------------5h6------------
Ab------------6-6-6-6-6-4-4-4-4-4----------------
Eb--4-4-4-4-4-------------------------4-4-4-4-4--

Chorus
Gb---------------------------------------------------------------
Db---------------------------------------------------------------
Ab--6-6-6-6-6-6-6---4-------6-6-6-6-6-6-6---4-------6-6-4-4-3-3--
Eb----------------------4-----------------------4----------------

Gb------------------------------------------------------
Db--------------------------6---------------------------
Ab----------3-3-3-3-4-4-4-4----------------------6-6-6--
Eb--4-4-4-4-------------------0-0-0-0-0-0-4-4-4-4--------

2nd Bridge/Outro
Gb---------------------
Db---------------------
Ab-------6-6--4-4-4-4--
Eb--4-4----------------



Intro X1
Verse X2
Chorus X1
Bridge X1
Verse X2
Chorus X1
Bridge X1
2nd Bridge X4
Chorus X1
Outro X4


    Lyrics

Well I am just a mutt
And nowhere is my home
Where dignity's a land mine
In the school of lost hope		(Verse 1)
I've panhandled for life
Because I'm not afraid to beg
Hand me down your lost and founds
Of second hand regrets

Better swallow your pride
Before you choke on it
Better digest your values		
Because they turn to shit		(Chorus)
Honour's gonna knock you down
Before your chance
To stand up and fight
Well I know I'm not the one
I got no pride

Sects of disconnection
And traditions of lost faith
No culture's worth a stream of piss
Or bullet in my face
To hell with unity			(Verse 2)
Separation'll kill us all
Torn to shreds and disjointed
Before the final fall

(Chorus)
(Intro)
(Chorus)

I got no pride



   6.  BAB'S UVULA WHO?


G:--------------------------|
D:--------------------------|
A:-------------------2/12\2-|
E:-7~~~-5~~~-2~~~~~~--------|

Verse
G:---4---4---4---4-------4---|
D:---------------------2-----|
A:-2---2---2---2---0-4-----0-|
E:---------------------------|

Chorus
G:------------4-------4-|
D:------------------2---|
A:-2-222222-2---0-4-----|
E:----------------------|

Final Verse
G:------------------------------4-------4---|
D:------------------------------------2-----|
A:-2-222222-2-222222-2-222222-2---0-4-----0-|
E:------------------------------------------|

Outro
G:---4---4-----|
D:-------------|
A:-2---2---2-2-|
E:-------------|

STRUCTURE
Intro
Verse x6
Chorus x4
Verse x6
Chorus x4
Final Verse x6
Chorus x4
Outro

   Lyrics

I got a knack for fuckin everything up
My temper flies and I get myself all wound up
My fuse is short and my blood pressure is high
I lose control and I get myself all wound up
Tension mounts and I fly up the wall		(Verse 1)
I self-destruct and I get myself all wound up
Petulance and irritation set in
I throw a tantrum and I get myself all wound up

I hate myself and I'm all wound up
I hate myself and I'm all wound up		(Chorus 1)
Loss of control and I'm all wound up
I lose myself and I'm all wound up

Chip on my shoulder and a leech on my back
Stuck in a rut and I get myself all wound up
Killed my composure and it'll never come back
Loss of control and I get myself all wound up
Blown out of proportion again			(Verse 2)
My temper snaps and I get myself all wound up
Spontaneous combustion, panic attack
I slipped a gear and I get myself all wound up

I hate myself and I'm all wound up
Loss of control and I'm all wound up
What can I say, I'm afraid 			(Chorus 2)
I'm all wound up

(Verse 1)
(Chorus 2)


   7. 86


intro
|-----------------------------------------|
|-----------------------------------------|
|-----------------------------------44-55-|
|-0-00-000-4-44-444-5-55-555--55-77-------|

|------------------------------------------|
|---6h7-777--------------------------------|
|-7----------------------------------44-55-|
|-----------4-44-444-5-55-555--55-77-------|

verse
|-------------------------------------------------------------------------|
|-------------------------------------------------------------------------|
|--------------------2-22222-2-222222-0-0000000-00000000----------------0-|
|-0-0000000-00000000-------------------------------------0-00000-0-0000---|

|--------------------------------------------------------------------------|
|--------------------------------------------------------------------------|
|--------------------2-2-1h2-2-2-222222-0-0000000-00000000-----------------|
|-0-0000000-00000000---------------------------------------0-00000-0-00000-|

pre chorus
|--------------------------------------------------------------------|
|--------------------------------------------------------------2-1-2-|
|-2-2-222-2-222222-0-0-000-0-000000-2-2-222-2-222222-0-0-000-0-------|
|--------------------------------------------------------------------|

chorus
|-----------------------------------------|
|-----------------------------------------|
|-----------------------------------44-55-|
|-0-00-000-4-44-444-5-55-555--55-77-------|

|------------------------------------------|
|---6h7-777--------------------------------|
|-7----------------------------------44-55-|  (X3)
|-----------4-44-444-5-55-555--55-77-------|

bridge
|--------------------------------------------------00-22-|
|-------------1h2-2-1---------------------00-22-44-------|
|-2-2-222-0-0---------2--2-2-222-00-22-44----------------|
|--------------------------------------------------------|

outro
|---------------|
|---------------|
|---------------|
|-7-7-777-5////-|

structure
intro
verse
chorus
verse
chorus
instrumental chorus
bridge
chorus
outro

     Lyrics

What brings you around?
Did you lose something
The last time you were here?		(Verse 1)
You'll never find it now
It's buried deep
With your identity

So stand aside
And let the next one pass		(Pre-Chorus)
Don't let the door
Kick you in the ass

There's no return from 86   (x4)
Don't even try				(Chorus)

Exit out the back
And never show your head
Around again				(Verse 2)
Purchase your ticket
And quickly take
The last train out of town

(Pre-Chorus)
(Chorus)
(Bridge)
(Chorus)


    8. PANIC SONG


   Intro:
G------------------------------------|
D------------------------------------|
A-888888888888888888888888888888888--|
E------------------------------------|
 do this till drums only (1:50)

Cont.
G--------------------------------|
D--------------------------------|
A-88xxxx88xxxx88xxxx88-----------| xxxx = palm mute
E--------------------------------|

G------------------------------------------|
D------------------------------------------|
A------------------------------------------|
E-4-4-4-4-4-4-4-4-4-4-2-2-2-2-2-2-2-2-2-2--|

Verse
G-------------------------------------------------------------|
D-------------------------------------------------------------|
A-2-2-2-2-2-2-2-2-2-2-2---------------------------------------|
E-----------------------4-4-4-4-4-4-4-4-4-2-2-2-2-2-2-2-2-2-2-|

Chorus
G--------------------------------------------------------------------|
D---------------------------------2-2-2-2----------------------------|
A---------2-2-2-2---------2-2-2-2---------2-2-2-2--------------------|
E-2-2-2-2---------2-2-2-2-------------------------2-2-2-2-0-0-0-0----|

Outro (i wanna jump out...)
G------------------------------------|------------------------------------|
D------------------------------------|------------------------------------|
A-2-2-2-2-2-2-2-0-0-0-0-0-0----------|-2-2-2-2-2-2-2-0-0-0-0-0-0----------|
E--------------------------2-2-2-2-2-|--------------------------2-2-2-2-2-|


  Lyrics

Ready for a cheap escape
On the brink of self-destruction
Widespread panic
Broken glass inside my head			(Verse 1)
Bleeding down these thoughts of anguish
Mass confusion

Well the world is a sick machine
Breeding a mass of shit				(Chorus)
With such a desolate conclusion
Fill the void with...I don't care

There's a plague inside of me
Eating at my dispostion
Nothing's left
Torn out of reality				(Verse 2)
Into a state of no opinion
Limp with hate

(Chorus)

I wanna drop out  (x4)				(Bridge)


 

  9. STUART AND THE AVE


 Intro
Gb-------------------------------------------------------
Db--0-0-0-4-2-0-2-2-2-2-2-4-5----------5-7--5-4----------
Ab-----------------------------------5----------7-5-4----
Eb----------------------------3--3-3------------------7--

Verse (Play it in order as you see it, one time for each)
Gb------------------------------------------------------
Db--0-0-0-4-2-0--------------------------5--------------
Ab------------------------------------5-----------------
Eb--------------0-0-0-0-0-0-3-3-3-3-3------5-5-5-5-5-5--

Gb-------------------------------------------------------
Db--0-0-0-4-2-0-2-2-2-2-2-2-4-5-5-5-5-5-5-7-7-7-7-5-4-0--
Ab-------------------------------------------------------
Eb-------------------------------------------------------
Pre-Chorus
Gb-----------------------------------------------------
Db--0-0-0-4-2-0-2-2-2-2-2-2-4-5-5-5-5-5-5-7-7-7-7-7-7--
Ab-----------------------------------------------------
Eb-----------------------------------------------------

Chorus		       X2
Gb-----------------------|-----------------------------------------|-----------------------
Db------4-2--------------|--0-0-0-4-2-0-2-2-2-2-2-2-4-5-5-5-5-5-5--|--0-0-0-0-0------------
Ab--2-2-----4------------|-----------------------------------------|------------0-0-0-0-0--
Eb------------3-3-3-3-3--|-----------------------------------------|-----------------------

Bridge (Play them in order as you see them, only once for each)
Gb------------------------------------------------------
Db--0-0-0-4-2-0--------------------------5--------------
Ab------------------------------------5----5-5-5-5-5-5--
Eb--------------0-0-0-0-0-3-3-3-3-3-3-------------------

Gb---------------------------------------------------------
Db--0-0-0-4-2-0-2-2-2-2-2-2-4-5-5-5-5-5-5-7-5-4------------
Ab----------------------------------------------7-5-4------
Eb----------------------------------------------------7-5--

Gb-------------------------------------------------------
Db--0-0-0-4-2-0-2-2-2-2-2-2-4-5-5-5-5-5-5-7-7-7-7-7-7--
Ab-------------------------------------------------------
Eb-------------------------------------------------------

Gb------------------------------------------------------
Db--0-0-0-4-2-0--------------------------5--------------
Ab------------------------------------5-----------------
Eb--------------0-0-0-0-0-3-3-3-3-3-3------5-5-5-5-5-5--

Outro Chorus	       X2								X3
Gb-----------------------|-----------------------------------------|-----------------------
Db------4-2--------------|--0-0-0-4-2-0-2-2-2-2-2-2-4-5-5-5-5-5-5--|--0-0-0-0-0------------
Ab--2-2-----4------------|-----------------------------------------|------------0-0-0-0-0--
Eb------------3-3-3-3-3--|-----------------------------------------|-----------------------

Intro X1
Verse X2
Pre-Chorus X1
Chorus X1
Verse X2
Pre-Chorus X1
Chorus X1
Bridge X1
Outro Chorus X1


  Lyrics

Standing on the corner
Of Stuart and the Avenue
Ripping up a transfer
And a photograph of you			(Verse 1)
You're a blur of my dead past
And rotting existence
As I stand laughing on the
Corner of insignificance

Well destiny is dead
In the hands of bad luck		(Chorus)
Before it might have made some sense
But now it's all fucked up

Seasons change as well as minds
And I'm a two-faced clown
Mommy's little nightmare
Driving Daddy's car around		(Verse 2)
I'm beat down and half brain-dead
The long lost king of fools
I may be dumb but I'm not stupid
Enough to stay with you

(Chorus)
(Bridge)
(Chorus)

  10. BRAIN STEW (SIMPLE BUT FUN SONG)


Main Riff:

G:--------------------------------------------------
D:--------------------------------------------------
A:--------------------------------------------------
Eb:----5-5----3-3----2-2----1-1--0-0----------------

Chorus:

G:--------------------------------------------------
D:--------------------------------------------------
A:--------------------------------------------------
Eb:5-5-xxxxxx-3-3-xxxxxx-2-2-xxxxxx-1-1-x-x-1-1-----

Outro:

G:-------------------------------------------------------
D:-------------------------------------------------------
A:-------------------------------------------------------
Eb:-5-5-5-5-5-5--3-3-3-3-3-3--2-2-2-2-2-2--1-1-1--0-0-0--


   Lyrics

I'm havin trouble trying to sleep
I'm countin sheep but runnin out
As time ticks by, still I try		   (Verse 1)
No rest for crosstops in my mind
On my own, here we go

My eyes feel like they're gonna bleed
Dried up and bulging out my skull
My mouth is dry, my face is numb	   (Verse 2)
Fucked up and spun out in my room
On my own, here we go

My mind is set on overdrive
The clock is laughing in my face
Crooked spine, senses dulled		   (Verse 3)
Passed the point of delerium
On my own, here we go

(Verse 2)



    11. JADED

 
Intro/Verse
G-------------------------------------|x9
D-------------------------------------|
A--------44---------------------------|
E-44-422------------------------------|

Pre-Chorus
G-----------------|x1
D-----------------|
A-----------------|
E-44444444--------|

Chorus
G----------------------------------------------------------------|
D----------------------------------------------------------------|
A-4444444444444444-----------------------------------------------|\
E------------------44-42-2-2-44-42-2-2---------------------------| \
                                                                    x1
G----------------------------------------------------------------| /
D----------------------------------------------------------------|/
A-4444444444444444-666666666666-4-3-2----------------------------|
E----------------------------------------------------------------|

Verse 

Chorus 

For the Bridge, just repeat the Intro/Verse riff until you come back to the chorus.

Repeat Chorus

Outro
G-------------------------------------|x3
D-------------------------------------|
A--------44---------------------------|
E-44-422------------------------------| 

G-------------------------------------|
D-------------------------------------|
A-------------------------------------|
E-44-422-4----------------------------|


Lyrics

Somebody keep my balance
I think I'm falling off
Into a state of regression
The expiration date			(Verse 1)
Rapidly coming up
It's leaving me behind to rank

Always move forward
Going straight will get you nowhere
There is no progress			(Chorus)
Evolution killed it all
I found my place in nowhere

I'm taking one step sideways
Leaning with my crutch
Got a fucked-up equilibrium
Countdown from 9 to 5			(Verse 2)
Hooray we're gonna die
Blessed into our extinction

(Chorus)
(Bridge)
(Chorus)


    12. WESTBOUND SIGN


Intro 		          X2
Gb-----|--------------------
Db-----|------2h4--------2--
Ab--2--|--2-2----------2----
Eb-----|-----------4-4------
(Let the first note ring...)

Verse
Gb---------------------------------------
Db--------2h4----------------------------
Ab--2-2-2--------------------------------
Eb------------2-2-2-2-4-4-4-4-0-0-0-0-0--

Chorus
Gb------------------
Db------4--------2--
Ab--2-2--------2----
Eb---------4-4------

Bridge				     X3
Gb-------------------------------------|-------------------------------
Db--------------------------2----------|-------------------------------
Ab----------0-0-0-0-----------2-2-2-2--|----------0-0-0-0--------------
Eb--2-2-2-2---------0-0-0-0------------|--2-2-2-2---------0-0-0-0-0-0--

Intro 		          X4
Gb-----|--------------------
Db-----|------2h4--------2--
Ab--2--|--2-2----------2----
Eb-----|-----------4-4------
(Let the first note ring...)

Intro X1
Verse X4
Chorus X4
Verse X4
Chorus X4
Bridge X1
Verse X4
Outro X1

 Lyrics

Boxed up all of her favourite things
Sold the rest at a rainy yard sale
Big plans and leaving friends
And a westbound sign				(Verse 1)
Weighed out her choices on a scale
Prevailing nothing made sense
Just transportation and a blank decision

She's taking off
Taking off					(Chorus)
Taking off
Taking off

No time and no copping out
She's burning daylight and petrol
Blacked out the rearview mirror
And westward on
Strung out on confusion road
And ten minute nervous breakdowns
Xanex a beer for thought
And she's determined

(Chorus)

Oh is it salvation?
Or an escape from discontent?
Will she find a name
In the California cement
Punched out of the grind			(Bridge)
The punched her once too many times
Is tragedy 2000 miles away?
She's taking off


  13. TIGHT WAD HILL


Verse
G----------------------------------------------------------------
D------------------4-4-------------------------------------------
A----------------------------------------------------------------
E--4-4-4-4-4-4-4-4------2-2-2-2-2-2--2h3h4--4-4-4-4-4-4-4-4-2h4--

Chorus				    X2			  X2
G---------------------------------------|---------------------|-------------------------------
D--------4--------6---------------------|--------4------------|-------------------------------
A--2-2-2--------------------------------|--2-2-2--------------|--2----------------------------
E-----------2-2-2----4-4-4-4-2h4-4-4-4--|----------2-2-2-2-2--|------2---4-4-4-4-4-4-4-4-2h4--

Bridge
G-------------------------------------------------------------------------
D------------------6-6-5-5-4-4--------------------------------------------
A-------------------------------------------------------------------------
E--4-4-4-4-4-4-4-4-------------2-2-2-2-2-2--2h3h4--4-4-4-4-4-4-4-4-4-2h4--

G-------------------------------------------------------------------------------
D------6-6-----6-6-----6-6-----6-6-----4-4--------------------------------------
A-------------------------------------------------------------------------------
E--4-4-----4-4-----4-4-----4-4-----2-2-----2-2-2--2h3h4--4-4-4-4-4-4-4-4-4-2h4--

Outro				    X2			    X2
G---------------------------------------|---------------------|-------------------------------
D--------4--------6---------------------|--------4------------|-------------------------------
A--2-2-2--------------------------------|--2-2-2--------------|--2----------------------------
E-----------2-2-2----4-4-4-4-2h4-4-4-4--|----------2-2-2-2-2--|------2---4-4-4-4-4-4-4-2-2-4--


Verse X2
Chorus X1
Verse X2
Chorus X1
Bridge X1
Outro X1


Cheapskate on the hill
A thrill-seeker making deals
Sugar city urchin wasting time
Town of lunatics			(Verse 1)
Begging for another fix
Turning tricks for speedballs
One more night

Making your rounds once again
Turning up empty-handed
Bummin a ride				(Chorus)
Burnin daylight
Last up at dawn
Tight Wad Hill

Drugstore hooligan
Another white trash mannequin
On display to rot up on the hill
Living out a lie			(Verse 2)
But having the time of his life
Hating every minute
Of his existence


  14. WALKING CONTRADICTION (HIGHLIGHT OF THE ALBUM)


  Intro
G:---------------------------------------|
D:------------------666666666-4-3--------|
A:---------------------------------6-4-3-|
E:-4444444444444444----------------------|

Verse
G:------------|
D:------------|
A:---44-------|
E:-4----22-44-|

Verse Fill
G:---------------------------------|
D:------------------44-6p4p3-------|
A:---44----------44----------6p4p3-|
E:-4----22-44--4-------------------|

Chorus
G:-------------------|  |-----------------|
D:-------------3-4-6-|x2|-----------------|x2
A:-44----------------|  |-44--------------|
E:----22-4-444-------|  |----22-4-4444444-|

Those are all the parts here's the order

Intro x1
Verse x8
Verse Fill x1
Verse x8
Chorus x1
Verse Fill x1
Verse x8
Chorus x2
Verse Fill x1
Verse x2


Lyrics

Do as I say, not as I do because
The shit's so deep run can't run away
I beg to differ, on the contrary
I agree with every word that you say		(Verse 1)
Talk is cheap and lies are expensive
My wallet's fat and so is my head
Hit and run and then I'll hit you again
I'm a smart-ass, but I'm playing dumb

Standards set and broken all the time
Control the chaos behind a gun
Call it as I see it even if
I was born deaf, blind, and dumb		(Verse 2)
Losers winning big on the lottery
Rehab rejects still sniffing glue
Constant refutation with myself
I'm a victim of a catch 22

I have no belief
But I believe I'm a
Walking contradiction				(Chorus)
And I ain't got no right

(Verse 1)
(Chorus x2)


That's it have fun playing 




comments
print report bad tab
I want to post or [tab]
guest
You may want to rate the tab now too:
select rating
Please do not post tabs as comments. Select "correction" instead!