Oops, an error
Loading. Please wait.

Insomniac Tab

ver2
ver2

Interactive

More versions @911Tabs.com
4,463 views 1 this week
5 commentsread comments
1 2 3 4 5
worth learning
x 10
Autoscroll
+/-
esc
set tempo
stop
Contributor
Hey! There's an official Ultimate Guitar app which is ideal
for learning songs when you're away from computer. Get the app
WARNING: You are trying to view
                                    content from Ultimate-Guitar.com
                                    in an unauthorized application,
                                    which is prohibited.

                                    Please use an official Ultimate
                                    Guitar Tabs application for iPhone,
                                    iPad or Android to access legitimate
                                    chords, guitar, bass, and drum tabs
                                    from Ultimate-Guitar.com database.

                                    Type "ultimate guitar tabs" in Apple
                                    App Store's or Android Market's
                                    search to find the application.
Green Day Insomniac album tab
Tabbed by Liam
Email: guitar_rocker_47@hotmail.com

Note: I got bored so I thought I tabbed this! Important at the end of every song I have put order
and lyrics I think it's easier to read that way

01. Armatage Shanks
02. Brat
03. Stuck With Me
04. Geek Stink Breath
05. No Pride
06. Bab's Uvula Who?
07. 86
08. Panic Song  (in progress)
09. Stuart And The Ave.
10. Brain Stew
11. Jaded
12. Westbound Sign
13. Tightwad Hill 
14. Walking Contradiction

-----------------------------------------------------------------------------------------
Green Day Armatage Shanks
-----------------------------------------------------------------------------------------
Tuning half a step down

Intro
e|----------------------------------------------------------------------------|
B|----------------------------------------------------------------------------|
G|-9-9-9-9-9-9-9-9-9-9-9-9-9-9-9-9--------------------------------------------|
D|-9-9-9-9-9-9-9-9-9-9-9-9-9-9-9-9--------------------------------------------|
A|-7-7-7-7-7-7-7-7-7-7-7-7-7-7-7-7--------------------------------------------|
E|----------------------------------------------------------------------------|

Verse
e|----------------------------------------------------------------------------|
B|----------------------------------------------------------------------------|
G|----------7-7-7-7-7-----------7-7-7-7-7----------7-7-7-7-7------------------|
D|-7-7-7-7--7-7-7-7-7--7-7-7-7--7-7-7-7-7--4-4-4-4-7-7-7-7-7--2-2-2-2-2-2-2-2-|
A|-7-7-7-7--5-5-5-5-5--7-7-7-7--5-5-5-5-5--4-4-4-4-5-5-5-5-5--2-2-2-2-2-2-2-2-|
E|-5-5-5-5-------------5-5-5-5-------------2-2-2-2------------0-0-0-0-0-0-0-0-|

e|----------------------------------------------------------------------------|
B|----------------------------------------------------------------------------|
G|----------7-7-7-7-7-----------7-7-7-7-7----------7-7-7-7-7------------------|
D|-7-7-7-7--7-7-7-7-7--7-7-7-7--7-7-7-7-7--4-4-4-4-7-7-7-7-7--2-2-2-2-2-2-2-2-|
A|-7-7-7-7--5-5-5-5-5--7-7-7-7--5-5-5-5-5--4-4-4-4-5-5-5-5-5--2-2-2-2-2-2-2-2-|
E|-5-5-5-5-------------5-5-5-5-------------2-2-2-2------------0-0-0-0-0-0-0-0-|

Chorus
e|----------------------------------------------------------------------------|
B|----------------------------------------------------------------------------|
G|-7-7-7-7---------------------------------7-7-7-7-----------9-9-9-9-9-9-9-9--|
D|-7-7-7-7--7-7-7-7-7--2-2-2-2--7-7-7-7-7--7-7-7-7--7-7-7-7--9-9-9-9-9-9-9-9--|
A|-5-5-5-5--7-7-7-7-7--2-2-2-2--7-7-7-7-7--5-5-5-5--7-7-7-7--7-7-7-7-7-7-7-7--|
E|----------5-5-5-5-5--0-0-0-0--5-5-5-5-5-----------5-5-5-5-------------------|

Bridge
e|---------------------------------------------------------------------------|
B|---------------------------------------------------------------------------|
G|-----------------------------------------7-7-7-7-7-7-7-7--9-9-9-9-9-9-9-9--|
D|-7-7-7-7--4-4-4-4-4--7-7-7-7--4-4-4-4-4--7-7-7-7-7-7-7-7--9-9-9-9-9-9-9-9--|
A|-7-7-7-7--4-4-4-4-4--7-7-7-7--4-4-4-4-4--5-5-5-5-5-5-5-5--7-7-7-7-7-7-7-7--|
E|-5-5-5-5--2-2-2-2-2--5-5-5-5--2-2-2-2-2------------------------------------|

Order

Intro
Verse 1
Chorus 1
Verse 2
Chorus 1
Bridge
Verse 3
Chorus 1
Chorus 2
Intro

Lyrics

(Verse 1)
Stranded, lost inside myself
My own worst friend
And my own closest enemy			
Branded, maladjusted
Never trusted anyone
Let alone myself

(Chorus 1)
I must insist on being a pessimist		
I'm a loner in a catastrophic mind

(Verse 2)
Elected, the rejected
I perfected the science
Of the idiot					
No meaning, and no healing
Self-loathing freak
And introverted deviot

(Chorus 1)
(Bridge)

(Verse 3)
Stranded, lost inside myself
My own worst friend
And my own closest enemy			
Elected, the rejected
I perfected the science
Of the idiot

(Chorus 1)

(Chorus 2)
I'm getting pissed; I'm a worthless pessimist	
I'm a loner in a claustrophobic mind

-----------------------------------------------------------------------------------------
Green Day Brat
-----------------------------------------------------------------------------------------
Tuning half a step down

Intro
e|---------------------------------------------------------------------------|
B|---------------------------------------------------------------------------|
G|-5-5-5-------7--7--7--7----------------------------------------------------|
D|-5-5-5--5-5--7--7--7--7----------------------------------------------------|
A|-3-3-3--5-5--5--5--5--5----------------------------------------------------|
E|--------3-3----------------------------------------------------------------|

Verse
e|---------------------------------------------------------------------------|
B|---------------------------------------------------------------------------|
G|--------5-5-5---------------5-5-5----7-7-7-7-7-7---------------------------|  x3
D|-5-5-5--5-5-5--5-5-5-5-5-5--5-5-5-5--7-7-7-7-7-7---------------------------|
A|-5-5-5--3-3-3--5-5-5-5-5-5--3-3-3-5--5-5-5-5-5-5---------------------------|
E|-3-3-3---------3-3-3-3-3-3--------3----------------------------------------|

Chorus
e|---------------------------------------------------------------------------|
B|---------------------------------------------------------------------------|
G|-5-5-5------5-5-5------5-5-5------7-7-7-7-7-7-7-7--5-5-5------5-5-5--------|
D|-5-5-5-5-x--5-5-5-5-x--5-5-5-5-x--7-7-7-7-7-7-7-7--5-5-5-5-x--5-5-5-5-x----|
A|-3-3-3-5-x--3-3-3-5-x--3-3-3-5-x--5-5-5-5-5-5-5-5--3-3-3-5-x--3-3-3-5-x----|
E|-------3-x--------3-x--------3-x-------------------------3-x--------3-x----|

e|---------------------------------------------------------------------------|
B|---------------------------------------------------------------------------|
G|----------------------------------------7-7-x------------------------------|
D|-3-3-3-3-3-3--5-5-5-5-5-5—-(bass riff)--7-7-x------------------------------|
A|-3-3-3-3-3-3--5-5-5-5-5-5---------------5-5-x------------------------------|
E|-1-1-1-1-1-1--3-3-3-3-3-3--------------------------------------------------|
PM  * * * * * *

Order

Intro 
Verse 1
Chorus
Verse 2
Chorus
Bridge (Verse chords)
Chorus
And end on this

e|------|
B|------|
G|------|
D|--5---|
A|--5---|
E|--3---|


Lyrics

(Verse 1)
Mom and Dad don't look so hot these days
They're getting over the hill
Death is closing in and catching up
As far as I can tell				
Got a plan of action and cold blood
And it smells of defiance
I'll just wait for Mom and Dad to die
Get my inheritance

(Chorus)
Well now I want more
Cuz I'm getting bored
And I'm going nowhere fast
I was once full of doubt			
But it's all figured out
Well nothing good can last

(Verse 2)
Crow's feet and rot are setting in
And time is running out
My parent's income interest rate
Is gaining higher clout				
I'm a snot-nosed slob without a job
And I know I damn well should
Mom and Dad don't look so hot these days
But my future's looking good

(Chorus)
(Bridge)
(Chorus)

-----------------------------------------------------------------------------------------
Green Day Stuck with me
-----------------------------------------------------------------------------------------
Tuning half a step down

Intro
e|---------------------------------------------------------------------------|
B|---------------------------------------------------------------------------|
G|-9-9-9-9-9-9-9-9-9---------------------------------------------------------|
D|-9-9-9-9-9-9-9-9-9--11--9--7-7-7-7-7-7-7-7-7-7-7-7-7-----------------------|
A|-7-7-7-7-7-7-7-7-7--11--9--7-7-7-7-7-7-7-7-7-7-7-7-7-----------------------|
E|---------------------9--7--5-5-5-5-5-5-5-5-5-5-5-5-5-----------------------|

Verse
e|---------------------------------------------------------------------------|
B|---------------------------------------------------------------------------|
G|-9-9-9-9-9-9-9-9-9-9-------------------------------------------------------|
D|-9-9-9-9-9-9-9-9-9-9--9-9-9-9-9-9-9-9-9--7-7-7-7--9-9-9-9-9-9--7-7-7-7-----|
A|-7-7-7-7-7-7-7-7-7-7--9-9-9-9-9-9-9-9-9--7-7-7-7--9-9-9-9-9-9--7-7-7-7-----|
E|----------------------7-7-7-7-7-7-7-7-7--5-5-5-5--7-7-7-7-7-7--5-5-5-5-----|
PM   * * * * * * * *

e|---------------------------------------------------------------------------|
B|---------------------------------------------------------------------------|
G|--------------9-9-9-9-9-9-9-9-9-9------------------------------------------|
D|-9-9-9-9-9-9--9-9-9-9-9-9-9-9-9-9--9-9-9-9-9-9-9-9-9--7-7-7-7--9-9-9-9-9-9-|
A|-9-9-9-9-9-9--7-7-7-7-7-7-7-7-7-7--9-9-9-9-9-9-9-9-9--7-7-7-7--9-9-9-9-9-9-|
E|-7-7-7-7-7-7-----------------------7-7-7-7-7-7-7-7-7--5-5-5-5--7-7-7-7-7-7-|

e|---------------------------------------------------------------------------|
B|---------------------------------------------------------------------------|
G|---------------------------------------------------------------------------|
D|-7-7-7-7--9-9-9-9-9-9------------------------------------------------------|
A|-7-7-7-7--9-9-9-9-9-9------------------------------------------------------|
E|-5-5-5-5--7-7-7-7-7-7------------------------------------------------------|

Chorus
e|---------------------------------------------------------------------------|
B|---------------------------------------------------------------------------|
G|-6--6-6-6-6-6-6-------9-9-9-9-9-9-9-9-9-9-9-9-9-9----(-x3-)----------------|
D|-6--6-6-6-6-6-6--7-7--9-9-9-9-9-9-9-9-9-9-9-9-9-9-----------7-7-7-7--9-9-9-|
A|-4--4-4-4-4-4-4--7-7--7-7-7-7-7-7-7-7-7-7-7-7-7-7-----------7-7-7-7--9-9-9-|
E|-----------------5-5----------------------------------------5-5-5-5--7-7-7-|

e|---------------------------------------------------------------------------|
B|---------------------------------------------------------------------------|
G|--------9-9-9-9-9-9-9-9-9-9-9-9--------------------------------------------|
D|-9-9-9--9-9-9-9-9-9-9-9-9-9-9-9--------------------------------------------|
A|-9-9-9--7-7-7-7-7-7-7-7-7-7-7-7--------------------------------------------|
E|-7-7-7---------------------------------------------------------------------|

Order

Intro x2
Verse 1
Chorus
Verse 2 (don't PM the first chords)
Chorus
Intro x4 
Bass Riff (guitar scratches all strings in background)
Chorus

Lyrics

(Verse 1) 
I'm not part of your elite
I'm just alright
Class structures waving colours
Bleeding from my throat
Not subservient to you
I'm just alright
Downclassed by the powers that be
Give me loss of hope

(Chorus)
Cast out, buried in a hole
Struck down, forcing me to fall
Destroyed, giving up the fight		
Well I know I'm not alright

(Verse 2)
What's ny price and will you pay it?
If it's alright
Take it from my dignity
Waste it till it's dead
Throw me back into the gutter
Cuz it's alright
Find another pleasure fucker
Drag him down to hell

(Chorus)
(Bridge)
(Chorus)

-----------------------------------------------------------------------------------------
Green Day Geek stink breath
-----------------------------------------------------------------------------------------
Tuning Standard

Intro
e|---------------------------------------------------------------------------|
B|---------------------------------------------------------------------------|
G|---------------5-5---------------------------------------------------------|
D|-5-5--3-3-3-3--5-5---------------------------------------------------------|
A|-5-5--3-3-3-3--3-3---------------------------------------------------------|
E|-3-3--1-1-1-1--------------------------------------------------------------|

Verse
e|--------|    |----------------------|     |--------------------------------|
B|--------|    |----------------------|     |--------------------------------|
G|--------|    |----------------------|     |--------------------------------|
D|--5-x-5-|    |--3-3-3--5-5-5--3-3-3-| x7  |--5-5-5-5-5-5-------------------|
A|--5-x-5-|    |--3-3-3--5-5-5--3-3-3-|     |--5-5-5-5-5-5-------------------|
E|--3-x-3-|    |--1-1-1--3-3-3--1-1-1-|     |--3-3-3-3-3-3-------------------|
             PM   * *    * *    * *

Chorus
e|----------------|     |----------------|     |-----------------------------|
B|----------------|     |----------------|     |-----------------------------|
G|-3-3-3----------|     |----------------|     |-----------------------------|
D|-3-3-3--3-3-5-3-| x4  |-5-5-5--3-3-3-3-| x3  |-5-5-5-5-5-5-5-5-------------|
A|-1-1-1--3-3-5-3-|     |-5-5-5--3-3-3-3-|     |-5-5-5-5-5-5-5-5-------------|
E|--------1-1-3-1-|     |-3-3-3--1-1-1-1-|     |-3-3-3-3-3-3-3-3-------------|

Order

Intro  x4
Verse 1 
Chorus
Verse 2 
Chorus
Intro (x2)
Verse 3
Chorus
Intro
Intro x3
And end on 

e|-------|
B|-------|
G|-------|
D|---5---|
A|---5---|
E|---3---|

Lyrics

(Verse 1)
I'm on a mission
I've made my decision
To lead a path of self-destruction
Slow progression			
Killin my complexion
And it's rotting out my teeth

(Chorus)
I'm on a roll
No self-control
I'm blowing off steam
With methaphetamine			
I don't know what I want
And it's all that I've got
And I'm picking scabs off my face

(Verse 2)
Every hour
My blood is turning sour
And my pulse is beating out of time
I found a treasure			
Filled with sick pleasure
And it sits on a thick white line

(Chorus)
(Bridge)

(Verse 3)
I'm on a mission
I got no decision
Like a cripple running the rat race
Wish in one hand			
Shit in the other
And see which one gets filled first

(Chorus)

Geek...stink...breath!

-----------------------------------------------------------------------------------------
Green day No pride
-----------------------------------------------------------------------------------------
Tuning half a step down

Intro
e|---------------------------------------------------------------------------|
B|---------------------------------------------------------------------------|
G|-----------8-8-8-8-8--6-6-6-6-6-6-6----------------------------------------|
D|--6-6-6-6--8-8-8-8-8--6-6-6-6-6-6-6----------------------------------------|
A|--6-6-6-6--6-6-6-6-6--4-4-4-4-4-4-4----------------------------------------|
E|--4-4-4-4------------------------------------------------------------------|

Verse 
e|---------------------------------------------------------------------------|
B|---------------------------------------------------------------------------|
G|----------8-8-8-8-8--6-6-6-6-----------------------------------------------|
D|-6-6-6-6--8-8-8-8-8--6-6-6-6--6-6-6-6-6-6-6-6------------------------------| x4
A|-6-6-6-6--6-6-6-6-6--4-4-4-4--6-6-6-6-6-6-6-6------------------------------|
E|-4-4-4-4----------------------4-4-4-4-4-4-4-4------------------------------|

Chorus
e|---------------------------------------------------------------------------|
B|---------------------------------------------------------------------------|
G|-8-8-8-8-8-8-8-8-8-8-8-8--6----8-8-8--8-8-8-8-8-8-8-8-8-8-8-8--6----8-8-8--|
D|-8-8-8-8-8-8-8-8-8-8-8-8--6-6--8-8-8--8-8-8-8-8-8-8-8-8-8-8-8--6-6--8-8-8--|
A|-6-6-6-6-6-6-6-6-6-6-6-6--4-6--6-6-6--6-6-6-6-6-6-6-6-6-6-6-6--4-6--6-6-6--|
E|----------------------------4------------------------------------4---------|

e|---------------------------------------------------------------------------|
B|---------------------------------------------------------------------------|
G|----------5-5-5-5-5--6-6-6-6--8-8-8-8-----------8-8-8----------------------|
D|-6-6-6-6--5-5-5-5-5--6-6-6-6--8-8-8-8--6-6-6-6--8-8-8----------------------|
A|-6-6-6-6--3-3-3-3-3--4-4-4-4--6-6-6-6--6-6-6-6--6-6-6----------------------|
E|-4-4-4-4-------------------------------4-4-4-4-----------------------------|

Order

Intro (x2 with one guitar x2 with full band)
Verse 1
Chorus
Intro  x2
Verse 2
Chorus
Intro  x6
Chorus
Intro  x4  

Lyrics

(Verse 1)
Well I am just a mutt
And nowhere is my home
Where dignity's a land mine
In the school of lost hope		
I've panhandled for life
Because I'm not afraid to beg
Hand me down your lost and founds
Of second hand regrets

(Chorus)
Better swallow your pride
Before you choke on it
Better digest your values		
Because they turn to shit		
Honour's gonna knock you down
Before your chance
To stand up and fight
Well I know I'm not the one
I got no pride

(Verse 2)
Sects of disconnection
And traditions of lost faith
No culture's worth a stream of piss
Or bullet in my face
To hell with unity			
Separation'll kill us all
Torn to shreds and disjointed
Before the final fall

(Chorus)
(Intro)
(Chorus)

I got no pride

-----------------------------------------------------------------------------------------
Green Day Bab's uvula who?
-----------------------------------------------------------------------------------------
Tuning half a step down

Intro
e|---------------------------------------------------------------------------|
B|---------------------------------------------------------------------------|
G|---------11~~--------------------------------------------------------------|
D|-9---7---11~~--------------------------------------------------------------|
A|-9---7----9~~--------------------------------------------------------------|
E|-7---5---------------------------------------------------------------------|

Verse
e|---------------------------------------------------------------------------|
B|---------------------------------------------------------------------------|
G|--------------------------9-9-9--------------------------------------------|
D|-9-9--9-9--9-9---7-7-7-7--9-9-9--------------------------------------------| 
A|-9-9--9-9--9-9---7-7-7-7--7-7-7--------------------------------------------|
E|-7-7--7-7--7-7---5-5-5-5---------------------------------------------------|

Chorus
e|---------------------------------------------------------------------------|
B|---------------------------------------------------------------------------|
G|------------------9-9------------------------------------------------------| x4
D|-7-7-7-7-7-7-7-7--9-9--9-9-------------------------------------------------|
A|-7-7-7-7-7-7-7-7--7-7--9-9-------------------------------------------------|
E|-5-5-5-5-5-5-5-5-------7-7-------------------------------------------------|

Order

Intro
Verse 1  x6
Chorus 1
Verse 2  x5
Chorus 2
Verse 1  x6  (with a second guitar playing chords in the background)
Chorus 2

Then end with this
e|---------------|
B|---------------|
G|---------------|
D|-9-9--9-9--9-9-| 
A|-9-9--9-9--9-9-|
E|-7-7--7-7--7-7-|

Lyrics

(Verse 1)
I got a knack for fuckin everything up
My temper flies and I get myself all wound up
My fuse is short and my blood pressure is high
I lose control and I get myself all wound up
Tension mounts and I fly up the wall		
I self-destruct and I get myself all wound up
Petulance and irritation set in
I throw a tantrum and I get myself all wound up

(Chorus 1)
I hate myself and I'm all wound up
I hate myself and I'm all wound up		
Loss of control and I'm all wound up
I lose myself and I'm all wound up

(Verse 2)
Chip on my shoulder and a leech on my back
Stuck in a rut and I get myself all wound up
Killed my composure and it'll never come back
Loss of control and I get myself all wound up
Blown out of proportion again			
My temper snaps and I get myself all wound up
Spontaneous combustion, panic attack
I slipped a gear and I get myself all wound up

(Chorus 2)
I hate myself and I'm all wound up
Loss of control and I'm all wound up
What can I say, I'm afraid 			
I'm all wound up

(Verse 1)
(Chorus 2)

-----------------------------------------------------------------------------------------
Green Day 86 
-----------------------------------------------------------------------------------------
Tuning: 1/2 step down

Intro/chorus
E|-----------------------------------------------------------------|
B|-----------------------------------------------------------------|
G|-9-9-9-9-9-9-9---------------------------------------------------|
D|-9-9-9-9-9-9-9--6-6-6-6-6-6-7-7-7-7-7-7-7-7-7-7-7-7-7-7----------|
A|-7-7-7-7-7-7-7--6-6-6-6-6-6-7-7-7-7-7-7-7-7-7-7-7-7-7-7----------|
E|----------------4-4-4-4-4-4-5-5-5-5-5-5-5-5-5-5-5-5-5-5----------|

Verse
E|-----------------------------------------------------------------------------------------------|
B|-----------------------------------------------------------------------------------------------|
G|-----------------------------------------------------------------------------------------------|
D|-2-2-2-2-2-2-2-2-2-2-2-2-2-2-2--9-9-9-9-9-9-9-9-9-9-9--7-7-7-7-7-7-7-7--2-2-2-2-2-2-2-2-2--7-7-|
A|-2-2-2-2-2-2-2-2-2-2-2-2-2-2-2--9-9-9-9-9-9-9-9-9-9-9--7-7-7-7-7-7-7-7--2-2-2-2-2-2-2-2-2--7-7-|
E|-0-0-0-0-0-0-0-0-0-0-0-0-0-0-0--7-7-7-7-7-7-7-7-7-7-7--5-5-5-5-5-5-5-5--0-0-0-0-0-0-0-0-0--5-5-|
pm * * * * * * * * * *   * * *    * * *   * * * *   * *  * * * *   * * *  * * * * * * * * *   

e|-----------------------------------------------------------------------------------------------|
B|-----------------------------------------------------------------------------------------------|
G|-----------------------------------------------------------------------------------------------|
D|-2-2-2-2-2-2-2-2-2-2--9-9-9-9-9-9-9-9--7-7-7-7-7-7-7--2-2-2-2-2-2-2-2-2-2-2-2-----5-5----------|
A|-2-2-2-2-2-2-2-2-2-2--9-9-9-9-9-9-9-9--7-7-7-7-7-7-7--2-2-2-2-2-2-2-2-2-2-2-2-----5-5----------|
E|-0-0-0-0-0-0-0-0-0-0--7-7-7-7-7-7-7-7--5-5-5-5-5-5-5--0-0-0-0-0-0-0-0-0-0-0-0-----7-7----------|
Pm * * * *   * * * * *  * * * *   * * * 

Interlude
e-------------------------------------------------------------------------------------|
B-------------------------------------------------------------------------------------|
G-------------------------------------------------------------------------------------|
D-9-9-9-9-9-9-9-9-9-9-9-9-9-7-7-7-7-7-7-7-7-7-7-7-7-----------------------------------|
A-9-9-9-9-9-9-9-9-9-9-9-9-9-7-7-7-7-7-7-7-7-7-7-7-7-----------------------------------|
E-7-7-7-7-7-7-7-7-7-7-7-7-7-5-5-5-5-5-5-5-5-5-5-5-5-----------------------------------|

Bridge
e--------------------------------------------------------------------------------------|
B--------------------------------------------------------------------------------------|
G-9-9-9-9-9-9-9------------------------------------------------------------------------|
D-9-9-9-9-9-9-9--6-6-6-6-6-6-7-7-7-7-7-7-7-7-7-7-7-7-7-7-------------------------------|
A-7-7-7-7-7-7-7--6-6-6-6-6-6-7-7-7-7-7-7-7-7-7-7-7-7-7-7-------------------------------|
E----------------4-4-4-4-4-4-5-5-5-5-5-5-5-5-5-5-5-5-5-5-------------------------------|


Bridge 2
e--------------------------------------------------------------------------------------|
B--------------------------------------------------------------------------------------|
G--------------------------------------------------------------------------------------|
D-9-9-9-9-9-9-9-9-9--7--------------9-9-9-9-9-9-7-7-7-7-7-7-7-7-7-7-7------------------|
A-9-9-9-9-9-9-9-9-7--7—(Bass Fill)--9-9-9-9-9-9-7-7-7-7-7-7-7-7-7-7-7------------------|
E-7-7-7-7-7-7-7-7-7--5--------------7-7-7-7-7-7-5-5-5-5-5-5-5-5-5-5-5------------------|

End
e---------------------------------------------------
B---------------------------------------------------
G---------------------------------------------------
D-9-9-9-9-9-9-----7---------------------------------
A-9-9-9-9-9-9-----7---------------------------------
E-7-7-7-7-7-7-----5---------------------------------

Order

Pick Slide
Intro  x2
Verse
Interlude  x2
Chorus     x4
Verse
Interlude  x2
Chorus     x4
Bridge     x4
Bridge 2
Chorus
End

Lyrics

(Verse 1)
What brings you around?
Did you lose something
The last time you were here?		
You'll never find it now
It's buried deep
With your identity

(Interlude)
So stand aside
And let the next one pass		
Don't let the door
Kick you in the ass

(Chorus)
There's no return from 86   (x4)
Don't even try				

(Verse 2)
Exit out the back
And never show your head
Around again				
Purchase your ticket
And quickly take
The last train out of town

(Interlude)
(Chorus)
(Bridge)
(Chorus)


Green Day Panic Song sorry I cant do this tab (strange song!)

-----------------------------------------------------------------------------------------
Green Day Stuart and the Ave.
-----------------------------------------------------------------------------------------
Tuning half a step down

Intro
e|----------------------------------------------------------------------------|
B|----------------------------------------------------------------------------|
G|-7--------------------------------7-7-7-7-----------------------------------|
D|-7—(bass-riff)--7-7-7-7-7-7-7-7---7-7-7-7--2-2-2-2-2--5-5-5-5--7-7-7-7-7-7--|
A|-5--------------7-7-7-7-7-7-7-7---5-5-5-5--2-2-2-2-2--5-5-5-5--7-7-7-7-7-7--|
E|----------------5-5-5-5-5-5-5-5------------0-0-0-0-0--3-3-3-3--5-5-5-5-5-5--|
PM                * * * * * * * *

Bass riff
G|----------------------------------------2------------------------------------|
D|--0-0-0-4-2-0-2-2-2-2-2-4-5-----------5--------------------------------------|
A|-----------------------------------5-----------------------------------------|
E|----------------------------3--3-3-------------------------------------------|

Verse
e|-----------------------------------------------------------------------------|
B|-----------------------------------------------------------------------------|
G|-7-7-7-7-------------------7-7-7-7-7-7-7-7-----------------------------------|
D|-7-7-7-7--2-2-2-2--5-5-5-5-7-7-7-7-7-7-7-7-2-2-2-2--5-5-5-5--7-7-7-7-7-7-7-7-|
A|-5-5-5-5--2-2-2-2--5-5-5-5-5-5-5-5-5-5-5-5-2-2-2-2--5-5-5-5--7-7-7-7-7-7-7-7-|
E|----------0-0-0-0--3-3-3-3-----------------0-0-0-0--3-3-3-3--5-5-5-5-5-5-5-5-|

e|-----------------------------------------------------------------------------|
B|-----------------------------------------------------------------------------|
G|-7-7-7-7-------------------7-7-7-7-7-7-7-7-----------------------------------|
D|-7-7-7-7--2-2-2-2--5-5-5-5-7-7-7-7-7-7-7-7-2-2-2-2--5-5-5-5--7-7-7-7-7-7-7-7-|
A|-5-5-5-5--2-2-2-2--5-5-5-5-5-5-5-5-5-5-5-5-2-2-2-2--5-5-5-5--7-7-7-7-7-7-7-7-|
E|----------0-0-0-0--3-3-3-3-----------------0-0-0-0--3-3-3-3--5-5-5-5-5-5-5-5-|

Chorus
e|-----------------------------------------------------------------------------|
B|-----------------------------------------------------------------------------|
G|-------------------------------------------------------------7-7-7-7---------|
D|-9-9-9-9-9-9-9-9--5-5-5-5-5-5-5-5--9-9-9-9-9-9-9-9-9--5-5-5--7-7-7-7-2-2-2-2-|
A|-9-9-9-9-9-9-9-9--5-5-5-5-5-5-5-5--9-9-9-9-9-9-9-9-9--5-5-5--5-5-5-5-2-2-2-2-|
E|-7-7-7-7-7-7-7-7--3-3-3-3-3-3-3-3--7-7-7-7-7-7-7-7-7--3-3-3----------0-0-0-0-|
PM                                                                     * * * *

End
e|-----------------------------------------------------------------------------|
B|-----------------------------------------------------------------------------|
G|-7-7-7-7-7-7-------------7-7-7-7-7-7-------------7-7-7-7-7-7----------------7|
D|-7-7-7-7-7-7--7-7-7-7-7--7-7-7-7-7-7--7-7-7-7-7--7-7-7-7-7-7--7-7-7-7-7-7-7-7|
A|-5-5-5-5-5-5--7-7-7-7-7--5-5-5-5-5-5--7-7-7-7-7--5-5-5-5-5-5--7-7-7-7-7-7-7-5|
E|--------------5-5-5-5-5---------------5-5-5-5-5---------------5-5-5-5-5-5-5--|

Order

Intro
Verse 1
Chorus
Intro
Verse 2
Chorus
Bridge (play verse)
Chorus
End

Lyrics

(Verse 1)
Standing on the corner
Of Stuart and the Avenue
Ripping up a transfer
And a photograph of you			
You're a blur of my dead past
And rotting existence
As I stand laughing on the
Corner of insignificance

(Chorus)
Well destiny is dead
In the hands of bad luck		
Before it might have made some sense
But now it's all fucked up

(Chorus)
Seasons change as well as minds
And I'm a two-faced clown
Mommy's little nightmare
Driving Daddy's car around		
I'm beat down and half brain-dead
The long lost king of fools
I may be dumb but I'm not stupid
Enough to stay with you

(Chorus)
(Bridge)
(Chorus)

-----------------------------------------------------------------------------------------
Green Day Brain Stew
-----------------------------------------------------------------------------------------
Standard Tuning

Riff 1
e|-----------------------------------------------------------------------------|
B|-----------------------------------------------------------------------------|
G|-----------------------------------------------------------------------------|
D|--7-7--5-5--4-4--3-3--2-2----------------------------------------------------|
A|--7-7--5-5--4-4--3-3--2-2----------------------------------------------------|
E|--5-5--3-3--2-2--1-1--0-0----------------------------------------------------|
PM  * *  * *  * *  * *  * *

Riff 2 (the same as riff 1 but without palm mute.)
e|-----------------------------------------------------------------------------|
B|-----------------------------------------------------------------------------|
G|-----------------------------------------------------------------------------|
D|--7-7--5-5--4-4--3-3--2-2----------------------------------------------------|
A|--7-7--5-5--4-4--3-3--2-2----------------------------------------------------|
E|--5-5--3-3--2-2--1-1--0-0----------------------------------------------------|

Riff 3
e|-----------------------------------------------------------------------------|
B|-----------------------------------------------------------------------------|
G|-----------------------------------------------------------------------------|
D|--7-7-x-x-x-x-x-x-5-5-x-x-x-x-x-x-4-4-x-x-x-x-x-x-3-3-x-x-2-2----------------|
A|--7-7-x-x-x-x-x-x-5-5-x-x-x-x-x-x-4-4-x-x-x-x-x-x-3-3-x-x-2-2----------------|
E|--5-5-x-x-x-x-x-x-3-3-x-x-x-x-x-x-2-2-x-x-x-x-x-x-1-1-x-x-0-0----------------|

Order

Intro   (riff 1 x2)
Verse 1 (riff 1 x4)
Chorus  (riff 2 x2)
Verse 2 (riff 2 x4)
Chorus  (riff 3 x2)
Verse 3 (riff 2 x4)
Chorus  (riff 3 x2)
Verse 2 (riff 3 but lighty scratch this time x 4)
End     (riff 2 x8)

Lyrics

(Verse 1)
I'm havin trouble trying to sleep
I'm countin sheep but runnin out
As time ticks by, still I try		   
No rest for crosstops in my mind
On my own, here we go

(Verse 2)
My eyes feel like they're gonna bleed
Dried up and bulging out my skull
My mouth is dry, my face is numb	   
Fucked up and spun out in my room
On my own, here we go

(Verse 3)
My mind is set on overdrive
The clock is laughing in my face
Crooked spine, senses dulled		   
Passed the point of delerium
On my own, here we go

(Verse 2)

-----------------------------------------------------------------------------------------
Green Day Jaded
-----------------------------------------------------------------------------------------
Tuning standard 

Intro
e|-----------------------------------------------------------------------------|
B|-----------------------------------------------------------------------------|
G|-------------6---------------------------------------------------------------|x2 with one guitar
D|-6-6-6\4-4-4-6---------------------------------------------------------------|then x2 with band
A|-6-6-6\4-4-4-4---------------------------------------------------------------|
E|-4-4-4\2-2-2-----------------------------------------------------------------|

Verse 
e|----------------|     |------------------------------------------------------|
B|----------------|     |------------------------------------------------------|
G|-------------6--|     |------------------------------------------------------|
D|-6-6-6\4-4-4-6--| x7  |-6-6-6-6-6-6------------------------------------------|
A|-6-6-6\4-4-4-4--|     |-6-6-6-6-6-6------------------------------------------|
E|-4-4-4\2-2-2----|     |-4-4-4-4-4-4------------------------------------------|

Chorus
e|-----------------------------------------------------------------------------|
B|-----------------------------------------------------------------------------|
G|-----------6-6-6-6-6-6-6-6-6-6-6-6--------------6--------------6--6-6-6-6-6--|
D|--6-6-6-6--6-6-6-6-6-6-6-6-6-6-6-6--6-6-6\4-4-4-6--6-6-6\4-4-4-6--6-6-6-6-6--|
A|--6-6-6-6--4-4-4-4-4-4-4-4-4-4-4-4--6-6-6\4-4-4-4--6-6-6\4-4-4-4--4-4-4-4-4--|
E|--4-4-4-4---------------------------4-4-4\2-2-2----4-4-4\2-2-2---------------|

e|-----------------------------------------------------------------------------|
B|-----------------------------------------------------------------------------|
G|-6-6-6-6-6-6-6-8-8-8-8-8-8-8-8-8-8-8-8---------------------------------------|
D|-6-6-6-6-6-6-6-8-8-8-8-8-8-8-8-8-8-8-8---------------------------------------|
A|-4-4-4-4-4-4-4-6-6-6-6-6-6-6-6-6-6-6-6---------------------------------------|
E|-----------------------------------------------------------------------------|

Order

Intro
Verse 1
Chorus
Verse 2
Chorus
Verse chords x4 (with no lyrics)
Chorus
Verse chords x4 
End on 

e|--------|
B|--------|
G|--------|
D|---6----|
A|---6----|
E|---4----|

Lyrics

(Verse 1)
Somebody keep my balance
I think I'm falling off
Into a state of regression
The expiration date			
Rapidly coming up
It's leaving me behind to rank

(Chorus)
Always move forward
Going straight will get you nowhere
There is no progress			
Evolution killed it all
I found my place in nowhere

(Verse 2)
I'm taking one step sideways
Leaning with my crutch
Got a fucked-up equilibrium
Countdown from 9 to 5			
Hooray we're gonna die
Blessed into our extinction

(Chorus)
(Bridge)
(Chorus)

-----------------------------------------------------------------------------------------
Green Day Westbound sign
-----------------------------------------------------------------------------------------
Tuning Standard

Intro
e|-----------------------------------------------------------------------------|
B|-----------------------------------------------------------------------------|
G|--------------------9-9-9-9---------------------9-9-9-9----------------------|
D|-9-9-9-9-9-x-6-6-6--9-9-9-9--9-9-9-9-9-x-6-6-6--9-9-9-9----------------------|
A|-9-9-9-9-9-x-6-6-6--7-7-7-7--9-9-9-9-9-x-6-6-6--7-7-7-7----------------------|
E|-7-7-7-7-7-x-4-4-4-----------7-7-7-7-7-x-4-4-4-------------------------------|

e|-----------------------------------------------------------------------------|
B|-----------------------------------------------------------------------------|
G|--------------------9-9-9-9---------------------9-9-9-9----------------------|
D|-9-9-9-9-9-x-6-6-6--9-9-9-9--9-9-9-9-9-x-6-6-6--9-9-9-9----------------------|
A|-9-9-9-9-9-x-6-6-6--7-7-7-7--9-9-9-9-9-x-6-6-6--7-7-7-7----------------------|
E|-7-7-7-7-7-x-4-4-4-----------7-7-7-7-7-x-4-4-4-------------------------------|

Verse
e|-----------------------------------------------------------------------------|
B|-----------------------------------------------------------------------------|
G|-4-4-4-4-------------------------------4-4-4-4-------------------------------|
D|-4-4-4-4-4-4-4-4--6-6-6-6--2-2-2-2-2-2-4-4-4-4-4-4-4-4--6-6-6-6--2-2-2-2-2-2-|
A|-2-2-2-2-4-4-4-4--6-6-6-6--2-2-2-2-2-2-2-2-2-2-4-4-4-4--6-6-6-6--2-2-2-2-2-2-|
E|---------2-2-2-2--4-4-4-4--0-0-0-0-0-0---------2-2-2-2--4-4-4-4--0-0-0-0-0-0-|

e|-----------------------------------------------------------------------------|
B|-----------------------------------------------------------------------------|
G|-4-4-4-4-------------------------------4-4-4-4-------------------------------|
D|-4-4-4-4-4-4-4-4--6-6-6-6--2-2-2-2-2-2-4-4-4-4-4-4-4-4--6-6-6-6--2-2-2-2-2-2-|
A|-2-2-2-2-4-4-4-4--6-6-6-6--2-2-2-2-2-2-2-2-2-2-4-4-4-4--6-6-6-6--2-2-2-2-2-2-|
E|---------2-2-2-2--4-4-4-4--0-0-0-0-0-0---------2-2-2-2--4-4-4-4--0-0-0-0-0-0-|

Chorus (same as intro but with lyrics "she's taking off, taking off, taking off")
e|-----------------------------------------------------------------------------|
B|-----------------------------------------------------------------------------|
G|--------------------9-9-9-9---------------------9-9-9-9----------------------|
D|-9-9-9-9-9-x-6-6-6--9-9-9-9--9-9-9-9-9-x-6-6-6--9-9-9-9----------------------|
A|-9-9-9-9-9-x-6-6-6--7-7-7-7--9-9-9-9-9-x-6-6-6--7-7-7-7----------------------|
E|-7-7-7-7-7-x-4-4-4-----------7-7-7-7-7-x-4-4-4-------------------------------|

e|-----------------------------------------------------------------------------|
B|-----------------------------------------------------------------------------|
G|--------------------9-9-9-9---------------------9-9-9-9----------------------|
D|-9-9-9-9-9-x-6-6-6--9-9-9-9--9-9-9-9-9-x-6-6-6--9-9-9-9----------------------|
A|-9-9-9-9-9-x-6-6-6--7-7-7-7--9-9-9-9-9-x-6-6-6--7-7-7-7----------------------|
E|-7-7-7-7-7-x-4-4-4-----------7-7-7-7-7-x-4-4-4-------------------------------|

Bridge
e|-----------------------------------------------------------------------------|
B|-----------------------------------------------------------------------------|
G|-----------------------------------------------------------------------------|
D|-4-4-4-4--7-7-7-7-7--2-2-2-2--9-9-9-9-9-9--4-4-4-4--7-7-7-7-7--2-2-2-2--9-9--|
A|-4-4-4-4--7-7-7-7-7--2-2-2-2--9-9-9-9-9-9--4-4-4-4--7-7-7-7-7--2-2-2-2--9-9--|
E|-2-2-2-2--5-5-5-5-5--0-0-0-0--7-7-7-7-7-7--2-2-2-2--5-5-5-5-5--0-0-0-0--7-7--|

e|-----------------------------------------------------------------------------|
B|-----------------------------------------------------------------------------|
G|-----------------------------------------------------------------------------|
D|-9-9-9-9--4-4-4-4--7-7-7-7-7--2-2-2-2--9-9-9-9-9-9--4-4-4-4--7-7-7-7-x-x-x-x-|
A|-9-9-9-9--4-4-4-4--7-7-7-7-7--2-2-2-2--9-9-9-9-9-9--4-4-4-4--7-7-7-7-x-x-x-x-|
E|-7-7-7-7--2-2-2-2--5-5-5-5-5--0-0-0-0--7-7-7-7-7-7--2-2-2-2--5-5-5-5-x-x-x-x-|

e|-----------------------------------------------------------------------------|
B|-----------------------------------------------------------------------------|
G|-----------------------------------------------------------------------------|
D|-x-x-x-x-x-x-x-x-------------------------------------------------------------|
A|-x-x-x-x-x-x-x-x-------------------------------------------------------------|
E|-x-x-x-x-x-x-x-x-------------------------------------------------------------|

Order

Intro
Verse 1
Chorus
Verse 2
Chorus
Bridge
Chorus x 3 (I think)


Lyrics

(Verse 1)
Boxed up all of her favourite things
Sold the rest at a rainy yard sale
Big plans and leaving friends
And a westbound sign				
Weighed out her choices on a scale
Prevailing nothing made sense
Just transportation and a blank decision

(Chorus)
She's taking off
Taking off					
Taking off
Taking off

(verse 2)
No time and no copping out
She's burning daylight and petrol
Blacked out the rearview mirror
And westward on
Strung out on confusion road
And ten minute nervous breakdowns
Xanex a beer for thought
And she's determined

(Chorus)

(Bridge)
Oh is it salvation?
Or an escape from discontent?
Will she find a name
In the California cement
Punched out of the grind			
The punched her once too many times
Is tragedy 2000 miles away?
She's taking off

-----------------------------------------------------------------------------------------
Green Tightwad hill
-----------------------------------------------------------------------------------------
Tuning half a step down
Note: I have wrote this one as chords Important when a chord is written just the once it
doesn't mean you play it only once if you'll have to listen to the song to find out how
many times you play it. That rule applies to all of this song okay if you don't understand
I suppose you could just get some other guys tab and paste it into here. 

Verse
e|----------------|     |------------------------------------------------------------|
B|----------------|     |------------------------------------------------------------|
G|----------------|     |------------------------------------------------------------|
D|-7------5----7--| x2  |------------------------------------------------------------|
A|-7------5----7--|     |------------------------------------------------------------|
E|-5------3----5--|     |------------------------------------------------------------|

Chorus
                                                 (single strum these chords)
e|--------------|     |---------------|     |----------------------------------------|
B|--------------|     |---------------|     |----------------------------------------|
G|-5------------|     |------5--------|     |-----5~~--------------------------------|
D|-5----5----7--| x2  |------5----5---| x2  |-----5~~----5~~----7~~------------------|
A|-3----5----7--|     |------3----5---|     |-----3~~----5~~----7~~------------------|
E|------3----5--|     |-----------3---|     |------------3~~----5~~------------------|


Order

Verse 1
Chorus
Verse 2
Chorus
Bridge (verse chords)
Chorus
Verse x1

Lyrics

(Verse 1)
Cheapskate on the hill
A thrill-seeker making deals
Sugar city urchin wasting time
Town of lunatics			
Begging for another fix
Turning tricks for speedballs
One more night

(Chorus)
Making your rounds once again
Turning up empty-handed
Bummin a ride				
Burnin daylight
Last up at dawn
Tight Wad Hill

(Verse 2)
Drugstore hooligan
Another white trash mannequin
On display to rot up on the hill
Living out a lie			
But having the time of his life
Hating every minute
Of his existence

(Chorus)
(Bridge)
(Chorus)

-----------------------------------------------------------------------------------------
Green Day Walking Contradiction
-----------------------------------------------------------------------------------------
Tuning: down half a step

Intro
E|-------------------|-----------------|------------------|-----------------|
B|-------------------|-----------------|------------------|-----------------|
G|-------------------|-----------------|------------------|-----------------|
D|-7-----------------|-----------------|-7----------------|-----------------|
A|-7---7-7-7-7-7-7-7-|-7-7-7-7-7-7-7-7-|-7--7-7-7-7-7-7-7-|-7-7-7-7-7-7-7-7-|
E|-5---5-5-5-5-5-5-5-|-5-5-5-5-5-5-5-5-|-5--5-5-5-5-5-5-5-|-5-5-5-5-5-5-5-5-|
PM     *******************************

Verse
E|---------------------|-----------------|-------------------|--------------|
B|-------------7-------|-----------------|-------7--7--------|--------------|
G|----------7--7-------|-----------------|-------7--7--------|--------------|
D|----------7--7-------|-----------------|-------7--7--------|--------------|
A|-7----7---5--5-----5-|-5-5/7--7-7-7--7-|-7-----5--5------5-|-5-5/7--7-7-7-|
E|-5----5---------0--3-|-3-3/5--5-5-5--5-|-5--0--------0---3-|-3—3/5--5-5-5-|

Chorus
E|------------------|--------------------|-------------------|--------------|
B|-7--7-------------|--------------------|-7--7--------------|--------------|
G|-7--7-------------|--------------------|-7--7--------------|--------------|
D|-7--7-------------|--------------------|-7--7--------------|--------------|
A|-5--5------5--5/7-|-(7)--7-7-7-7-7-7-7-|-5--5-------5--5/7-|-(7)--7-7-7-7-|
E|--------0--3—-3/5-|-(5)--5-5-5-5-5-5-5-|--------0---3--3/5-|-(5)--5-5-5-5-|

E|--------------------------------------------------------------------------|
B|--------------------------------------------------------------------------|
G|--------------------------------------------------------------------------|
D|--------------------------------------------------------------------------|
A|-7-7-7--------------------------------------------------------------------|
E|-5-5-5--------------------------------------------------------------------|

Outro
E|----------------|-------------------|-----------------|-------------------|
B|------7--7------|-------------------|------7--7-------|-------------------|
G|------7--7------|-------------------|------7--7-------|-------------------|
D|------7--7------|-------------------|------7--7-------|-------------------|
A|-7----5--5----5-|-(5)--5/7--7-7-7-7-|-7----5--5-----5-|-(5)--5------------|
E|-5-0--------0-3-|-(3)--3/5--5-5-5-5-|-5--x-------0--3-|-(3)--3--0-0-0-x-x-|

E|------------------|-------------------|----------------|------------------|
B|------------------|-------------------|-------7--7-----|------------------|
G|--------7--7------|-------------------|-------7--7-----|------------------|
D|--------7--7------|-------------------|-------7--7-----|------------------|
A|-7--7---5--5----5-|-(5)--5/7--7-7-7-7-|-7--7--5--5---5-|-(5)-5--7--7------|
E|-5--5---------0-3-|-(3)--3/5--5-5-5-5-|-5--5-------0-3-|-(3)-3--5--5------|

Order

Intro
Verse x9
Chorus x2
Verse x5
Chorus x4
Outro

Lyrics

(Verse 1)
Do as I say, not as I do because
The shit's so deep run can't run away
I beg to differ, on the contrary
I agree with every word that you say		
Talk is cheap and lies are expensive
My wallet's fat and so is my head
Hit and run and then I'll hit you again
I'm a smart-ass, but I'm playing dumb

(Verse 2)
Standards set and broken all the time
Control the chaos behind a gun
Call it as I see it even if
I was born deaf, blind, and dumb		
Losers winning big on the lottery
Rehab rejects still sniffing glue
Constant refutation with myself
I'm a victim of a catch 22

(Chorus)
I have no belief
But I believe I'm a
Walking contradiction				
And I ain't got no right

(Verse 1)
(Chorus)
(Chorus)

And that's it, if you have any comments suggestions, more green day tabs or anything like
that email me at guitar_rocker_47@hotmail.com ok BYE!  (Tab notation below) don't forget
to rate this tab plz thank you!

H = hammer-on
P = pull-off
B = bend
/ = Slide up
\ = Slide down
~ = let ring
x = scratch

when a chord has a * underneath palm mute it.
comments
print report bad tab
5 comments total. Showing first comments.
-2 reply
feesk8ordie wrote on March 31 2005, 12:00 am

no no no no no no no. the first chord in armatage shanks is:

e|-----|
b|-----|
g|--8--|
d|--8--|
a|--6--|
e|-----|

other than that, good tab. 5 stars!

0 reply
ChemicEmotions wrote on August 9 2006, 11:49 pm

Well, The chorus on No Pride is wrong, doesn't sound right when played with the band. And also, the first chord on the intro/verse in Westbound Sign is wrong.

I haven't reviewed the rest yet, but I think your tabs are great, just a few errors here and there. [It's better than anybody else's on here].

0 reply
austin704 wrote on June 14 2007, 11:01 am

Geek Stink Breath is wrong. Also every song is tuned a half step down except Jaded.

I want to post or [tab]
guest
You may want to rate the tab now too:
select rating
Please do not post tabs as comments. Select "correction" instead!