Oops, an error
Loading. Please wait.

International Superhits Bass Tab

5,643 views 5 this week
15 commentsread comments
1 2 3 4 5
worth learning
x 12
Autoscroll
+/-
esc
set tempo
stop
Contributor
WARNING: You are trying to view
                                    content from Ultimate-Guitar.com
                                    in an unauthorized application,
                                    which is prohibited.

                                    Please use an official Ultimate
                                    Guitar Tabs application for iPhone,
                                    iPad or Android to access legitimate
                                    chords, guitar, bass, and drum tabs
                                    from Ultimate-Guitar.com database.

                                    Type "ultimate guitar tabs" in Apple
                                    App Store's or Android Market's
                                    search to find the application.
Green Day International Superhits bass album tab
Tabbed by Liam
Email: guitar_rocker_47@hotmail.com
Tuning for most of the album is half a step down unless otherwise stated

Ive tabbed a guitar version so here's a Bass version. Once again I have to say I
don't have a bass so im tabbing these using a guitar so the tabs may sound a little
off but needless to say they are still better than some of the rubbish bass tabs that
are submitted on this site.


1.Maria
2.Pop Rocks & Coke
3.Longview
4.Welcome To Paradise
5.Basket Case
6.When I Come Around
7.She
8.J.A.R. (Jason Andrews Relva)
9.Geek Stink Breath
 10.Brain Stew 
 11.Jaded
 12. Walking Contradiction
 13.Stuck With Me
 14.Hitchin a Ride
 15.Good Riddance (Time Of Your Life)
 16.Redundant
 17.Nice Guys Finish Last
 18.Minority
 19.Warning
 20.Waiting
 21.Macy's Day Parade

--------------------------------------------------------------------------------------
Green Day Maria
--------------------------------------------------------------------------------------
Tuning Standard

Riff 1
G|-----------------------------------------------------------------------|
D|-----------------------------------------------------------------------|
A|--5-5-5----------------------------------------------------------------|
E|--------5-5—(5-5-5-5-5-5-5-5-5-5-5-5-5-5-5-5-5-5-5-5-5-5-5-5)----------|

Riff 2
G|-----------------------------------------------------------------------|
D|-----------------------------------------------------------------------|
A|--------7-7-7-7-7-7-7-7-7-7-7-7----------------------------------------|
E|--5-5-x----------------------------------------------------------------|

Riff 3
G|-----------------------------------------------------------------------|
D|-----------------------------------------------------------------------|
A|--5-5-5-5-----------------5-5-5-5-----------------5-5-5-5--------------|
E|-----------5-5-5-5-5-5-5-----------5-5-5-5-5-5-5-----------------------|

G|-----------------------------------------------------------------------|
D|-----------------------------------------------------------------------|
A|--------------7-7-7-7-7-7-7-7-7-7--------------------------------------|
E|-5-5-5-5-5-5-----------------------------------------------------------|

Riff 4
G|-----------------------------|-----------------------------------------|
D|--------7-x-x---9-x-x--7-x-x-|--------7-x-x---9-x-x--7-x-x-------------|
A|-7-x-x-----------------------|-7-x-x-----------------------------------|
E|-----------------------------|-----------------------------------------|

Solo (played by guitar)

Riff 6
E|-----------------------------------------------------------------------|
B|-----------------------------------------------------------------------|
G|--7-7-x----------------------------------------------------------------|
D|--7-7-x-7--------------------------------------------------------------|
A|--5-5-x-7--------------------------------------------------------------|
E|--------5--------------------------------------------------------------|

Order

Riff 1 x4
Riff 2 x4
Riff 1 x2
Riff 2 x4
Riff 3
Riff 4 x3
Solo (played by guitar)
Riff 1
Riff 2 x4
Riff 3 x2
Riff 4 x2
Riff 6


--------------------------------------------------------------------------------------
Green Day Pop Rocks & Coke
--------------------------------------------------------------------------------------
Tuning: Standard

This song is mainly acoustic guitar (no bass or drums) until 0.59 that's where I
Have tabbed this song from. So remember this tab doesn't start at the beginning
of the song it starts at 0.59 OKAY!

Riff 1 
G|------------------------------------------------------------------|
D|------------------------------------------------------------------|
A|------------------------------------------------------------------|
E|-5-x-55-x-5-x-5-x-55-x-5-x-55-x-55-x-5-x-5-x----------------------|

Riff add
G|------------------------------------------------------------------|
D|------------------------------------------------------------------|
A|-7-7--------------------------------------------------------------|
E|------------------------------------------------------------------|

Riff add 2
G|------------------------------------------------------------------|
D|------------------------------------------------------------------|
A|-5-x-55-x-5-x-5-x-55----------------------------------------------|
E|------------------------------------------------------------------|

Riff add 3
G|------------------------------------------------------------------|
D|------------------------------------------------------------------|
A|-7-x-77-x-7-x-7-x-77-x-5-x-55-x-5-x-5-----------------------------|
E|------------------------------------------------------------------|

Chorus
G|-----------------------------|------------------------------------|
D|-----------------------------|------------------------------------|
A|--0----------------5-5-5-5-5-|--0----------------5-5-5-5-5--------|
E|-----0---2-2-2-2-------------|-----0---2-2-2-2--------------------|

G|-----------------------------|------------------------------------|
D|-----------------------------|------------------------------------|
A|--0----------------5-5-5-5-5-|--0----------------5-5-5-5-5--------|
E|-----0---2-2-2-2-------------|-----0---2-2-2-2--------------------|

Riff 2
G|------------------------------------------------------------------|
D|------------------------------------------------------------------|
A|------------------------------------------------------------------|
E|-5-x-55-x-5-x-5-x-55-x-55-x-55-x-5-x-5-x-5--0--2-x-22-x-22-x-2--0-|

G|------------------------------------------------------------------|
D|------------------------------------------------------------------|
A|------------------------------------------------------------------|
E|-5-x-55-x-55-x-5--0-----------------------------------------------|

Riff 2 add
G|------------------------------------------------------------------|
D|------------------------------------------------------------------|
A|-5-x-55-x-55-x-5-4------------------------------------------------|
E|------------------------------------------------------------------|

Bridge
G|------------------------------------------------------------------|
D|-0-0-0-0-0-0-0-0---------------0-0-0-0-0-0-0-0--2-2-2-2-2-2-------|
A|------------------2-2-2-2-2-2---------------------------------0---|
E|------------------------------------------------------------------|

Outro (Played by Acoustic guitar only - no bass or drums)

Order

Riff 1     
Riff add 2  
Riff 1      
Riff add 3  
Chorus      
Riff 1     
Riff add    
Riff 2     
Riff 2 add  
Riff 2     
Bridge      
Riff 1
Riff add 2  
Chorus      (hold last note for 12 more measures than usual)
Outro       (Played by Acoustic guitar only - no bass or drums)

--------------------------------------------------------------------------------------
Green Day Longview
--------------------------------------------------------------------------------------

Verse 
G|---------------------------------------9-7-6-7-----------------------|
D|------9-7-6-------7--6----------9-7-6--0-0-0-0-----------------------|
A|-5h7---------7p5-------5---9p7---------------------------------------|
E|---------------------------------------------------------------------|

Pre Chorus 
G|---------------------------------------------------------------------|
D|------9-7-6-------7--6----------9-7-6--------------------------------|
A|-5h7---------7p5-------5---9p7---------------------------------------|
E|---------------------------------------------------------------------|

Pre Chorus
G|---------------------------------------------------------------------|
D|---------------------------------------------------------------------|
A|---------------------------------------------------------------------|
E|-5-5-5-5-5-5-5-5-5-5-5-5---------------------------------------------|

Chorus
G|----------------------------------|----------------------------------|
D|----------------------------------|----------------------------------|
A|--------------------------7-7-7-7-|--------------------------7-7-7-7-|
E|-7-7-7-7-7-7-7-7--5-5-5-5---------|-7-7-7-7-7-7-7-7--5-5-5-5---------|

G|----------------------------------|----------------------------------|
D|----------------------------------|----------------------------------|
A|--------------------------7-7-7-7-|--------------------------7-7-7-7-|
E|-7-7-7-7-7-7-7-7--5-5-5-5---------|-7-7-7-7-7-7-7-7--5-5-5-5---------|

Fill 1
G|------7---------9----7--6-------|------7---------9----7--6-----------|
D|---------7--7h9---9--------9--7-|---------7--7h9---9--------9--7-----|
A|-9p7----------------------------|-9p7--------------------------------|
E|--------------------------------|------------------------------------|

Bridge ('ive got no motivation')
G|----------------------------------|----------------------------------|
D|----------------------------------|----------------------------------|
A|-7-7-7-7-7-7-7-7--5-5-5-5-5-5-5-5-|-7-7-7-7-7-7-7-7--5-5-5-5-5-5-5-5-|
E|----------------------------------|----------------------------------|

G|----------------------------------|----------------------------------|
D|----------------------------------|----------------------------------|
A|-7-7-7-7-7-7-7-7--5-5-5-5-5-5-5-5-|-7-7-7-7-7-7-7-7--5-5-5-5-5-5-5-5-|
E|----------------------------------|----------------------------------|

Pre Chorus 2
G|---------------------------------------------------------------------|
D|---------------------------------------------------------------------|
A|---------------------------------------------------------------------|
E|-5-5-5-5-5-5-5-5-5-5-5-5--5-5-5-5-5-5-5-5-5-5-5-5--------------------|


Order

Verse x5 
Pre Chorus
Chorus
Fill 1 
Verse x3 
Pre Chorus
Chorus
Bridge
Chorus
Fill 1 x4 
Verse 
Pre Chorus 2
Chorus x2
Fill 1 x4 (and to fade)


--------------------------------------------------------------------------------------
Green Day Welcome to Paradise
--------------------------------------------------------------------------------------
Tuning: Standard

Intro
G|-----------------------------------------------------------------------------------| 
D|-----------------------------------------------------------------------------------|
A|-6-x-6-6-x-4-4-4------6-x-6-6-x-4-4-4------6-x-6-6-x-4-4-4------6-x-6-6-x-4-4-4----|
E|-----------------4-4------------------4-4------------------4-4------------------4-4|

Verse
G|-----------------------------------------------------------------------------------|
D|-----------------------------------------------------------------------------------|
A|-6-6-6-6-6-4-4-4-4-4--6-x 6-6-x-6-6-6-6-6-6-6-6-6-6--4-4-4-4-4-----------4-4-4-4---|
E|----------------------------------------------------------------0-0-2-2------------|

G|-----------------------------------------------------------------------------------|
D|-----------------------------------------------------------------------------------|
A|-6-6-6-6-6-4-4-4-4-4--6-x 6-6-x-6-6-6-6-6-6-6-6-6-6-4-4-4-4-4-----------4-4-4-4----|
E|---------------------------------------------------------------0-0-2-2-----------0-|

G|-----------------------------------------------------------------------------------| 
D|-----------------------------------------------------------------------------------|
A|----------4-4-4-4-4-4--------------------------------------------------------------|
E|--0--2-2---------------------------------------------------------------------------|

Chorus
G|-----------------------------------------------------------------------------------|
D|-----------------------------------------------------------------------------------|
A|---------------------0-0-0-0-0-4-4-4-4-4----------------------4-4-4-4-4-4-4-4------|
E|-0-0-0-0-0-4-4-4-4-4----------------------0-0-0-0-0-4-4-4-4-4------------------0-0-|

|------------------------------------------------------------------------------------|
|------------------------------------------------------------------------------------|
|-------------------0-0-0-0-0-4-4-4-4-4----------------------------------------------|
|---0-0-0-4-4-4-4-4------------------------------------------------------------------|

Fill 1
|------------------------------------------------------------------------------------|
|------------------------------------------------------------------------------------|
|-------------2--6-x-6-6-x-4-4-4-----6-x-6-6-x-4-4-4---------------------------------|
|-0-0--0-0--0---------------------4------------------4-4-----------------------------|

Fill 2
|------------------------------------------------------------------------------------|
|------------------------------------------------------------------------------------|
|-------------2--6-x-6-6-x-4-4-4-----6-x-6-6-x-4-4-4------6-x-6-6-x-4-4-4------------|
|-0-0--0-0--0---------------------4------------------4-4------------------4-4--------|

|------------------------------------------------------------------------------------|
|------------------------------------------------------------------------------------|
|-6-x-6-6-x-4-4-4--------------------------------------------------------------------|
|-----------------4-4---2~~----------------------------------------------------------|

Bridge (gradually release palm mute)
|---------------------------------| x8
|---------------------------------|
|-2-2-2-2-5-5-5-5-4-4-4-4-3-3-3-3-|
|---------------------------------|
PM* * * * * * * * * * * * * * * *

End
|------------------------------------------------------------------------------------|
|------------------------------------------------------------------------------------|
|----6-x-6-6-x-4-4-4------6-x-6-6-x-4-4-4------6-x-6-6-x-4-4-4------6-x-6-6-x-4-4-4--|
|-4------------------4-4------------------4-4------------------4-4-------------------|

|------------------------------------------------------------------------------------|
|------------------------------------------------------------------------------------|
|------------------------------------------------------------------------------------|
|-4-4\6------------------------------------------------------------------------------|

Order

Intro
Verse
Chorus
Fill 1
Verse
Chorus
Fill 2
Bridge
Verse
Chorus
End


--------------------------------------------------------------------------------------
Green Day Basket Case
--------------------------------------------------------------------------------------
I will tab this will little time indicators because its confusing where guitar plays on
its own and when bass plays along with guitar you know and stuff like that. I have used
the Dookie version of Basket Case to get the times just in case there are different
versions of different albums okay! If this is confusing leave a comment

Verse 1 (just guitar - no bass)


Chorus 1 (just guitar - no bass)

Post Chorus (0.36) & (1.23) & (2.20)
|-------------------------------------------------------------------------------|
|-------------------------------------------------------------------------------|
|-7----5--5--x--4--(4)--4--4--4--4--4-------------------------------------7--7--|
|--------------------------------------5--5---5-5-5-5-5--7--(7)—-7-7-7-7--------|

Fill 1(0.45) (vibrato effects)
|---------------------|
|-9h10b---------------|
|---------------------|
|---------------------|

Verse 2 (0.48) & (1.45)
G|------------------|-------------------------|------------------|-------------------|
D|------------------|-------------------------|------------------|-------------------|
A|-------------x--2-|-(2)--2--2--2--2--2--x-x-|-4--4--4--4-------|-----------------0-|
E|-0--0--0--0-------|-------------------------|-------------x--4-|-(4)-4-4--4-4-4----|

G|------------------|-------------------------|------------------|-------------------|
D|------------------|-------------------------|------------------|-------------------|
A|-0--0--0--0--x----|---------------2--2--2-2-|-2--2--2--2--2--2-|-------------------|
E|----------------0-|--0---0--0--0------------|------------------|-------------------|

G|------------------|-------------------------|------------------|-------------------|
D|------------------|-------------------------|------------------|-------------------|
A|-------------x--2-|-(2)--2--2--2--2--2--x-x-|-4--4--4--4-------|-----------------0-|
E|-0--0--0--0-------|-------------------------|-------------x--4-|-(4)-4-4--4-4-4----|

G|------------------|-------------------------|------------------|-------------------|
D|------------------|-------------------------|------------------|-------------------|
A|-0--0--0--0--x----|---------------2--2--2-2-|-2--2--2--2--2--2-|-------------------|
E|----------------0-|--0---0--0--0------------|------------------|-------------------|


Chorus 2 (1.09)
G|-------------------|-------------------------|------------------|--------------------|
D|-------------------|-------------------------|------------------|--------------------|
A|-------------------|-------------------------|------------------|-----------9h10\8b--|
E|-5--5---5--5--0--7-|-(7)--7-7-7---7--7--0--0-|------------------|--------------------|

G|-------------------|-------------------------|------------------|--------------------|
D|-------------------|-------------------------|------------------|--------------------|
A|-------------------|-------------------------|------------------|----------9/10\8/9b-|
E|-5--5---5--5--0--7-|-(7)--7-7-7---7--7--0--0-|------------------|--------------------|

G|-------------------|--------------------------|
D|-------------------|--------------------------|
A|-------------------|--------------------------|
E|-5--5---5--5--0--7-|-(7)--7-7-7---7--7--0--0--|

Bridge (1.40)
D|-------------------|-----------------|-----------------|-------------------|
A|-------------------|-----------------|-----------------|-------------------|
E|-5---5-5-5-5-5-5-5-|-5-5-5-5-5-5-5-5-|-7-7-7-7-7-7-7-7-|-7-----------------|
PM     *******************************

Fill 2 (2.11)
G|-------------------|
D|-------------------|
A|-9h10h11\9---------|
E|-------------------|

Fill 3 (2.17)
G|-------------------|
D|-------------------|
A|-9/10\8/9b---------|
E|-------------------|

Pre Outro (2.25)
G|------------------------|-------------------------|
D|------------------------|-------------------------|
A|-0-0--2-2-2---0-0--2-2-2|------7-7-7-7-0----------|
E|------------------------|-5-5-------------7-7-7-7-|

G|------------------------|-------------------------|
D|------------------------|-------------------------|
A|-0-0--2-2-2---0-0--2-2-2|------7-7-7-7-0----------|
E|------------------------|-5-5-------------7-7-7-7-|

G|------------------------|-------------------------|
D|------------------------|-------------------------|
A|-0-0--2-2-2---0-0--2-2-2|------7-7-7-7-0----------|
E|------------------------|-5-5-------------7-7-7-7-|

G|---------------------------|
D|---------------------------|
A|---------------------------|
E|-(7)---7--7--7--7--7-7-0---|

Outro (2.42)
G|------------------------|--------------------------|
D|------------------------|-------2------------------|
A|-0-0--2-2-2---0-0--2-2-2|-------------------0----2-|
E|------------------------|-0--5-----16\7p0-----0----|

Order

Verse (just guitar - no bass)
Chorus 1 (just guitar - no bass)
Post chorus
Fill 1
Verse 2
Chorus 2
Post chorus
Bridge
Verse 2 
Fill 2 (guitar plays chorus 1 at the same time as bass plays this)
Fill 3 (guitar plays chorus 1 at the same time as bass plays this)
Post Chorus
Pre Outro
Outro


--------------------------------------------------------------------------------------
Green Day When I come around
--------------------------------------------------------------------------------------

Intro guitar plays this then bass plays            this at the end
E|------|--------------------------|-------------|   
B|------|--------------------------|----8-----5--|    
G|----0-|-------------------7------|----9-----5--|-------------|   
D|-x--0-|------5-------7-7--7--7-7-|-9--9--9--5--|-------------|
A|-x----|-5-5--5--5-5--5-5--5--5-5-|-7--7--7--3--|-------------|  
E|-x----|-3-3--3--3-3--------------|-------------|--5--7-8-7---|
PM        ***     *********    *******     *

Riff 1
G|---------------------------|----------------------|
D|---------------------------|----------------------|
A|---------------5-5--5--5-5-|-7--7--7--3----3--5-5-|
E|-3--3--3--3-3--------------|----------------------|
PM    *     ********     *******     *          ***

Verse
G|--------------------------|-------------------------|
D|--------------------------|-------------------------|
A|--------------5-5--5--5-5-|-7--7--7--3-----3--5-5---|
E|-3-3--3--3-3--------------|-------------------------|
PM ***     ********     *******     *           ***

Pre Chorus
G|--------------------------|-------------------------|
D|--------------------------|--------------------0----|
A|--------------5-5--5--5-5-|-7--7--7--3-----3--------|
E|-3-3--3--3-3--------------|-------------------------|
PM ***     ********     *******     *           

Chorus
G|-------------------|-----------------|------------------|---------------------|
D|-------------------|-----------------|------------------|---------------------|
A|-0-0-0-0-0-0-0-0-0-|-3-3-3-3-3-3-3-3-|-0-0-0-0--0-0-0-0-|-3-3-3-3-3-3-3-3-3-3-|
E|-------------------|-----------------|------------------|---------------------|

Solo (Bass plays this while guitar plays a note solo)
G|--------------------------|-------------------------|
D|--------------------------|-------------------------|
A|--------------5-5--5--5-5-|-7--7--7--3-----3--5-5---|
E|-3-3--3--3-3--------------|-------------------------|
PM ***     ********     *******     *           ***

G|--------------------------|-------------------------|
D|--------------------------|-------------------------|
A|--------------5-5--5--5-5-|-7--7--7--3-----3--5-5---|
E|-3-3--3--3-3--------------|-------------------------|
PM ***     ********     *******     *           ***

Outro
G|--------------------------|----------------------|
D|--------------------------|----------------------|
A|--------------5-5--5--5-5-|-7--7--7--3-----------|
E|-3-3--3--3-3--------------|----------------------|
PM ***     ********     *******     *

Order

Intro
Riff 1
Verse x8
Pre Chorus
Chorus
Riff 1 x2
Verse x8
Chorus
Riff 1 x1
Pre Chorus
Solo
Chorus
Verse x3
Outro

--------------------------------------------------------------------------------------
Green Day She
--------------------------------------------------------------------------------------

Intro/Verse
G|----------------------------------------------------------|
D|--4-4-4-4-4-4-4/6---------------------------4-4-4-4-4-----|
A|------------------4-4-4-4-4-4---2-2-2-2-2-2---------------|
E|------------------------------4---------------------------|

G|----------------------------------------------------------|
D|-4-4-4-4-4-4-4/6---------------------3h4--3h4--3h4--------|
A|-----------------4-4-4-4-4---2-2-2-2-----2----2-----------|
E|---------------------------4------------------------3-3-3-|

Pre Chorus
G|----------------------------------------------------------|
D|----------------------------------------------------------|
A|----------------------------------------------------------|
E|-2-2-2-2-2-2-2-2-2----------------------------------------|
Pm *****************

Chorus
G|--------------------------------------|----------------------------------------|
D|--------------------------------------|----------------------------------------|
A|-4-4-4-4-4-4-4-4--2-2-2-2-------------|-4-4-4-4-4-4-4-4--2-2-2-2---------------|
E|--------------------------2-2-2-2-2-2-|---------------------------2-2-2-2-2-2--|

G|---------------------|---------------------|-----------------------------------|
D|---------------------|---------------------|-----------------------------------|
A|-2-2-2-2-------------|-2-2-2-2-------------|-2-2-2-2------------4-4-4-4-4-4-4-4|
E|---------2-2-2-2-2-2-|---------2-2-2-2-2-2-|---------2-2-2-2-2-2---------------|

Verse 2
G|-----------------------------------------------------------------------------------|
D|-----------------------------------------------------------------------------------|
A|---------------------4-4-4-4-4-4-4-4-4-4--2-2-2-2-2-2-2-2-2-2--2-2-2-2-2-2-2-2-2-2-|
E|-2-2-2-2-2-2-2-2-2-2---------------------------------------------------------------|
PM   *****************   ******  *****   *    *********   *****    *****************

G|------------|---------------------------------------------------------------------|
D|------------|---------------------------------------------------------------------|
A|-----2------|--------------------4-4-4-4-4-4-4-4-4--2-2-2-2-2-2-2-2-2--2-2-2-2-2-2|
E|-2-2---2-2--|-2-2-2-2-2-2-2-2-2---------------------------------------------------|
PM ***   ***      *****   *****      *****   *****      *****   *****

G|----------------------------------------------------------------------------------|
D|----------------------------------------------------------------------------------|
A|-2-2-2-2-------2-2-x--------------------------------------------------------------|
E|-----------2-2-------2-2-2-2-2-2--------------------------------------------------|

Bridge
G|----------------------------------------------------------------------------------|
D|----------------------------------------------------------------------------------|
A|---------------------4-4-4-4-4-4-4-4-4-4--2-2-2-2-2-2-2-2-2-2-2-2--------2-2-x----|
E|-2-2-2-2-2-2-2-2-2-2------------------------------------------------2-2-----------|

G|-----------------|----------------------------------------------------------------|
D|-----------------|----------------------------------------------------------------|
A|-----------------|---------------------4-4-4-4-4-4-4-4-4-4--2-2-2-2-2-2-2-2-2-2-2-|
E|-2-2-2-2-2-2-2-2-|-2-2-2-2-2-2-2-2-2-2--------------------------------------------|

G|----------------------------------------------------------------------------------|
D|----------------------------------------------------------------------------------|
A|-----2-2-x------------------------------------------------------------------------|
E|-2-2--------2-2-2-2-2-2-2-2-------------------------------------------------------|

End
G|----------------------------------------------------------------------------------|
D|----------------------------------------------------------------------------------|
A|----------------------------------------------------------------------------------|
E|-2#-------------------------------------------------------------------------------|

Order

Intro/Verse
Pre Chorus
Chorus
Verse 2
Chorus
Bridge
Chorus

--------------------------------------------------------------------------------------
Green Day J.A.R. (Jason Andrews Relva)
--------------------------------------------------------------------------------------

Intro part 1
G|-0-0-7--0-----7-------7-------7--------|-0-0-7--0-----7-------7-------7--------|
D|----------0-0---0----------------------|----------0-0---0----------------------|
A|------------------0-0---0----0---0---0-|------------------0-0---0----0---0---0-|
E|---------------------------------------|---------------------------------------|

Intro part 2
G|------|------------------------------------------|
D|------|------------------------------------------|
A|-5----|----------------------------5-5-5---------|
E|----5-|-3-3-3-3--5-5-5-5--3-3-3-3---------5-5-5--|

G|-------------------------------------------------|
D|-------------------------------------------------|
A|----------------------------5-5-5----------------|
E|-3-3-3-3--5-5-5-5--3-3-3-3---------5-5-5---------|

Verse
G|-------------------------------------------------|
D|-------------------------------------------------|
A|----------------------------5-5-5----------------|
E|-3-3-3-3--5-5-5-5--3-3-3-3---------5-5-5---------|

Chorus
G|--------------------------------------------------------------------------------------|
D|--------------------------------------------------------------------------------------|
A|--------------------------5-5-5-5------------------------------------5-5-5-5----------|
E|-3-3-3-3-3-3-3-3-3-3-3-3-----------5-5-5-5--3-3-3-3-3-3-3-3-3-3-3-3-----------5-5-5-5-|

Chorus part 2
G|------------------------------------------------------------------------|
D|------------------------------------------------------------------------|
A|--------5-x-x---------5-x-x---------5-x-x---------5-x-x-----------------|
E|-3-x-x---------5-x-x---------3-x-x---------5-x-x------------------------|
	
Bridge  
G|-----------------------------------------------------------------------------------|
D|-----------------------------------------------------------------------------------|
A|-----------------------------------------5-5-5-5-5--4-4-4-4-4-4-4-4-4-4-4-4--5-----|
E|-3-3-3-3--2-2-2-2--5-5-5-5-5--4-4-4-4-4----------------------------------------5-5-|
PM *********************************************************************************

Solo (While guitar plays a note solo, bass plays this)
G|-----------------------------------------|-----------------------------------------|
D|-----------------------------------------|-----------------------------------------|
A|----------------------------5-5-5--------|----------------------------5-5-5--------|
E|-3-3-3-3--5-5-5-5--3-3-3-3---------5-5-5-|-3-3-3-3--5-5-5-5--3-3-3-3---------5-5-5-|

G|-----------------------------------------|-----------------------------------------|
D|-----------------------------------------|-----------------------------------------|
A|----------------------------5-5-5--------|----------------------------5-5-5--------|
E|-3-3-3-3--5-5-5-5--3-3-3-3---------5-5-5-|-3-3-3-3--5-5-5-5--3-3-3-3---------5-5-5-|

Outro Part 1 
G|-----------------------------------------|
D|-----------------------------------------|
A|-----4-----4------4-----4------4-----4---|
E|-2-2---2-2----4-4---4-4----2-2---2-2---4-|

Outro part 2 
G|-----------------------------------------------------
D|-----------------------------------------------------
A|-----4-----4------4-----4------4-----4-----4------4--
E|-2-2---2-2----4-4---4-4----2-2---2-2---4-4----4-4----

Order

Intro bass 
Intro
Verse x4
Chorus
Chorus part 2
Verse x4
Chorus
Chorus part 2 x2
Bridge
Solo 
Chorus
Chorus part 2 x2
Outro Part 1
Outro Part 2 x3


Lyrics

(Verse 1)
My friend drove off the other day
Now he's gone and all they say
Is you gotta live cos life goes on		
Now I see I'm mortal too
I can't live my life like you
Gotta live it up while life goes on

(Chorus)
And I think it's all right
That I do what I like
Cuz that's the way I wanna live			
So I give
And I'm still givin'

(Verse 2)
Now I wonder about my friend
If he gave all he could give
Did he live his life like I live mine?		
If you could see inside my head
Then you'd start to understand
The things I value in my heart

(Chorus)
And I think it's all right
That I do what I like
Cuz that's the way I wanna live			
So I give
And I'm still givin

(Bridge)
You know that
I know that					
You're watching me

(Solo)

(Chorus)
And I think it's all right
That I do what I like
Cuz that's the way I wanna live			
So I give
And I'm still givin

(Outro)
Gotta make a plan
Gotta do what's right
Can't run around in circles
If you wanna build a life			
But I don't wanna make a plan
For a day far away
While I'm young and while I'm able
All I wanna do is.....



--------------------------------------------------------------------------------------
Green Day Geek Stink Breath
--------------------------------------------------------------------------------------
Tuning Standard

Intro (guitar only - no bass)

Verse
G|--------|    |---------------|     |-------------------|
D|--------|    |---------------| x11 |-------------------|
A|--------|    |---------------|     |-------------------|
E|--3-x-3-|    |--1-1-1--3-3-3-|     |--3-3-3-3-3-3------|
             PM   * *    * *    

Chorus
G|----------------|     |----------------|     |-----------------------------|
D|----------------| x4  |----------------| x3  |-----------------------------|
A|-1-1-1----------|     |----------------|     |-----------------------------|
E|--------1-1-3-1-|     |-3-3-3--1-1-1-1-|     |-3-3-3-3-3-3-3-3-------------|

Order

Intro 
Verse 1 
Chorus
Verse 2 
Chorus
Intro 
Verse 3
Chorus
Intro
And end on 

G|-------|
D|-------|
A|-------|
E|---3---|


--------------------------------------------------------------------------------------
Green Day Brain Stew
--------------------------------------------------------------------------------------

Riff 1
G|-----------------------------------------------------------------------------|
D|-----------------------------------------------------------------------------|
A|-----------------------------------------------------------------------------|
E|--5-5--3-3--2-2--1-1--0-0----------------------------------------------------|
PM  * *  * *  * *  * *  * *

Riff 2 (the same as riff 1 but without palm mute.)
G|-----------------------------------------------------------------------------|
D|-----------------------------------------------------------------------------|
A|-----------------------------------------------------------------------------|
E|--5-5--3-3--2-2--1-1--0-0----------------------------------------------------|

Riff 3
G|-----------------------------------------------------------------------------|
D|-----------------------------------------------------------------------------|
A|-----------------------------------------------------------------------------|
E|--5-5-x-x-x-x-x-x-3-3-x-x-x-x-x-x-2-2-x-x-x-x-x-x-1-1-x-x-0-0----------------|

Order

Intro   (riff 1 x2)
Verse 1 (riff 1 x4)
Chorus  (riff 2 x2)
Verse 2 (riff 2 x4)
Chorus  (riff 3 x2)
Verse 3 (riff 2 x4)
Chorus  (riff 3 x2)
Verse 2 (riff 3 but lightly scratch this time x 4)
End     (riff 2 x8)


--------------------------------------------------------------------------------------
Green Day Jaded
--------------------------------------------------------------------------------------

Intro
G|-----------------------------------------------------------------------------|
D|-----------------------------------------------------------------------------|
A|-------------4---------------------------------------------------------------|
E|-4-4-4\2-2-2-----------------------------------------------------------------|

Verse 
G|----------------|     |------------------------------------------------------|
D|----------------| x7  |------------------------------------------------------|
A|-------------4--|     |------------------------------------------------------|
E|-4-4-4\2-2-2----|     |-4-4-4-4-4-4------------------------------------------|

Chorus
G|-----------------------------------------------------------------------------|
D|-----------------------------------------------------------------------------|
A|-----------4-4-4-4-4-4-4-4-4-4-4-4--------------4--------------4--4-4-4-4-4--|
E|--4-4-4-4---------------------------4-4-4\2-2-2----4-4-4\2-2-2---------------|

G|-----------------------------------------------------------------------------|
D|-----------------------------------------------------------------------------|
A|-4-4-4-4-4-4-4-6-6-6-6-6-6-6-6-6-6-6-6---------------------------------------|
E|-----------------------------------------------------------------------------|

Order

Intro (x2 with one guitar then x2 with band)
Verse 1
Chorus
Verse 2
Chorus
Verse chords x4 (with no lyrics)
Chorus
Verse chords x4 
End on 

G|--------|
D|--------|
A|--------|
E|---4----|


--------------------------------------------------------------------------------------
Green Day Walking Contradiction
--------------------------------------------------------------------------------------

Intro
G|-------------------|-----------------|------------------|-----------------|
D|-------------------|-----------------|------------------|-----------------|
A|-------------------|-----------------|------------------|-----------------|
E|-5---5-5-5-5-5-5-5-|-5-5-5-5-5-5-5-5-|-5--5-5-5-5-5-5-5-|-5-5-5-5-5-5-5-5-|
PM     *******************************

Verse
G|---------------------|-----------------|-------------------|--------------|
D|---------------------|-----------------|-------------------|--------------|
A|----------5--5-------|-----------------|-------5--5--------|--------------|
E|-5----5---------0--3-|-3-3/5--5-5-5--5-|-5--0--------0---3-|-3—3/5--5-5-5-|

Chorus
G|------------------|--------------------|-------------------|--------------|
D|------------------|--------------------|-------------------|--------------|
A|-5--5-------------|--------------------|-------------------|--------------|
E|--------0--3—-3/5-|-(5)--5-5-5-5-5-5-5-|--------0---3--3/5-|-(5)--5-5-5-5-|

G|--------------------------------------------------------------------------|
D|--------------------------------------------------------------------------|
A|--------------------------------------------------------------------------|
E|-5-5-5--------------------------------------------------------------------|

Outro
G|----------------|-------------------|-----------------|-------------------|
D|----------------|-------------------|-----------------|-------------------|
A|------5--5------|-------------------|-----------------|-------------------|
E|-5-0--------0-3-|-(3)--3/5--5-5-5-5-|-5--x-------0--3-|-(3)--3--0-0-0-x-x-|

G|----------------|-------------------|-----------------|-------------------|
D|----------------|-------------------|-----------------|-------------------|
A|------5--5------|-------------------|-------5--5------|-------------------|
E|-5-5--------0-3-|-(3)--3/5--5-5-5-5-|-5--5-------0-3--|-(3)-3--5--5-------|

Order

Intro
Verse x9
Chorus x2
Verse x5
Chorus x4
Outro


--------------------------------------------------------------------------------------
Green Day Stuck with me
--------------------------------------------------------------------------------------

Intro
G|---------------------------------------------------------------------------|
D|---------------------------------------------------------------------------|
A|-7-7-7-7-7-7-7-7-7---------------------------------------------------------|
E|---------------------9--7--5-5-5-5-5-5-5-5-5-5-5-5-5-----------------------|

Verse
G|---------------------------------------------------------------------------|
D|---------------------------------------------------------------------------|
A|-7-7-7-7-7-7-7-7-7-7-------------------------------------------------------|
E|----------------------7-7-7-7-7-7-7-7-7--5-5-5-5--7-7-7-7-7-7--5-5-5-5-----|
PM   *****************

G|---------------------------------------------------------------------------|
D|---------------------------------------------------------------------------|
A|--------------7-7-7-7-7-7-7-7-7-7------------------------------------------|
E|-7-7-7-7-7-7-----------------------7-7-7-7-7-7-7-7-7--5-5-5-5--7-7-7-7-7-7-|

G|---------------------------------------------------------------------------|
D|---------------------------------------------------------------------------|
A|---------------------------------------------------------------------------|
E|-5-5-5-5--7-7-7-7-7-7------------------------------------------------------|

Chorus
G|-----------------------------------------------------(-x3-)----------------|
D|---------------------------------------------------------------------------|
A|-4--4-4-4-4-4-4-------7-7-7-7-7-7-7-7-7-7-7-7-7-7--------------------------|
E|-----------------5-5----------------------------------------5-5-5-5--7-7-7-|

G|---------------------------------------------------------------------------|
D|---------------------------------------------------------------------------|
A|--------7-7-7-7-7-7-7-7-7-7-7-7--------------------------------------------|
E|-7-7-7---------------------------------------------------------------------|

Bridge
G|---------------------------------------------------------------------------|
D|---------------------------------------------------------------------------|
A|---------------------------------------------------------------------------|
E|-1-1--2-2--3-3-4-4-4-4-3-3--2-2--1-1-1-1--2-2--3-3--4-4-4-4--3-3--2-2--1-1-|
PM *************************************************************************

Order

Intro x2
Verse 1
Chorus
Verse 2 (don't PM the first chords)
Chorus
Intro x4 
Bridge
Chorus

Lyrics

(Verse 1) 
I'm not part of your elite
I'm just alright
Class structures waving colours
Bleeding from my throat
Not subservient to you
I'm just alright
Downclassed by the powers that be
Give me loss of hope

(Chorus)
Cast out, buried in a hole
Struck down, forcing me to fall
Destroyed, giving up the fight		
Well I know I'm not alright

(Verse 2)
What's ny price and will you pay it?
If it's alright
Take it from my dignity
Waste it till it's dead
Throw me back into the gutter
Cuz it's alright
Find another pleasure fucker
Drag him down to hell

(Chorus)
(Bridge)
(Chorus)


--------------------------------------------------------------------------------------
Green Day Hitchin' a Ride
--------------------------------------------------------------------------------------
In the main riff the chord change sounds slightly like a slide but in fact its not!
Just a quick chord change and the pick ups just pick up the sound of your hand moving
fast OKAY!


Violin Intro (transcribed For Guitar)
e|-----------------------------------------------------------|
B|------3/4--6b~~-----7--6—4--3b4----------------------------|
G|-4/5---------------------------5~~-------------------------|
D|-----------------------------------------------------------|
A|-----------------------------------------------------------|
E|-----------------------------------------------------------|

Main Riff 
G|------------------------|------------------------|
D|------------------------|------------------------|
A|------------------------|------------------------|
E|-7-7--5-5--4-4--3-3-3-3-|-7-7--5-5--4-4--3-3-3-3-|
PM ***********************************************

Pre Chorus 
G|------------------------------|
D|------------------------------|
A|------------------------------|
E|-0-0-0-0--2-2-2-2-------------|

Chorus
G|------------------------|------------------------|------------------------|
D|------------------------|------------------------|------------------------|
A|------------------------|------------------------|------------------------|
E|-7-7--5-5--4-4--3-3-3-3-|-7-7--5-5--4-4--3-3-3-3-|-7-7--5-5--4-4--3-3-3-3-|

G|----------------(drum fill)--|
D|-----------------------------|
A|-----------------------------|
E|-7-7--5-5--4-4---------------|

Chorus 2
G|------------------------|------------------------|------------------------|
D|------------------------|------------------------|------------------------|
A|------------------------|------------------------|------------------------|
E|-7-7--5-5--4-4--3-3-3-3-|-7-7--5-5--4-4--3-3-3-3-|-7-7--5-5--4-4--3-3-3-3-|

G|------------------------------------|------------------|------------------------|
D|------------------------------------|------------------|------------------------|
A|------------------------------------|------------------|------------------------|
E|-7-7-7-7--5-5-5-5--4-4-4-4--3-3-3-3-|-0-0-0-0--2-2-2-2-|-7-7--5-5--4-4--3-3-3-3-|

G|------------------------------|
D|------------------------------|
A|------------------------------|
E|-0-0-0-0--2-2-2-2-------------|

Pre Solo
G|------------------------|------------------------|------------------------|
D|------------------------|------------------------|------------------------|
A|------------------------|------------------------|------------------------|
E|-7-7--5-5--4-4--3-3-3-3-|-7-7--5-5--4-4--3-3-3-3-|-7-7--5-5--4-4--3-3-3-3-|

G|------------------------|------------------------|
D|------------------------|------------------------|
A|------------------------|------------------------|
E|-7-7--5-5--4-4--3-3-3-3-|-7-7--5-5--4-4--3-3-3-3-|

Solo (Bass plays this while Billie Joe plays an octave solo)
G|-------------------------|-------------------------|-------------------------|
D|-------------------------|-------------------------|-------------------------|
A|-------5-5---------------|-------5-5---------------|-------5-5---------------|
E|--7-7-------3-3--2-2-2---|--7-7-------3-3--2-2-2---|--7-7-------3-3--2-2-2---|
   
G|-------------------------|-------------------------|-------------------------|
D|-------------------------|-------------------------|-------------------------|
A|-------5-5---------------|-------5-5---------------|-------5-5---------------|
E|--7-7-------3-3--2-2-2---|--7-7-------3-3--2-2-2---|--7-7-------3-3--2-2-2---|
   
G|-------------------------|-------------------------|-------------------------|
D|-------------------------|-------------------------|-------------------------|
A|-------5-5---------------|-------5-5---------------|-------5-5---------------|
E|--7-7-------3-3--2-2-2---|--7-7-------3-3--2-2-2---|--7-7-------3-3--2-2-2---|
   
G|-------------------------|-------------------------|-------------------------|
D|-------------------------|-------------------------|-------------------------|
A|-------5-5---------------|-------5-5---------------|-------5-5---------------|
E|--7-7-------3-3--2-2-2---|--7-7-------3-3--2-2-2---|--7-7-------3-3--2-2-2---|

G|-------------------------|
D|-------------------------|
A|-------5-5---------------|
E|--7-7-------3-3--2-2-2---|
   
Post Solo
G|------------------|-------------------------|------------------|
D|------------------|-------------------------|------------------|
A|------------------|-------------------------|------------------|
E|-0-0-0-0--2-2-2-2-|--7-7--5-5--4-4--3-3-3-3-|-0-0-0-0--2-2-2-2-|

Outro
G|-------------------------|-------------------------|-------------------------|
D|-------------------------|-------------------------|-------------------------|
A|-------5-5---------------|-------5-5---------------|-------5-5---------------|
E|--7-7-------3-3--2-2-2---|--7-7-------3-3--2-2-2---|--7-7-------3-3--2-2-2---|

G|-------------------------|-------------------------|-------------------------|
D|-------------------------|-------------------------|-------------------------|
A|-------5-5---------------|-------5-5---------------|-------5-5---------------|
E|--7-7-------3-3--2-2-2---|--7-7-------3-3--2-2-2---|--7-7-------3-3--2-2-2---|

G|-------------------------|-------------------------|-------------------------|
D|-------------------------|-------------------------|-------------------------|
A|-------5-5---------------|-------5-5---------------|-------5-5---------------|
E|--7-7-------3-3--2-2-2---|--7-7-------3-3--2-2-2---|--7-7-------3-3--2-2-2---|


Order

Violin Intro
Main Riff x 5
Pre chorus
Chorus
Main Riff x 4
Pre Chorus
Chorus 2
Pre Solo
Solo
Post Solo
Outro



--------------------------------------------------------------------------------------
Green Day Good Riddance (Time of your life)
--------------------------------------------------------------------------------------
This is all played by guitar but I will tab it anyway, for ever the hell needs it.

Tuning: Standard

Note: Throughout the song every time you strum chords you should down strum then up
strum then down strum then up strum...etc.

Chords used:

Gmodal   :320033
C9       :032033
Dsus4    :000233
Em7      :022033

Intro
e|------3------------3------------------------------------|
B|---------3------------3---------------------------------|
G|--------------------------------------------------------|
D|---0------------0---------------------------------------|
A|--------------------------------------------------------|
E|-3------------3-----------------------------------------|

1st Verse

Rhy fig 1
|-------3--------------3--------------3------------3------|    
|----------3-------------3--------------3------------3----| 
|-------------0------------0--------------0-----2------2--|    
|---0--------------0--------------2-----------0-----------|  x4
|------------------------------3--------------------------|  
|-3--------------3----------------------------------------|

Rhy fig 2
|------3------------3-------------3------------3----------|    
|--------3------------3-------------3------------3--------|
|----------0-----2------2-------------0------------0------|  x2      
|---2----------0---------------2------------0-------------|      
|----------------------------3----------------------------|   
|-0---------------------------------------3---------------|  

1st Chorus 

|------3------------3------------3-----------3-----------------3-----------3-----------|
|--------3------------3------------3-----------3-----------------3-----------3---------|
|----------0------------0------------0-----------0-----------------0-----2-----2-------|
|---2------------0------------2-----------0-----------------2----------0---------------|
|--------------------------------------------------------------------------------------|
|-0------------3------------0-----------3-----------------0----------------------------|


Bridge (the bit after the chorus where there is no lyrics) the rhythm here is hard to pick up but listen to the CD and you'll get it sooner or later
e|-3-3-3-3-3-3-3-3-3-3--3-3-3-3-3--3-3-3-3-3---------------------------------|
B|-3-3-3-3-3-3-3-3-3-3--3-3-3-3-3--3-3-3-3-3---------------------------------|
G|-0-0-0-0-0-0-0-0-0-0--0-0-0-0-0--1-1-1-1-1---------------------------------|
D|-0-0-0-0-0-0-0-0-0-0--2-2-2-2-2--0-0-0-0-0---------------------------------| x2
A|-2-2-2-2-2-2-2-2-2-2--3-3-3-3-3--0-0-0-0-0---------------------------------|
E|-3-3-3-3-3-3-3-3-3-3--0-0-0-0-0--0-0-0-0-0---------------------------------|

2nd Verse (I know what you're thinking it's the same as the bridge but it's not the rhythm is completely different here

e|-3-3-3-3-3--3-3-3-3-3--3-3-3-3-3--3-3-3-3-3-------------------|
B|-3-3-3-3-3--3-3-3-3-3--3-3-3-3-3--3-3-3-3-3-------------------|
G|-0-0-0-0-0--0-0-0-0-0--0-0-0-0-0--1-1-1-1-1-------------------| x2
D|-0-0-0-0-0--0-0-0-0-0--2-2-2-2-2--0-0-0-0-0-------------------|
A|-2-2-2-2-2--2-2-2-2-2--3-3-3-3-3--0-0-0-0-0-------------------|
E|-3-3-3-3-3--3-3-3-3-3--0-0-0-0-0--0-0-0-0-0-------------------|

e|-3-3-3-3-3--3-3-3-3-3--3-3-3-3-3--3-3-3-3-3-------------------|
B|-3-3-3-3-3--3-3-3-3-3--3-3-3-3-3--3-3-3-3-3-------------------|
G|-0-0-0-0-0--1-1-1-1-1--0-0-0-0-0--0-0-0-0-0-------------------| x2
D|-2-2-2-2-2--0-0-0-0-0--2-2-2-2-2--0-0-0-0-0-------------------|
A|-2-2-2-2-2--0-0-0-0-0--3-3-3-3-3--2-2-2-2-2-------------------|
E|-0-0-0-0-0--0-0-0-0-0--0-0-0-0-0--3-3-3-3-3-------------------|

2nd chorus
I have called this second chorus because you now strum the chords and not pick them. Each chord e|-3-3-3-3--3-3-3-3-3-3-|--3-3-3-3--3-3-3-3-3-3-|--3-3-3-3-|--3-3-3-3-3-3-----|
B|-3-3-3-3--3-3-3-3-3-3-|--3-3-3-3--3-3-3-3-3-3-|--3-3-3-3-|--3-3-3-3-3-3-----|
G|-0-0-0-0--0-0-0-0-0-0-|--0-0-0-0--0-0-0-0-0-0-|--0-0-0-0-|--1-1-1-1-1-1-----|
D|-2-2-2-2--0-0-0-0-0-0-|--2-2-2-2--0-0-0-0-0-0-|--2-2-2-2-|--0-0-0-0-0-0-----|
A|-2-2-2-2--2-2-2-2-2-2-|--2-2-2-2--2-2-2-2-2-2-|--2-2-2-2-|--0-0-0-0-0-0-----|
E|-0-0-0-0--3-3-3-3-3-3-|--0-0-0-0--3-3-3-3-3-3-|--0-0-0-0-|--0-0-0-0-0-0-----|


Interlude (the bit with no lyrics and the violins playing in the background) 
Pay close attention to the CD for the rhythm here because some time's Billie
will play a series of these chords fast and then slow again. The rhythm is all over the place

e|-3-3-3-3-3--3-3-3-3-3--3-3-3-3-3--3-3-3-3-3-------------------|
B|-3-3-3-3-3--3-3-3-3-3--3-3-3-3-3--3-3-3-3-3-------------------|
G|-0-0-0-0-0--0-0-0-0-0--0-0-0-0-0--1-1-1-1-1-------------------| x4
D|-0-0-0-0-0--0-0-0-0-0--2-2-2-2-2--0-0-0-0-0-------------------|
A|-2-2-2-2-2--2-2-2-2-2--3-3-3-3-3--0-0-0-0-0-------------------|
E|-3-3-3-3-3--3-3-3-3-3--0-0-0-0-0--0-0-0-0-0-------------------|

e|-3-3-3-3-3---3-3-3-3-3---3-3-3-3-3--3-3-3-3-3-------------------|
B|-3-3-3-3-3---3-3-3-3-3---3-3-3-3-3--3-3-3-3-3-------------------|
G|-0-0-0-0-0---1-1-1-1-1---0-0-0-0-0--0-0-0-0-0-------------------|
D|-2-2-2-2-2---0-0-0-0-0---3-3-3-3-3--0-0-0-0-0-------------------| x2
A|-2-2-2-2-2---0-0-0-0-0---2-2-2-2-2--2-2-2-2-2-------------------|
E|-0-0-0-0-0---0-0-0-0-0---0-0-0-0-0--3-3-3-3-3-------------------|

And then play:

2nd Chorus
1st Chorus
Bridge
1st Chorus x2


And end on this
e|------3------------3---------------------3------------------------|
B|--------3------------3-------------------3------------------------|
G|----------0------------0--------2--------0------------------------|
D|---2------------0-----------------0------0------------------------|
A|------------------------------------0----2------------------------|
E|-0------------3--------------------------3------------------------|

Lyrics

Intro (no lyrics)

(1st Verse)
Another turning point a fork stuck in the road
Time grabs you by the wrist directs you where to go
So the make the best of this test and don't ask why
Its not a question but a lesson learned in time

(Chorus)
Its something unpredictable, and in the end that's right
I hope you had the time of your life

Bridge (no Lyrics)

(2nd Verse)
So take the photographs and still frames in your mind
Hang it on a shelf in good health and good time
Tattoos of memories and dead skin on trial
For what it's worth it was worth all the while

(Chorus)
Its something unpredictable, and in the end that's right
I hope you had the time of your life

Interlude (no lyrics)

(Chorus)
Its something unpredictable, and in the end that's right
I hope you had the time of your life

(Chorus)
Its something unpredictable, and in the end that's right
I hope you had the time of your life

Bridge (no Lyrics)

(Chorus)
Its something unpredictable, and in the end that's right
I hope you had the time of your life

(Chorus) (w/no lyrics)



--------------------------------------------------------------------------------------
Green Day Redundant
--------------------------------------------------------------------------------------

--------------------------------------------------------------------------------------
Green Day Nice guys finish last
--------------------------------------------------------------------------------------
Intro
G|--------------|--------------|--------------|--------------|----------------|
D|--------------|--------------|--------------|--------------|----------------|
A|----7-7-7-7-7-|--------------|----7-7-7-7-7-|--------------|----7-7-7-7-7---|
E|-5------------|-5--7-7-7-7-7-|-5------------|-5--7-7-7-7-7-|-5--------------|

G|--------------|--------------|--------------|-------------------------------|
D|--------------|--------------|--------------|-------------------------------|
A|--------------|----7-7-7-7-7-|--------------|---------------7---------------|
E|-5--7-7-7-7-7-|-5------------|-5--7-7-7-7-7-|-5---0-----5-------------------|

Verse part 1 
G|-----------------|-----------------|-----------------|-----------------|
D|-----------------|-----------------|-----------------|-----------------|
A|-7-7-7-7-7-7-7-7-|-7-7-7-7-7-7-7-7-|-7-7-7-7-7-7-7-7-|-7-7-7-7-7-7-7-7-|
E|-----------------|-----------------|-----------------|-----------------|

G|-----------------|-----------------|-----------------|-----------------|
D|-----------------|-----------------|-----------------|-----------------|
A|-----------------|-----------------|-7-7-7-7-7-7-7-7-|-7-7-7-7-7-7-----|
E|-7-7-7-7-7-7-7-7-|-7-7-7-7-7-7-7-7-|-----------------|-------------5---|

Verse part 2
G|-------|---------------------------------|----------------------------------|
D|-------|---------------------------------|----------------------------------|
A|----7--|-7-7-7-7-7-7-7-7-7-7-7-7-7-7-7-7-|-7-7-7-7-7-7-7-7-7-7-7-7-7-7-7-7--|
E|-5-----|---------------------------------|----------------------------------|
PM         *****************************************************************

e|-------------|---------------------------------|----------------------------|
B|-------------|---------------------------------|----------------------------|
G|-------------|---------------------------------|----------------------------|
D|-------------|---------------------------------|----------------------------|
A|-7-7-7-7-7-7-|---------------------------------|-7-7-7-7-7-7-7-7-7-7--------|
E|-------------|-7-7-7-7-7-7-7-7-7-7-7-7-7-7-7-7-|----------------------------|
PM *********************************************

Pre Chorus
G|-----------------|---------------------|-----------------|---------------------|
D|-----------------|---------------------|-----------------|---------------------|
A|-----------------|-7-7-7-7-7-7-7-7-7-7-|-----------------|-7-7-7-7-7-7-7-7-7-7-|
E|-5-5-5-5-5-5-5-5-|---------------------|-5-5-5-5-5-5-5-5-|---------------------|

G|-----------------|---------------------|-----------------|---------------------|
D|-----------------|---------------------|-----------------|---------------------|
A|-----------------|-7-7-7-7-7-7-7-7-7-7-|-----------------|-7-7-7-7-7-7-7-7-7-7-|
E|-5-5-5-5-5-5-5-5-|---------------------|-5-5-5-5-5-5-5-5-|---------------------|

Chorus
G|--------------------------|--------------------------|--------------------------|
D|--------------------------|--------------------------|--------------------------|
A|----------0-0-0-0-0-0-0-0-|----------0-0-0-0-0-0-0-0-|----------0-0-0-0-0-0-0-0-|
E|-0-0-0-0------------------|-0-0-0-0------------------|-0-0-0-0------------------|

G|----------------------------------------------------------------------------|
D|----------------------------------------------------------------------------|
A|-2-2-2-2-2-2-2-2-2-2-2-2-2-2-2-2--------------------------------------------|
E|----------------------------------------------------------------------------|

Bridge
G|--------------|--------------|--------------|--------------|----------------|
D|--------------|--------------|--------------|--------------|----------------|
A|----7-7-7-7-7-|--------------|----7-7-7-7-7-|--------------|----7-7-7-7-7---|
E|-5------------|-5--7-7-7-7-7-|-5------------|-5--7-7-7-7-7-|-5--------------|

G|--------------|--------------|---------------------------------------------|
D|--------------|--------------|---------------------------------------------|
A|--------------|----7-7-7-7-7-|---------------------------------------------|
E|-5--7-7-7-7-7-|-5------------|-5-5-5-5-5--4--2-2-2-2-2--5--7-7-7-7-7-7-7-7-|

G|----------------------------------------------------------------------------|
D|----------------------------------------------------------------------------|
A|----------------------------------------------------------------------------|
E|-7-7-7-7-7-7-7--------------------------------------------------------------|

Outro
G|----------------------------------------------------------------------------|
D|----------------------------------------------------------------------------|
A|-----------7----------------------------------------------------------------|
E|-5--0---5-------------------------------------------------------------------|

Order

Intro
Verse part 1 (no guitar - just bass)
Verse part 2
Pre Chorus
Chorus 
Verse part 2 x2
Pre Chorus
Chorus x2
Bridge
Chorus x2
Outro

--------------------------------------------------------------------------------------
Green Day Minority
--------------------------------------------------------------------------------------
Tuning: Standard

Intro (Played by guitar - no bass)

Chorus
Only play the scratches on the first time
G|--------------------------------------------------------|
D|--------------------------------------------------------|
A|-x-x-3-3-3-3--------------------------------------------|
E|--------------1-1-1-1--3-3-3-3--1-1-1-1-----------------|
   
Verse
G|-------------------------------------|-------------------------------------|
D|---2-2-----------3-3-2-2-0-0---------|---2-2-------------------------------|
A|-3----------2-2--------------3-3-2-2-|-3----------2-2----------------------|
E|--------3-3--------------------------|--------3-3------1-1--0-0--1-1—-3-3--|
 
G|-------------------------------------|-------------------------------------|
D|---2-2-----------3-3-2-2-0-0---------|---2-2---3-3--2-2--------------------|
A|-3----------2-2--------------3-3-2-2-|-3--------------------2-2-2-3--------|
E|--------3-3--------------------------|------------------3-3--------—-------|
   
Bridge
G|-----------------------------------|---------------------------------------|
D|---------------2--3-3-3-3----------|---------------------------------------|
A|-0-0-0-0-0-0-0-------------3-3-3-3-|-0-0-0-0-0-0-0-------------------------|
E|-----------------------------------|----------------0--1-1-1-1--3-3-3-3----|

G|-----------------------------------|----------------------------------------------|
D|---------------2--3-3-3-3----------|----------------------------------------------|
A|-0-0-0-0-0-0-0-------------3-3-3-3-|-0-0-0-0-0-0-0------------------------------2-|
E|-----------------------------------|---------------1--3-3-x-x-3-3-x-x-3-3-3-3-3---|

Outro (Played by guitar - no bass)


Intro  (acoustic guitar)
Chorus x4
Verse
Chorus x4
Bridge
Verse 
Chorus x4
Bridge 
Verse (again with accordion)
Chorus x4
Chorus x4 (while Billie plays a not solo)
Outro (acoustic guitar)


--------------------------------------------------------------------------------------
Green Day Warning
--------------------------------------------------------------------------------------
Tuning: Standard

Main Riff
G|--------------------------------------------|
D|---------0-0-2-4--5-5--4-2-0-0--------------|
A|-0-0-2-4------------------------2-4---------|
E|--------------------------------------------|

Fill 1  (the bit on the second verse where Billie sings 'or shut up and be 
a victim of authority'
G|--------------------------------------------|
D|--------------------------------------------|
A|--------------------------------------------|
E|--5-5--5-5--7-------------------------------|

Mini Bass solo
G|--------------------------------------------|
D|--------------------------------------------|
A|-----0-4-0-------0-0-4-0--------------------|
E|------------3-0----------3-0----------------|

Order

Main riff             x16
Mini bass solo        x2
Main riff             x19
Mini bass solo        x6
Main riff             x3
Fill 1                x1
Main riff             x9


--------------------------------------------------------------------------------------
Green Day Waiting
--------------------------------------------------------------------------------------
Tuning Standard

Intro (Guitar plays this - no bass or drums)




Verse  
G|---------------------------------------------------------------|
D|---------------------------------------------------------------|
A|---------------4-4-4-4-4-4-4----------------4-4-4-4-4-4-4------|  
E|-4-4-4-4-4-4------------------6-6-6-6-6-6----------------------|

Chorus
G|---------------------------------------------------------------|
D|---------------------------------------------------------------|
A|---------------------------------------------------------------|
E|-1-1-1-1-1-1---0-0-0-0-0-0---4-4-4-4-4-4---6-6-6-6-6-6-6-------|

Bridge
G|---------------------------------------------------------------|
D|---------------------------------------------------------------|
A|-4-4-4-----------4-4-4----(Drum Fill)--------------------------|
E|---------4-4-4-------------------------------------------------|

Bridge 2
G|--------------------------------------|--------------------------------|
D|--------------------------------------|--------------------------------|
A|-4-4-4-------4-4-4-------4---4---(x3)-|-4-4-4-------4---6-6-6-6-6-6-6--|
E|-------4-4-4-------4-4-4---4---4------|-------4-4-4---4----------------|

Solo (Bass plays this while Billie plays a note solo
G|---------------------------------------------------------------|
D|---------------------------------------------------------------| 
A|---------------4-4-4-4-4-4-4----------------4-4-4-4-4-4-4------| 
E|-4-4-4-4-4-4------------------6-6-6-6-6-6----------------------|

G|---------------------------------------------------------------|
D|---------------------------------------------------------------| 
A|---------------4-4-4-4-4-4-4----------------4-4-4-4-4-4-4------| 
E|-4-4-4-4-4-4------------------6-6-6-6-6-6----------------------|

G|---------------------------------------------------------------|
D|---------------------------------------------------------------|
A|---------------------------------------------------------------|
E|-1-1-1-1-1-1---0-0-0-0-0-0---4-4-4-4-4-4---6-6-6-6-6-6-6-------|


Play Bridge 2 again


Interlude (played by guitar - no bass or drums)
 

Play verse again but only three times not four

Outro
G|---------------------------------------------------------------|
D|---------------------------------------------------------------|
A|---------------4-4-4-4-4-4-4----------------4~~~---------------|
E|-4-4-4-4-4-4------------------6-6-6-6-6-6----------------------|


Order

Intro (Guitar plays this - no bass or drums)
Verse x4
Chorus
Bridge
Verse x4
Chorus
Bridge 2
Solo
Bridge 2
Interlude (played by guitar - no bass or drums)
Verse x3
Outro


------------------------------------------------------------------------------------
Green Day Macy's Day Parade
------------------------------------------------------------------------------------
Tuning: Standard
Note: very simple song I think this tab is right it only took 2mins to write it
So it might have one or two errors

Verse
G|--------------------------------------------------------------------|
D|--------------------------------------------------------------------|
A|--2-2-x-2-2-2-x-2-2-2-x-2-2-2-x-------------------------------------|
E|--------------------------------4-4-x-4-4-4-x-4-4-4-x-4-4-4-x-------|

G|--------------------------------------------------------------------|
D|--------------------------------------------------------------------|
A|------------------------------2-2-x-2-2-2-x-2-2-2-x-2-2-2-x---------|
E|--0-0-x-0-0-0-x-2-2-x-2-2-2-x---------------------------------------|

Chorus
G|--------------------------------------------------------------------|
D|--------------------------------------------------------------------|
A|--7-7-x-7-7-7-x-7-7-7-x-7-7-7-x-9-9--x-9-9-9--x-9-9-9--x-9-9-9--x---|
E|--------------------------------------------------------------------|

G|--------------------------------------------------------------------|
D|--------------------------------------------------------------------|
A|--7-7-x-7-7-7-x-7-7-7-x-7-7-7-x-------------------------------------|
E|--------------------------------2-2-x-2-2-2-x-2-2-2-x-2-2-2-x-------|

Bridge ('Because I'm thinking about a brand new hope...')
G|--------------------------------------------------------------------|
D|--------------------------------------------------------------------|
A|--------------------------------------------------------------------|
E|--7-7-6-6-4-4-2-2-0-0-0-0-0-0-0-0-2-2-2-2-2-------------------------|

Order

Verse
Chorus
Verse
Chorus
Bridge
Verse
Chorus
Bridge
Bridge
Bridge
Verse (only the first top bar)


Leave a comment and/or rate this tab if you like it or not. Cheers much
comments
print report bad tab
15 comments total. Showing first comments.
0 reply
saturns_bassman wrote on December 15 2004, 12:00 am

this tabb is ***!!!

0 reply
cocox2 wrote on December 15 2004, 12:00 am

saturns_bassman, you dont know anything, you can play this basstabs with your band, and it sounds pretty good, good job liam!!!

0 reply
saturns_bassman wrote on December 27 2004, 12:00 am

what the *** man u make no sense and the time of your life tab blows ass its a bass tab not a guitar tab!!

I want to post or [tab]
guest
You may want to rate the tab now too:
select rating
Please do not post tabs as comments. Select "correction" instead!