Oops, an error
Loading. Please wait.

International Superhits Tab

ver2
ver2

Album

More versions @911Tabs.com
7,204 views 14 this week
10 commentsread comments
1 2 3 4 5
accurate
x 11
Autoscroll
+/-
esc
set tempo
stop
Contributor
Hey! There's an official Ultimate Guitar app which is ideal
for learning songs when you're away from computer. Get the app
WARNING: You are trying to view
                                    content from Ultimate-Guitar.com
                                    in an unauthorized application,
                                    which is prohibited.

                                    Please use an official Ultimate
                                    Guitar Tabs application for iPhone,
                                    iPad or Android to access legitimate
                                    chords, guitar, bass, and drum tabs
                                    from Ultimate-Guitar.com database.

                                    Type "ultimate guitar tabs" in Apple
                                    App Store's or Android Market's
                                    search to find the application.
Green Day International Superhits album tab
Tabbed by Liam
Email: guitar_rocker_47@hotmail.com
Tuning for most of the album is half a step down unless otherwise stated

|Updated version 2|

Second update guys! Now im 100% sure on the accuracy on these tabs –ive put a lot
of work into this and I personally think it sounds perfect

Note: if you insert this tab into Microsoft word and it looks weird where the tab
overlaps it’s self just go on file, page set-up then click on the margins tab and
adjust to this: top = 0.32cm, bottom = 0.51cm,Left and right = 3cm. The tab should
now look in proportion, if it doesn’t or you don’t understand leave a comment 
Please rate this, guys!

1. Maria
2. Pop Rocks & Coke
3. Longview
4. Welcome To Paradise
5. Basket Case
6. When I Come Around
7. She
8. J.A.R. (Jason Andrews Relva)
9. Geek Stink Breath
 10. Brain Stew 
 11. Jaded
 12. Walking Contradiction
 13. Stuck With Me
 14. Hitchin a Ride
 15. Good Riddance (Time Of Your Life)
 16. Redundant
 17. Nice Guys Finish Last
 18. Minority
 19. Warning
 20. Waiting
 21. Macy’s Day Parade

--------------------------------------------------------------------------------------
Green Day Maria
--------------------------------------------------------------------------------------

Verse (things in brackets played by Bass)
E|----------------------------------------------------------------|
B|----------------------------------------------------------------|
G|--7-7-7--2-2----------------------------------------------------|
D|--7-7-7--2-2----------------------------------------------------|
A|--5-5-5--0-0--(0-0-0-0-0-0-0-0-0-0-0-0-0-0-0-0-0-0-0-0-0-0-0-0)-|
E|-----------—----------------------------------------------------|

Pre Chorus
E|---------------------------------|
B|---------------------------------|
G|---------9-9-9-9-9-9-9-9-9-9-9-9-|
D|-7--6----9-9-9-9-9-9-9-9-9-9-9-9-|
A|-x--x----7-7-7-7-7-7-7-7-7-7-7-7-|
E|-5--4-0--0-0-0-0-0-0-0-0-0-0-0-0-|

Chorus
E|----------------------------------------------------------|
B|----------------------------------------------------------|
G|--7-7-7-7--2-2-2-2-2-2-2--7-7-7-7--2-2-2-2-2-2-2--7-7-7-7-|
D|--7-7-7-7--2-2-2-2-2-2-2--7-7-7-7--2-2-2-2-2-2-2--7-7-7-7-|
A|--5-5-5-5--0-0-0-0-0-0-0--5-5-5-5--0-0-0-0-0-0-0--5-5-5-5-|
E|----------------------------------------------------------|

E|----------------------------------|
B|----------------------------------|
G|-2-2-2-2-2-2--9-9-9-9-9-9-9-9-9-9-|
D|-2-2-2-2-2-2--9-9-9-9-9-9-9-9-9-9-|
A|-0-0-0-0-0-0--7-7-7-7-7-7-7-7-7-7-|
E|--------------0-0-0-0-0-0-0-0-0-0-|

Post Chorus
E|-----------------------|-----------------------|
B|----------------10--10-|----------------10--10-|
G|-----------------9---9-|-----------------9---9-|
D|------9--9-------7---7-|------9--9-------7---7-|
A|-7-7--7--7--7-7--------|-7-7--7--7--7-7--------|
E|-----------------------|-----------------------|

Solo part 1
E|-0--0---0---5-|-5------5----5----|-0--0---0---5-|-5------5----5----|
B|-7--8--10---5-|------5------5--x-|-7--8--10---5-|------5------5--x-|
G|----------x---|---7b-----7b------|----------x---|---7b-----7b------|
D|--------------|------------------|--------------|------------------|
A|--------------|------------------|--------------|------------------|
E|--------------|------------------|--------------|------------------|

E|-0--0---0---5-|-5------5----5----|-0-0-0--0-0--0|--0--0-0-0-0------|
B|-7--8--10---5-|------5------5--x-|-9-9-9-10---12|-10--9-9-9-7------|
G|----------x---|---7b-----7b------|--------------|------------------|
D|--------------|------------------|--------------|------------------|
A|--------------|------------------|--------------|------------------|
E|--------------|------------------|--------------|------------------|

E|-0--0---0---5-|-5------5----5----|-0--0---0---5-|-5------5----5----|
B|-7--8--10---5-|------5------5--x-|-7--8--10---5-|------5------5--x-|
G|----------x---|---7b-----7b------|----------x---|---7b-----7b------|
D|--------------|------------------|--------------|------------------|
A|--------------|------------------|--------------|------------------|
E|--------------|------------------|--------------|------------------|

E|-0--0---0---5-|-5------5----5----|-0-0-0--0-0--0|--0--0-0-0-0--5---|
B|-7--8--10---5-|------5------5--x-|-9-9-9-10---12|-10--9-7-5-5------|
G|----------x---|---7b-----7b------|--------------|------------------|
D|--------------|------------------|--------------|------------------|
A|--------------|------------------|--------------|------------------|
E|--------------|------------------|--------------|------------------|

Outro
E|------------|
B|------------|
G|--7-7-x--2--|
D|--7-7-x--2--|
A|--5-5-x--0--|
E|------------|

Order

Verse x4
Pre Chorus x4
Verse x2
Pre Chorus x4
Chorus
Post Chorus x4
Solo
Verse
Pre Chorus x4
Chorus x2
Post Chorus x2
Outro

Lyrics:
‘Billie Joe it certainly is exciting to be at the recording studio right after
you just made your very first record; how does it feel?
‘Ummm...wonderful!’

(Verse)
She smashed the radio with a board of education
Turn up the static left of the state of the nation

(Pre Chorus)
Turn up the flame, step on the gas
Burning the flag at half mast
She’s a rebel-forgotten son
An export of the revolution

(Verse)
She is the first voice of the last ones in the line
She’ll drag the lake to keep the vendetta alive

(Pre Chorus)
Bring in the head of the government
The dog ate the document
Somebody shot the president
And no one knows where Maria went –Ma..

(Chorus)
...ria, Maria, Maria, where did you go?

(Post Chorus)
Be careful what your offering –your breath lacks the conviction
Drawing the line in the dirt because the last decision

(Solo)
No!

(Verse)
She smashed the radio with a board of education
Turn up the static left of the state of the nation

(Pre Chorus)
Turn up the flame, step on the gas
Burning the flag at half mast
She’s a rebel-forgotten son
An export of the revolution

(Chorus)
Maria, Maria, Maria, where did you go?
Maria, Maria, Maria, where did you go?


--------------------------------------------------------------------------------------
Green Day Pop Rocks & Coke
--------------------------------------------------------------------------------------

Intro
e|--------------------------------------------|
B|-2-x-2-2-x-2-2-2-2-2---2-x-2-2-x-2-2-2--9-9-|
G|-2-x-2-2-x-2-2-2-2-2---2-x-2-2-x-2-2-2--9-9-|
D|-2-x-2-2-x-2-2-2-2-2---2-x-2-2-x-2-2-2--9-9-|
A|-0-x-0-0-x-0-0-0-0-0---0-x-0-0-x-0-0-0--7-7-|
E|--------------------------------------------|

Verses
e|----------------------------------------------------------------------------------|
B|2-x-2-2-x-2-2-2-2-2--7-x-7-7-x-7-7-7-7-7--2-x-2-2-x-2-2-2-2-2--9-x-9-9-x-9-9-9-9-9|
G|2-x-2-2-x-2-2-2-2-2--7-x-7-7-x-7-7-7-7-7--2-x-2-2-x-2-2-2-2-2--9-x-9-9-x-9-9-9-9-9|
D|2-x-2-2-x-2-2-2-2-2--7-x-7-7-x-7-7-7-7-7--2-x-2-2-x-2-2-2-2-2--9-x-9-9-x-9-9-9-9-9|
A|0-x-0-0-x-0-0-0-0-0--5-x-5-5-x-5-5-5-5-5--0-x-0-0-x-0-0-0-0-0--7-x-7-7-x-7-7-7-7-7|
E|----------------------------------------------------------------------------------|
                       1____________________2______________________ 
e|---------------------|--------------------|--------------------0-|
B|-7-x-7-7-x-7-7-7-7-7-|2-x-2-2-x-2-2-2-2-2-|-2-x-2-2-x-2-2-2--2-0-|
G|-7-x-7-7-x-7-7-7-7-7-|2-x-2-2-x-2-2-2-2-2-|-2-x-2-2-x-2-2-2--2-1-|
D|-7-x-7-7-x-7-7-7-7-7-|2-x-2-2-x-2-2-2-2-2-|-2-x-2-2-x-2-2-2--2-2-|
A|-5-x-5-5-x-5-5-5-5-5-|0-x-0-0-x-0-0-0-0-0-|-0-x-0-0-x-0-0-0--0-2-|
E|---------------------|--------------------|--------------------0-|

Chorus
e|-2-2-2-2--0-0-0---------------------------------------------------|
B|-2-2-2-2--0-0-0--7-2--9-9-9-9--7-7-7-7--7-2--9-9-9-9--7-7-7-7-7-7-|
G|-2-2-2-2--1-1-1--7-2--9-9-9-9--7-7-7-7--7-2--9-9-9-9--7-7-7-7-7-7-|
D|-4-4-4-4--2-2-2--7-2--9-9-9-9--7-7-7-7--7-2--9-9-9-9--7-7-7-7-7-7-|
A|-4-4-4-4--2-2-2--5-0--7-7-7-7--5-5-5-5--5-0--7-7-7-7--5-5-5-5-5-5-|
E|-2-2-2-2--0-0-0---------------------------------------------------|

Post Chorus
e|-----------------------------------------------|
B|-2-x-2-2-x-2-2-2-2-2---2-x-2-2-x-2-2-2--9-9--2-|
G|-2-x-2-2-x-2-2-2-2-2---2-x-2-2-x-2-2-2--9-9--2-|
D|-2-x-2-2-x-2-2-2-2-2---2-x-2-2-x-2-2-2--9-9--2-|
A|-0-x-0-0-x-0-0-0-0-0---0-x-0-0-x-0-0-0--7-7--0-|
E|-----------------------------------------------|

Verse 2
e|------------------------------------------------------------------------------|
B|--2-2-2-2-2-2-2-2--2-2-2-2-2-2-2-2---7-x-7-7-x-7-7-7-7-7--2-x-2-2-x-2-2-2-2-2-|
G|--2-2-2-2-2-2-2-2--2-2-2-2-2-2-2-2---7-x-7-7-x-7-7-7-7-7--2-x-2-2-x-2-2-2-2-2-|
D|--2-2-2-2-2-2-2-2--2-2-2-2-2-2-2-2---7-x-7-7-x-7-7-7-7-7--2-x-2-2-x-2-2-2-2-2-|
A|--0-0-0-0-0-0-0-0--0-0-0-0-0-0-0-0---5-x-5-5-x-5-5-5-5-5--0-x-0-0-x-0-0-0-0-0-|
E|------------------------------------------------------------------------------|
PM  ********************************

e|--------------------------------------------------------------0-|
B|-9-x-9-9-x-9-9-9-9-9--7-x-7-7-x-7-7-7-7-7--2-x-2-2-x-2-2-2--2-0-|
G|-9-x-9-9-x-9-9-9-9-9--7-x-7-7-x-7-7-7-7-7--2-x-2-2-x-2-2-2--2-1-|
D|-9-x-9-9-x-9-9-9-9-9--7-x-7-7-x-7-7-7-7-7--2-x-2-2-x-2-2-2--2-2-|
A|-7-x-7-7-x-7-7-7-7-7--5-x-5-5-x-5-5-5-5-5--0-x-0-0-x-0-0-0--0-2-|
E|--------------------------------------------------------------0-|

Bridge
e|-----------------------------------------0-|
B|-2-x-2-2-x-2-2-2-2-2---2-x-2-2-x-2-2-2-2-0-|
G|-2-x-2-2-x-2-2-2-2-2---2-x-2-2-x-2-2-2-2-1-|
D|-2-x-2-2-x-2-2-2-2-2---2-x-2-2-x-2-2-2-2-2-|
A|-0-x-0-0-x-0-0-0-0-0---0-x-0-0-x-0-0-0-0-2-|
E|-----------------------------------------0-|

Interlude
e|-2-x-2-2-x-2-2-2-2-2-2--0-------------------------------------------------|
B|-2-x-2-2-x-2-2-2-2-2-2--0--2-x-2-2-x-2-2-2-2-2-2--7-x-7-7-x-7-7-7-7-7-7-6-|
G|-2-x-2-2-x-2-2-2-2-2-2--1--2-x-2-2-x-2-2-2-2-2-2--7-x-7-7-x-7-7-7-7-7-7-6-|
D|-4-x-4-4-x-4-4-4-4-4-4--2--2-x-2-2-x-2-2-2-2-2-2--7-x-7-7-x-7-7-7-7-7-7-6-|
A|-4-x-4-4-x-4-4-4-4-4-4--2--0-x-0-0-x-0-0-0-0-0-0--5-x-5-5-x-5-5-5-5-5-5-4-|
E|-2-x-2-2-x-2-2-2-2-2-2--0-------------------------------------------------|

e|-------------------------2-x-2-2-x-2-2-2-2-2-2--0------------------------|
B|-2-x-2-2-x-2-2-2-2-2-2---2-x-2-2-x-2-2-2-2-2-2--0--2-x-2-2-x-2-2-2-2-2-2-|
G|-2-x-2-2-x-2-2-2-2-2-2---2-x-2-2-x-2-2-2-2-2-2--1--2-x-2-2-x-2-2-2-2-2-2-|
D|-2-x-2-2-x-2-2-2-2-2-2---4-x-4-4-x-4-4-4-4-4-4--2--2-x-2-2-x-2-2-2-2-2-2-|
A|-0-x-0-0-x-0-0-0-0-0-0---4-x-4-4-x-4-4-4-4-4-4--2--0-x-0-0-x-0-0-0-0-0-0-|
E|-------------------------2-x-2-2-x-2-2-2-2-2-2--0------------------------|

e|---------------------------------------------------------------------0-|
B|-7-7-7-7-7-7-7-7--7-7-7-7-7-7-7-7-------------------7-7-7-7-7-7-7-7--0-|
G|-7-7-7-7-7-7-7-7--7-7-7-7-7-7-7-7--6-6-6-6-6-6-6-6--7-7-7-7-7-7-7-7--1-|
D|-7-7-7-7-7-7-7-7--7-7-7-7-7-7-7-7--7-7-7-7-7-7-7-7--7-7-7-7-7-7-7-7--2-|
A|-5-5-5-5-5-5-5-5--5-5-5-5-5-5-5-5--5-5-5-5-5-5-5-5--5-5-5-5-5-5-5-5--2-|
E|---------------------------------------------------------------------0-|

Lead lick      
e|-----------| (played during the
B|-10~~--9~~-| last D chord at the 
G|-----------| end of the Interlude)
D|-----------|
A|-----------| D Chord = |x5777x|
E|-----------|

Verse 3
e|----------------------------------------------------------------|
B|--7-x-7-7-x-7-7-7-7-7--2-x-2-2-x-2-2-2-2-2--9-x-9-9-x-9-9-9-9-9-|
G|--7-x-7-7-x-7-7-7-7-7--2-x-2-2-x-2-2-2-2-2--9-x-9-9-x-9-9-9-9-9-|
D|--7-x-7-7-x-7-7-7-7-7--2-x-2-2-x-2-2-2-2-2--9-x-9-9-x-9-9-9-9-9-|
A|--5-x-5-5-x-5-5-5-5-5--0-x-0-0-x-0-0-0-0-0--7-x-7-7-x-7-7-7-7-7-|
E|----------------------------------------------------------------|

e|-----------------------------------------0-|
B|-7-x-7-7-x-7-7-7-7-7--2-x-2-2-x-2-2-2--2-0-|
G|-7-x-7-7-x-7-7-7-7-7--2-x-2-2-x-2-2-2--2-1-|
D|-7-x-7-7-x-7-7-7-7-7--2-x-2-2-x-2-2-2--2-2-|
A|-5-x-5-5-x-5-5-5-5-5--0-x-0-0-x-0-0-0--0-2-|
E|-----------------------------------------0-|

Chorus 3
e|-2-2-2-2--0-0-0---------------------------------------------------|
B|-2-2-2-2--0-0-0--7-2--9-9-9-9--7-7-7-7--7-2--9-9-9-9--7-7-7-7-7-7-|
G|-2-2-2-2--1-1-1--7-2--9-9-9-9--7-7-7-7--7-2--9-9-9-9--7-7-7-7-7-7-|
D|-4-4-4-4--2-2-2--7-2--9-9-9-9--7-7-7-7--7-2--9-9-9-9--7-7-7-7-7-7-|
A|-4-4-4-4--2-2-2--5-0--7-7-7-7--5-5-5-5--5-0--7-7-7-7--5-5-5-5-5-5-|
E|-2-2-2-2--0-0-0---------------------------------------------------|

e|-------------------------------------|
B|-2-9--9-9-9-9-9-9-9-9--9-9-9-9-9-9-9-|
G|-2-9--9-9-9-9-9-9-9-9--9-9-9-9-9-9-9-|
D|-2-9--9-9-9-9-9-9-9-9--9-9-9-9-9-9-9-|
A|-0-7--7-7-7-7-7-7-7-7--7-7-7-7-7-7-7-|
E|-------------------------------------|

Outro
e|----------------------------------------------------------------------|
B|-2-x-2-2-x-2-2-2--9-9---2-x-2-2-x-2-2-2--9-9---2-x-2-2-x-2-2-2--9-9-2-|
G|-2-x-2-2-x-2-2-2--9-9---2-x-2-2-x-2-2-2--9-9---2-x-2-2-x-2-2-2--9-9-2-|
D|-2-x-2-2-x-2-2-2--9-9---2-x-2-2-x-2-2-2--9-9---2-x-2-2-x-2-2-2--9-9-2-|
A|-0-x-0-0-x-0-0-0--7-7---0-x-0-0-x-0-0-0--7-7---0-x-0-0-x-0-0-0--7-7-0-|
E|----------------------------------------------------------------------|

Order

Intro        \
Verse x2      \ acoustic guitar
Chorus        /
Post Chorus  /
Verse 2     \
Chorus       \
Bridge        \
Interlude     / electric Guitar
Verse 3      /
Chorus 3    /
Outro –Acoustic guitar

Lyrics

Where you go you know I’ll be there
If you go far you know I’ll be there
I’ll go anyway where – so I’ll see you there
You place the name you know I’ll be there
You name the time you know I’ll be there
I’ll go anywhere so I’ll see you there

(Chorus)
I don’t care if you don’t mind
I’ll be there not far behind
I will dare keep in mind...
I’ll be there for you

(Verse 2)
When there’s the truth you’ll know I’ll be there
Amongst the lies you’ll know I’ll be there
I’ll go anyway where – so I’ll see you there

(Chorus)
I don’t care if you don’t mind
I’ll be there not far behind
I will take you in mind...
I’ll be there for you

(Bridge)
Alright!

(Verse 3) (Although “verse 2” is played)
If you should fall you know I’ll be there
To catch the call you know I’ll be there
I’ll go anyway where – so I’ll see you there

(Chorus 3)
I don’t care if you don’t mind
I’ll be there not far behind
I will take you in mind...
I don’t care

(Outro)
I’ll be there for you
I’ll be there for you


--------------------------------------------------------------------------------------
Green Day Longview
--------------------------------------------------------------------------------------

Intro (played by bass)
G|------|
D|------|
A|------| (slide real slow)
E|-19/5-|

Verse (played by Bass)
G|---------------------------------------9-7-6-7-|
D|------9-7-6-------7--6----------9-7-6--0-0-0-0-|
A|-5h7---------7p5-------5---9p7-----------------|
E|-----------------------------------------------|

Pre Chorus (played by Bass)
G|--------------------------------------|
D|------9-7-6-------7--6----------9-7-6-|
A|-5h7---------7p5-------5---9p7--------|
E|--------------------------------------|

Pre Chorus
e|-------------------------|
B|-------------------------|
G|-7-7-7-7-7-7-7-7-7-7-7-7-|
D|-7-7-7-7-7-7-7-7-7-7-7-7-|
A|-5-5-5-5-5-5-5-5-5-5-5-5-|
E|-------------------------|

Chorus
e|----------------------------------|----------------------------------|
B|----------------------------------|----------------------------------|
G|--------------------------9-9-9-9-|--------------------------9-9-9-9-|
D|-9-9-9-9-9-9-9-9--7-7-7-7-9-9-9-9-|-9-9-9-9-9-9-9-9--7-7-7-7-9-9-9-9-|
A|-9-9-9-9-9-9-9-9--7-7-7-7-7-7-7-7-|-9-9-9-9-9-9-9-9--7-7-7-7-7-7-7-7-|
E|-7-7-7-7-7-7-7-7--5-5-5-5---------|-7-7-7-7-7-7-7-7--5-5-5-5---------|

e|----------------------------------|-----------------------------------|
B|----------------------------------|-----------------------------------|
G|--------------------------9-9-9-9-|-----------------------------------|
D|-9-9-9-9-9-9-9-9--7-7-7-7-9-9-9-9-|-9-9-9-9-9-9-9-9--7-7-7-7--7-7-7-7-|
A|-9-9-9-9-9-9-9-9--7-7-7-7-7-7-7-7-|-9-9-9-9-9-9-9-9--7-7-7-7--7-7-7-7-|
E|-7-7-7-7-7-7-7-7--5-5-5-5---------|-7-7-7-7-7-7-7-7--5-5-5-5--5-5-5-5-|

Fill 1 (played by Bass)
G|------7---------9----7--6-------|------7---------9----7--6-----------|
D|---------7--7h9---9--------9--7-|---------7--7h9---9--------9--7-----|
A|-9p7----------------------------|-9p7--------------------------------|
E|--------------------------------|------------------------------------|

Bridge (‘ive got no motivation’)
e|------------------|------------------|------------------|------------------|
B|------------------|------------------|------------------|------------------|
G|-9-9-9-9--7-7-7-7-|-9-9-9-9--7-7-7-7-|-9-9-9-9--7-7-7-7-|-9-9-9-9--7-7-7-7-|
D|-9-9-9-9--7-7-7-7-|-9-9-9-9--7-7-7-7-|-9-9-9-9--7-7-7-7-|-9-9-9-9--7-7-7-7-|
A|-7-7-7-7--5-5-5-5-|-7-7-7-7--5-5-5-5-|-7-7-7-7--5-5-5-5-|-7-7-7-7--5-5-5-5-|
E|------------------|------------------|------------------|------------------|

Pre Chorus 2
e|-----------------------------------------------|
B|-----------------------------------------------|
G|-7-7-7-7-7-7-7-7--7-7-7-7-7-7-7-7--7-7-7-7-7-7-|
D|-7-7-7-7-7-7-7-7--7-7-7-7-7-7-7-7--7-7-7-7-7-7-|
A|-5-5-5-5-5-5-5-5--5-5-5-5-5-5-5-5--5-5-5-5-5-5-|
E|-----------------------------------------------|

Chorus 2
e|----------------------------------|----------------------------------|
B|----------------------------------|----------------------------------|
G|--------------------------9-9-9-9-|--------------------------9-9-9-9-|
D|-9-9-9-9-9-9-9-9--7-7-7-7-9-9-9-9-|-9-9-9-9-9-9-9-9--7-7-7-7-9-9-9-9-|
A|-9-9-9-9-9-9-9-9--7-7-7-7-7-7-7-7-|-9-9-9-9-9-9-9-9--7-7-7-7-7-7-7-7-|
E|-7-7-7-7-7-7-7-7--5-5-5-5---------|-7-7-7-7-7-7-7-7--5-5-5-5---------|

e|----------------------------------|----------------------------------|
B|----------------------------------|----------------------------------|
G|--------------------------9-9-9-9-|--------------------------9-9-9-9-|
D|-9-9-9-9-9-9-9-9--7-7-7-7-9-9-9-9-|-9-9-9-9-9-9-9-9--7-7-7-7-9-9-9-9-|
A|-9-9-9-9-9-9-9-9--7-7-7-7-7-7-7-7-|-9-9-9-9-9-9-9-9--7-7-7-7-7-7-7-7-|
E|-7-7-7-7-7-7-7-7--5-5-5-5---------|-7-7-7-7-7-7-7-7--5-5-5-5---------|

Outro
e|---------------|-----------12--12*|---------------|-----------12--12*|
B|-9h10--10--7~--|----9h10---12--12*|-9h10--10--7~--|----9h10---12--12*|
G|-9------9--7~--|--9---------9-----|-9------9--7~--|--9---------9-----|
D|---------------|------------------|---------------|------------------|
A|---------------|------------------|---------------|------------------|
E|---------------|------------------|---------------|------------------|

Order

Verse x5 (played by bass)
Pre Chorus
Chorus
Fill 1 (played by bass)
Verse x3 (played by bass)
Pre Chorus
Chorus
Bridge
Chorus
Fill 1 x4 (played by bass)
Verse (played by bass)
Pre Chorus 2
Chorus 2
Chorus
Outro x2 then to fade


(Lyrics)

(Verse 1)
Sit around and watch the tube, nothing's on
Change the channel for an hour or two
Twiddle my thumbs just for a bit		
I'm sick of all the same old shit
In a house with unlocked doors
And I'm fuckin lazy

(Chorus)
Bite my lip and close my eyes
Take me away to paradise			
I'm so damn bored I'm goin blind
And I smell like shit

(Verse 2)
Peel me off this Velcro seat and get me movin’
I sure as hell can't do it by myself
I'm feelin like a dog in heat			
Barred indoors from a summer street
I locked the door to my own cell
And I lost the key

(Chorus)
Bite my lip and close my eyes
Take me away to paradise			
I'm so damn bored I'm goin blind
And I smell like shit 


(Bridge)
I got no motivation
Where is my motivation?			
No time for my motivation
Smokin' my inspiration

(Verse 3)
Sit around and watch the phone, no one's callin
Call me pathetic, call me what you will
My mother says to get a job			
But she don't like the one she's got
When masturbation's lost it's fun
You're fuckin lazy

(Pre chorus 2)
Sing....

(Chorus 2)
Bite my lip and close my eyes
Take me away to paradise
I'm so damn bored I'm goin blind
And none of this has to suffice			
Bite my lip and close my eyes
Oh slippin’ away to paradise
Some say quit or I'll go blind
But it's just a myth

(Outro)


--------------------------------------------------------------------------------------
Green Day Welcome to Paradise
--------------------------------------------------------------------------------------
Intro
e|-----------------------------|-----------------------------|
B|-----------------------------|-----------------------------|
G|-9-x-9-9~-9-9--7-7-7---------|-9-x-9-9~-9-9--7-7-7---------|
D|-9-x-9-9~-9-9--7-7-7-7-7-7-7-|-9-x-9-9~-9-9--7-7-7-7-7-7-7-|
A|-7-x-7-7~-7-7--5-5-5-7-7-7-7-|-7-x-7-7~-7-7--5-5-5-7-7-7-7-|
E|---------------------5-5-5-5-|---------------------5-5-5-5-|

Verse
e|-------------------------------------------|---------------------------|
B|-------------------------------------------|---------------------------|
G|-9-9-9-9--7-7-7-7-7-7--9-x-9-9-x-9-9-9-9-9-|-9-9-9-9--7-7-7-7----------|
D|-9-9-9-9--7-7-7-7-7-7--9-x-9-9-x-9-9-9-9-9-|-9-9-9-9--7-7-7-7--5-5-5-5-|
A|-7-7-7-7--5-5-5-5-5-5--7-x-7-7-x-7-7-7-7-7-|-7-7-7-7--5-5-5-5--5-5-5-5-|
E|-------------------------------------------|-------------------3-3-3-3-|

e|-------------|
B|-------------|
G|-------------|
D|-9-9-9-9-9-9-|
A|-9-9-9-9-9-9-|
E|-7-7-7-7-7-7-|

Pre Chorus
e|----------------------------------|
B|----------------------------------|
G|----------------------------------|
D|-5-5-5-5--9-9-9-9-9-9-9-9-9-9-9-9-|
A|-5-5-5-5--9-9-9-9-9-9-9-9-9-9-9-9-|
E|-3-3-3-3--7-7-7-7-7-7-7-7-7-7-7-7-|

Chorus
e|-----------------------------------------|-----------------------------------|
B|-----------------------------------------|-----------------------------------|
G|-----------------------------5-5-5-5-5-5-|-------------------4-4-4-4-4-4-4-4-|
D|-2-2-2-2--5-5-5-5-5--7-7-7-7-5-5-5-5-5-5-|2-2-2-2--5-5-5-5-5-4-4-4-4-4-4-4-4-|
A|-2-2-2-2--5-5-5-5-5--7-7-7-7-3-3-3-3-3-3-|2-2-2-2--5-5-5-5-5-2-2-2-2-2-2-2-2-|
E|-0-0-0-0--3-3-3-3-3--5-5-5-5-------------|0-0-0-0--3-3-3-3-3-----------------|

e|-----------------------------------------|---------------|
B|-----------------------------------------|---------------|
G|-----------------------------5-5-5-5-5-5-|-------------4-|
D|-2-2-2-2--5-5-5-5-5--7-7-7-7-5-5-5-5-5-5-|-2-2-2-2-2-2-4-|
A|-2-2-2-2--5-5-5-5-5--7-7-7-7-3-3-3-3-3-3-|-2-2-2-2-2-2-2-|
E|-0-0-0-0--3-3-3-3-3--5-5-5-5-------------|-0-0-0-0-0-0---|

Interlude 
Bass
G|---------|----------|---------|---------|
D|-----7h9-|-------9--|-----8---|-----7---|
A|-7-7-----|-10-10--10|-9-9---9-|-8-8---8-| x16
E|---------|----------|---------|---------|

Guitar 1 (start on the 5th repeat of the bass riff and you should end on the 
e|-----------------------------------------| 8th repeat
B|-----------------------------------------|
G|--2b~----------------------7b---5-4-3-2--|
D|------2b~--3-2-0-2-3-2-------------------|
A|-----------------------------------------|
E|-----------------------------------------|

Guitar 1 (play straight after above riff)
e|------------------------------------------------|
B|------------------------------------------------|
G|-9-9-9-9--12-12-12-12--11-11-11-11--10-10-10-10-|
D|-9-9-9-9--12-12-12-12--11-11-11-11--10-10-10-10-| x8
A|-7-7-7-7--10-10-10-10---9--9--9--9---8--8--8--8-|
E|------------------------------------------------|
PM ***   ********    *********    *********    ***

Guitar 2 (start on the 5th repeat of guitar 1 riff above)
e|------------------------------------------------|
B|------------------------------------------------|
G|-9-9-9-9--12-12-12-12--11-11-11-11--10-10-10-10-| 
D|-9-9-9-9--12-12-12-12--11-11-11-11--10-10-10-10-| x4
A|-7-7-7-7--10-10-10-10---9--9--9--9---8--8--8--8-|
E|------------------------------------------------|
PM **********************************************

Guitar 1 and 2 (play straight after above riff)
e|------------------------------------------------|
B|------------------------------------------------|
G|-9-9-9-9--12-12-12-12--11-11-11-11--10-10-10-10-|
D|-9-9-9-9--12-12-12-12--11-11-11-11--10-10-10-10-| x4
A|-7-7-7-7--10-10-10-10---9--9--9--9---8--8--8--8-|
E|------------------------------------------------|

Outro
e|-----------------------------|----------------------------------|
B|-----------------------------|----------------------------------|
G|-9-x-9-9~-9-9--7-7-7---------|-9-x-9-9~-9-9--7-7-7----------9#--|
D|-9-x-9-9~-9-9--7-7-7-7-7-7-7-|-9-x-9-9~-9-9--7-7-7-7-7-7-7--9#--|
A|-7-x-7-7~-7-7--5-5-5-7-7-7-7-|-7-x-7-7~-7-7--5-5-5-7-7-7-7--7#--|
E|---------------------5-5-5-5-|---------------------5-5-5-5------|

Order

Intro (play once with one guitar, play again with whole band)
Verse x2
Pre Chorus
Chorus
Intro
Verse x2
Pre Chorus
Chorus
Intro x2
Interlude
Verse x2
Pre Chorus
Chorus
Outro


(Lyrics)

(Verse 1)
Dear mother, can you hear me whining?
It's been three whole weeks
Since I have left your home			
This sudden fear has left me trembling
Cos’ now it seems that I am
Out here on my own, and I'm feeling so alone

(Chorus)
Pay attention to the cracked streets
And the broken homes
Some call it the slums - some call it nice	
I wanna’ take you through a wasteland
I like to call my home...
Welcome to paradise

(Verse 2)
A gunshot rings out at the station
Another urchin snaps
And left dead on his own			
It makes me wonder why I'm still here
For some strange reason its now
Feeling like my home, and I'm never gonna go

(Chorus)
Pay attention to the cracked streets
And the broken homes
Some call it the slums - some call it nice	
I wanna’ take you through a wasteland
I like to call my home...
Welcome to paradise

(Interlude)

(Verse 3)
Dear mother, can you hear me laughing?
It's been six whole months
Since I have left your home			
It makes me wonder why I'm still here
For some strange reason its now
Feeling like my home, and I'm never gonna go

(Chorus)
Pay attention to the cracked streets
And the broken homes
Some call it the slums - some call it nice	
I wanna’ take you through a wasteland
I like to call my home...
Welcome to paradise

(Outro)
Oh paradise


--------------------------------------------------------------------------------------
Green Day Basket Case
--------------------------------------------------------------------------------------

Verse
e|---------------------|------------------|---------------------|------------------|
b|---------------------|------------------|---------------------|------------------|
g|-9--------------9----|------------------|-6-------6-------6---|------------------|
D|-9--9-9-9-9-9-9-9--9-|------9---------9-|-6--6-6--6--6-6--6--6|------6---------6-|
a|-7--7-7-7-7-7-7-7--9-|-9-9--9--9-9-9--9-|-4--4-4--4--4-4--4--6|-6-6--6--6-6-6--6-|
e|-------------------7-|-7-7--7--7-7-7--7-|--------------------4|-4-4--4--4-4-4--4-|
PM    ***********        ***     *****         ***     ***        ***     *****      

e|---------------------|------------------|--------------------|-------------------|
b|---------------------|------------------|--------------------|-------------------|
g|-------------------9-|------9---------9-|--------------------|-------------------|
D|------7-------7--9-9-|-9-9--9--9-9-9--9-|------9-----------9-|-----9---------9--9|
a|-7-7--7--7-7--7--7-7-|-7-7--7--7-7-7--7-|-9-9--9--9-9-9-9--9-|9-9--9--9-9-9--9--7|
e|-5-5--5--5-5--5------|------------------|-7-7--7--7-7-7-7--7-|7-7--7--7-7-7--7---|
PM ***     ***     *     ***     *****      ***     *******      ***     *****     * 

Chorus
e|--------------------|---------------------|-------------------|-------------------|
b|--------------------|---------------------|-------------------|-------------------|
g|--------------------|---------------------|-----9-----------9-|-----9---------9---|
d|-----7-------7-----9|------9---------9--9-|9-9--9--9-9-9-9--9-|-9-9-9--9-9-9--9--9|
a|7-7--7--7-7--7--9--9|-9-9--9--9-9-9--9--7-|7-7--7--7-7-7-7--7-|-7-7-7--7-7-7--7--7|
e|5-5--5--5-5--5--7--7|-7-7--7--7-7-7--7----|-------------------|-------------------|
PM ***    ***     *     ***     *****     *******    *******      ***    *****     *

e|--------------------|---------------------|-------------------|-------------------|
b|--------------------|---------------------|-------------------|-------------------|
g|--------------------|---------------------|-----9-----------9-|-----9---------9---|
d|-----7-------7-----9|------9---------9--9-|9-9--9--9-9-9-9--9-|-9-9-9--9-9-9--9--9|
a|7-7--7--7-7--7--9--9|-9-9--9--9-9-9--9--7-|7-7--7--7-7-7-7--7-|-7-7-7--7-7-7--7--7|
e|5-5--5--5-5--5--7--7|-7-7--7--7-7-7--7----|-------------------|-------------------|
PM ***    ***     *     ***     *****     *******    *******      ***    *****     *

e|----------------------|---------------------|
b|----------------------|---------------------|
g|----------------------|---------------------|
d|------7-------7-----9-|------9---------9--9-|
a|-7-7--7--7-7--7--9--9-|-9-9--9--9-9-9--9--7-|
e|-5-5--5--5-5--5--7--7-|-7-7--7--7-7-7--7----|
PM ***     ***     *      ***     *****     *

Post Chorus
e|------------------------------------------------------------------|
B|-9--7-7--x--5--5--5--5--5--5--5-----------------------------------|
G|-9--7-7--x--6--6--6--6--6--6--6-------------------------------9-9-|
D|-9--7-7--x--6--6--6--6--6--6--6--7-7-------------9-9-9-9-9-9--9-9-|
A|-7--5-5--x--4--4--4--4--4--4--4--7-7--7-7-7-7-7--9-9-9-9-9-9--7-7-|
E|---------------------------------5-5--5-5-5-5-5--7-7-7-7-7-7------|
PM                                      *********

Coda
e|----------------------------|----------------------------|
B|-9-x-x--4-x-x--5-x-x--4-4-4-|-9-x-x--4-x-x--5-x-x--4-4-4-|
G|-9-x-x--4-x-x--6-x-x--4-4-4-|-9-x-x--4-x-x--6-x-x--4-4-4-|
D|-9-x-x--4-x-x--6-x-x--4-4-4-|-9-x-x--4-x-x--6-x-x--4-4-4-|
A|-7-x-x--2-x-x--4-x-x--2-2-2-|-7-x-x--2-x-x--4-x-x--2-2-2-|
E|----------------------------|----------------------------|

Verse 2
e|-0--0--0--0----------------------|----------------------------------0-0-0-0-0-0-|
B|-0--0--0--0--x--4-4-4-4-4-4--x-x-|----------------------------------0-0-0-0-0-0-|
G|-1--1--1--1--x--4-4-4-4-4-4--x-x-|-6-6-6-6----------------2-2-2-2-x-1-1-1-1-1-1-|
D|-2--2--2--2--x--4-4-4-4-4-4--x-x-|-6-6-6-6-x-6-6-6-6-6-6--2-2-2-2-x-2-2-2-2-2-2-|
A|-2--2--2--2--x--2-2-2-2-2-2--x-x-|-4-4-4-4-x-6-6-6-6-6-6--0-0-0-0-x-2-2-2-2-2-2-|
E|-0--0--0--0----------------------|---------x-4-4-4-4-4-4------------0-0-0-0-0-0-|

e|---------------------|
B|---------------------|
G|-4-4-4-4-4-4-4-4-4-4-|
D|-4-4-4-4-4-4-4-4-4-4-|
A|-2-2-2-2-2-2-2-2-2-2-|
E|---------------------|

Chorus 2
e|--------------------------------|-------------------------------|
B|--------------------------------|9--9--9--9-x-10-10-10-10-10-10-|
G|--------------------------------|9--9--9--9-x--9--9--9--9--9--9-|
D|-7--7--7--7-----9--9-9-9--9--9--|9--9--9--9-x--9--9--9--9--9--9-|
A|-7--7--7--7-----9--9-9-9--9--9--|7--7--7--7-x--7--7--7--7--7--7-|
E|-5--5--5--5--0--7--7-7-7--7--7--|-------------------------------|

e|----------------------|-------------------------------|---------------------|
B|----------------------|9--9--9--9-x-10-10-10-10-10-10-|---------------------|
G|----------------------|9--9--9--9-x--9--9--9--9--9--9-|---------------------|
D|7-7-7-7---9-9-9-9-9-9-|9--9--9--9-x--9--9--9--9--9--9-|7-7-7-7---9-9-9-9-9-9|
A|7-7-7-7---9-9-9-9-9-9-|7--7--7--7-x--7--7--7--7--7--7-|7-7-7-7---9-9-9-9-9-9|
E|5-5-5-5-0-7-7-7-7-7-7-|-------------------------------|5-5-5-5-0-7-7-7-7-7-7|

Bridge
e|-----------------------------------|-------------------|
B|-----------------------------------|-------------------|
G|-----------------------------------|-------------------|
D|-7---------------------------------|-9-9-9-9-9-9-9-9-9-|
A|-7---7-7-7-7-7-7-7-7-7-7-7-7-7-7-7-|-9-9-9-9-9-9-9-9-9-|
E|-5---5-5-5-5-5-5-5-5-5-5-5-5-5-5-5-|-7-7-7-7-7-7-7-7-7-|
PM     *****************************

Pre Outro (there are two guitars tracks here)

Guitar 1 (when playing live this is usually pre recorded)
e|---0-----0----|---------0----|------------------------------|
B|------0-----0-|------------0-|------------------------------|
G|-1----2-------|------------x-|-------9-9-x------------------|
D|-2------------|-------6----7-|-7--7--9-9-x--9-9-9-9-9-9-9-9-|
A|--------------|-4--4--4------|-7--7--7-7-x--9-9-9-9-9-9-9-9-|
E|--------------|--------------|-5--5---------7-7-7-7-7-7-7-7-|

Guitar 2 (Billie usually plays this live)
E|--------------|--------------|------------------------------|
B|--------------|--------------|------------------------------|
G|--9-9-9--9-9--|--6-6-6--6-6--|-------9-9-x------------------|
D|--9-9-9--9-9--|--6-6-6--6-6--|-7--7--9-9-x--9-9-9-9-9-9-9-9-|
A|--7-7-7--7-7--|--4-4-4--4-4--|-7--7--7-7-x--9-9-9-9-9-9-9-9-|
E|--------------|--------------|-5--5---------7-7-7-7-7-7-7-7-|

Outro
Guitar 1 (when playing live this is usually pre recorded)
e|---0-----0---|----------0----|-------------|
B|------0----0-|-------------0-|-------------|
G|-1----2------|-------------x-|-----9-------|
D|-2-----------|-6-(6)--6----7-|-7---9--9~~--|
A|-------------|-4-(4)--4------|-7---7--9~~--|
E|-------------|---------------|-5------7~~--|

Guitar 2 (Billie usually plays this live)
E|-------------|---------------|-------------------------------|
B|-------------|---------------|-------------------------------|
G|-9-9-9--9-9--|--6-6-6--6-6---|-----9---------------2-----4~~-|
D|-9-9-9--9-9--|--6-6-6--6-6---|-7---9--9~~----------2--2--4~~-|
A|-7-7-7--7-7--|--4-4-4--4-4---|-7---7--9~~----------0--2--2~~-|
E|-------------|---------------|-5------7~~--16\7p0-----0------|


Order

Verse x2
Chorus x2
Post chorus
Coda
Verse 2 x2
Chorus 2
Post chorus
Coda x2
Bridge
Verse 2 x2
Chorus
Post Chorus
Pre Outro x3
Outro


(Lyrics)

(Verse)
Do you have the time, to listen to me whine?
About nothing and everything, all at once
I am one of those - Melodramatic fools
Neurotic to the bone - No doubt about it

(Chorus)
Sometimes I give myself the creeps
Sometimes my mind plays tricks on me
It all keeps adding up               

(Post chorus)
I think I'm crackin’ up
Am I just paranoid?
Am I just stoned?

(Coda)

(Verse 2)
I went to a shrink - To analyse my dreams
She says it's lack of sex - That's bringing me down
I went to a whore - He said my life's a bore
So quit my whining – Cos’ it's bringing her down

(Chorus 2)
Sometimes I give myself the creeps
Sometimes my mind plays tricks on me
It all keeps adding up               

(Post chorus)
I think I'm crackin’ up
Am I just paranoid?
Am I just a ya ya yeah!

(Coda)
Oi, oi

(Bridge)
Grasping to control – so I better hold on

(Verse with no lyrics)

(Chorus)
Sometimes I give myself the creeps
Sometimes my mind plays tricks on me
It all keeps adding up  

(Post chorus)
I think I'm crackin’ up
Am I just paranoid?
Am I just stoned?             

(Outro’s)

--------------------------------------------------------------------------------------
Green Day When I come around
--------------------------------------------------------------------------------------
Standard tuning

Intro
E|------|--------------------------|-------------|   
B|------|--------------------------|----7-----4--|    
G|----0-|-------------------6------|----8-----4--|   
D|-x--0-|------4-------6-6--6--6-6-|-8--8--8--4--|  
A|-x----|-4-4--4--4-4--4-4--4--4-4-|-6--6--6--2--|    
E|-x----|-2-2--2--2-2--------------|-------------|    
PM        ***     *********    *******     *

Verse
E|--------------------------|------------------------|
B|--------------------------|----7-----4---4---------|
G|-------------------4------|----8-----4---4-4-4-4-4-|
D|------4-------4-4--4--4-4-|-8--8--8--4---4-4-4-4-4-|
A|-4-4--4--4-4--2-2--2--2-2-|-6--6--6--2---2-2-2-2-2-|
E|-2-2--2--2-2--------------|------------------------|
PM ***     ********     *******     *          
 
Chorus
E|-------------------|-----------------|------------------|-----------------|
B|-------------------|-4-4-4-4-4-4-4-4-|------------------|-4-4-4-4-4-4-4-4-|
G|-------------------|-4-4-4-4-4-4-4-4-|------------------|-4-4-4-4-4-4-4-4-|
D|-6-6-6-6-6-6-6-6-6-|-4-4-4-4-4-4-4-4-|-6-6-6-6--6-6-6-6-|-4-4-4-4-4-4-4-4-|
A|-6-6-6-6-6-6-6-6-6-|-2-2-2-2-2-2-2-2-|-6-6-6-6--6-6-6-6-|-2-2-2-2-2-2-2-2-|
E|-4-4-4-4-4-4-4-4-4-|-----------------|-4-4-4-4--4-4-4-4-|-----------------|


Solo 
Guitar 1
E|--3-----------5-----------|--3--3-------5--5--5--5-|
B|-----3-----3-----3------3-|--3--3-------3--3--3--3-|
G|--------0-----------0-----|--0--0---0---0--0--0--0-|
D|--------------------------|------------------------|
A|--------------------------|------------------------|
E|--------------------------|------------------------|

Guitar 2
E|--------------------------|------------------------|
B|--------------------------|----7-----4---4---------|
G|-------------------4------|----8-----4---4-4-4-4-4-|
D|------4-------4-4--4--4-4-|-8--8--8--4---4-4-4-4-4-|
A|-4-4--4--4-4--2-2--2--2-2-|-6--6--6--2---2-2-2-2-2-|
E|-2-2--2--2-2--------------|------------------------|
PM ***     ********     *******     *          

Guitar 1
E|---3--3-------5--5---5--5-|--------------------------|
B|---3--3-------3--3---3--3-|-------5---5----5---/15---|
G|---0--0---0---0--0---0--0-|-1/4---4---4--4h5---------|
D|--------------------------|--------------------------|
A|--------------------------|--------------------------|
E|--------------------------|----------------------\12-|

Guitar 2
E|--------------------------|------------------------|
B|--------------------------|----7-----4---4---------|
G|-------------------4------|----8-----4---4-4-4-4-4-|
D|------4-------4-4--4--4-4-|-8--8--8--4---4-4-4-4-4-|
A|-4-4--4--4-4--2-2--2--2-2-|-6--6--6--2---2-2-2-2-2-|
E|-2-2--2--2-2--------------|------------------------|
PM ***     ********     *******     *          

Outro
E|--------------------------|------------|
B|--------------------------|----7-----4-|
G|-------------------6------|----8-----4-|
D|------4-------6-6--6--6-6-|-8--8--8--4-|
A|-4-4--4--4-4--4-4--4--4-4-|-6--6--6--2-|
E|-2-2--2--2-2--------------|------------|
PM ***     ********     *******     *           

Order

Intro
Verse x10
Chorus
Verse x10
Chorus
Verse x2
Solo
Chorus
Verse x3
Outro


(Lyrics)

(Verse)
I heard you crying loud - All the way across town
To be been searchin’ for that someone
And it's me out of the prowl
As you sit around feeling sorry for yourself
So don't get lonely now and dry your whining eyes
I'm just roaming for the moment sleazin my backyard so don't get
So uptight you've been thinkin about ditching me

(Chorus)
No time to search the world around
Cos’ you know where I'll be found        
When I come around

(Verse)	
I heard it all before - So don't knock down my door
I'm a loser, and a user - So I don't need no accuser
To try and slag me down because I know you're right
So go do what you like, make sure you do it wise
You may find out that your self-doubt means nothing was ever there
You can't go forcing something if it's just not right

(Chorus)
No time to search the world around
Cuz you know where I'll be found        
When I come around

(Solo)      

(Chorus)
No time to search the world around
Cuz you know where I'll be found        
When I come around

(Verse)
When I come around
When I come around
When I come around

(Outro)

--------------------------------------------------------------------------------------
Green Day She
--------------------------------------------------------------------------------------
Standard tuning

Intro 
G|--------------------|--------------------|
D|--4-4-4-4-4-4-4-4-4-|--4-4-4-4-4-4-4-4-4-|
A|--------------------|--------------------|
E|--------------------|--------------------|

Verse
G|-----------------------------------------------------------------------|
D|-4-4-4-4-4-4-4-4-4/6---------------------------------4-4-4-4-4-4-4-4-4-|
A|---------------------4-4-4-4-4-4-4-4----2-2-2-2-2-2--------------------|
E|-------------------------------------4---------------------------------|

G|---------------------------------------------------------------|
D|-4-4-4-4-4-4-4-4-4/6----------------------------3h4--3h4--3h4--|
A|---------------------4-4-4-4-4-4-4-4----2-2-2-2-----2----2-----|
E|-------------------------------------4-------------------------|

Pre Chorus
E|-------------------|
B|-------------------|
G|-------------------|
D|-4-4-4-4-4-4-4-4-4-|
A|-4-4-4-4-4-4-4-4-4-|
E|-2-2-2-2-2-2-2-2-2-|
Pm *****************

Chorus
E|-----------------------------------|  |-------------------|  |-----------------|
B|-----------------------------------|  |-------------------|  |-----------------|
G|6-6-6-6-6-6-6-6-4-4-4-4------------|  |4-4-4-4------------|  |-6-6-6-6-6-6-6-6-|
D|6-6-6-6-6-6-6-6-4-4-4-4-4-4-4-4-4-4|x2|4-4-4-4-4-4-4-4-4-4|x3|-6-6-6-6-6-6-6-6-|
A|4-4-4-4-4-4-4-4-2-2-2-2-4-4-4-4-4-4|  |2-2-2-2-4-4-4-4-4-4|  |-4-4-4-4-4-4-4-4-|
E|------------------------2-2-2-2-2-2|  |--------2-2-2-2-2-2|  |-----------------|

Verse 2
E|--------------------------------------------------------------------------|
B|--------------------------------------------------------------------------|
G|---------------------6-6-6-6-6-6-6-6-6-6--4-4-4-4-4-4-4-4-4-4------4------|
D|-4-4-4-4-4-4-4-4-4-4-6-6-6-6-6-6-6-6-6-6--4-4-4-4-4-4-4-4-4-4--4-4-4-4-4--|
A|-4-4-4-4-4-4-4-4-4-4-4-4-4-4-4-4-4-4-4-4--2-2-2-2-2-2-2-2-2-2--4-4-2-4-4--|
E|-2-2-2-2-2-2-2-2-2-2-------------------------------------------2-2---2-2--|
PM   *****************   ******  *****   *    *********   *****  ***   ***

E|------------------------------------------------------------------------------|
B|------------------------------------------------------------------------------|
G|--------------------6-6-6-6-6-6-6-6-6--4-4-4-4-4-4-4-4-4--4-4-4-4-4-4-4-4-4-4-|
D|-4-4-4-4-4-4-4-4-4--6-6-6-6-6-6-6-6-6--4-4-4-4-4-4-4-4-4--4-4-4-4-4-4-4-4-4-4-|
A|-4-4-4-4-4-4-4-4-4--4-4-4-4-4-4-4-4-4--2-2-2-2-2-2-2-2-2--2-2-2-2-2-2-2-2-2-2-|
E|-2-2-2-2-2-2-2-2-2------------------------------------------------------------|
PM   *****   *****      *****   *****      *****   *****

E|---------------------------------|
B|---------------------------------|
G|-4-4-4-4-------4-4-x-------------|
D|-4-4-4-4---4-4-4-4-x-4-4-4-4-4-4-|
A|-2-2-2-2---4-4-2-2-x-4-4-4-4-4-4-|
E|-----------2-2-------2-2-2-2-2-2-|

Bridge
E|----------------------------------------------------------------------------------|
B|----------------------------------------------------------------------------------|
G|--------------------6-6-6-6-6-6-6-6-6-6-4-4-4-4-4-4-4-4-4-4-4-4------4-4----------|
D|4-4-4-4-4-4-4-4-4-4-6-6-6-6-6-6-6-6-6-6-4-4-4-4-4-4-4-4-4-4-4-4--4-4-4-4-4-4-4-4-4|
A|4-4-4-4-4-4-4-4-4-4-4-4-4-4-4-4-4-4-4-4-2-2-2-2-2-2-2-2-2-2-2-2--4-4-2-2-4-4-4-4-4|
E|2-2-2-2-2-2-2-2-2-2----------------------------------------------2-2-----2-2-2-2-2|

E|----------------------------------------------------------------|
B|----------------------------------------------------------------|
G|---------------------6-6-6-6-6-6-6-6-6-6--4-4-4-4-4-4-4-4-4-4-4-|
D|-4-4-4-4-4-4-4-4-4-4-6-6-6-6-6-6-6-6-6-6--4-4-4-4-4-4-4-4-4-4-4-|
A|-4-4-4-4-4-4-4-4-4-4-4-4-4-4-4-4-4-4-4-4--2-2-2-2-2-2-2-2-2-2-2-|
E|-2-2-2-2-2-2-2-2-2-2--------------------------------------------|

E|----------------------------|
b|----------------------------|
G|-----4-4-x------------------|
D|-4-4-4-4-x--4-4-4-4-4-4-4-4-|
A|-4-4-2-2-x--4-4-4-4-4-4-4-4-|
E|-2-2--------2-2-2-2-2-2-2-2-|

End
E|-----|
E|-----|
G|-----|
D|-4#--|
A|-4#--|
E|-2#--|

Order

Intro (played by bass)
Verse (played by bass)
Pre Chorus
Chorus
Verse 2
Chorus
Bridge
Chorus
End

(Lyrics)


(Verse)
She, she screams in silence
A sullen riot penetrating through her mind
Waiting for a time to smash the silence
With a brick of self-control

(Chorus)
Are you locked up in a world that's been planned out for you?
Are you feeling like a social tool without a use?
Scream at me until my ears bleed
I'm taking it heed just for you

(Verse 2)
She, she's figured out all her doubts
With someone else's point of view
Waking up this time to smash the silence
With a brick of self-control

(Chorus)
Are you locked up in a world that's been planned out for you?
Are you feeling like a social tool without a use?
Scream at me until my ears bleed
I'm taking it heed just for you
Aaaaaaaahhhhhhhh!

(Bridge)

(Chorus)
Are you locked up in a world that's been planned out for you?
Are you feeling like a social tool without a use?
Scream at me until my ears bleed
I'm taking it in just for you

(Outro)

--------------------------------------------------------------------------------------
Green Day J.A.R. (Jason Andrews Relva)
--------------------------------------------------------------------------------------
Standard tuning

Intro Bass (played be bass – obviously)
G|-----6-------6-------6-------7---|-----7-------7-------7-------7---|
D|-4-4---4-------------------------|-5-5---5-------------------------|
A|---------4-4---4---------5-5---5-|---------5-5---5---------5-5---5-|
E|-----------------4-4---5---------|-----------------5-5---5---------|

Intro
e|-------|---------------------------------------------|
B|-------|---------------------------------------------|
G|--6----|--------------------------------6-6-6--------|
D|--6--6-|-4-4-4-4-4--6-6-6-6-6--4-4-4-4--6-6-6--6-6-6-|
A|--4--6-|-4-4-4-4-4--6-6-6-6-6--4-4-4-4--4-4-4--6-6-6-|
E|-----4-|-2-2-2-2-2--4-4-4-4-4--2-2-2-2---------4-4-4-|

Verse
e|---------------------------------------------|
B|---------------------------------------------|
G|--------------------------------6-6-6--------|
D|-4-4-4-4-4--6-6-6-6-6--4-4-4-4--6-6-6--6-6-6-|
A|-4-4-4-4-4--6-6-6-6-6--4-4-4-4--4-4-4--6-6-6-|
E|-2-2-2-2-2--4-4-4-4-4--2-2-2-2---------4-4-4-|

Chorus
e|--------------------------------------------------------------|
B|--------------------------------------------------------------|
G|----------------------6-6-6-6-6-6-6-6-6-6---------------------|
D|-4-4-4-4-4-4-4-4-4-4--6-6-6-6-6-6-6-6-6-6---6-6-6-6-6-6-6-6-6-|
A|-4-4-4-4-4-4-4-4-4-4--4-4-4-4-4-4-4-4-4-4---6-6-6-6-6-6-6-6-6-|
E|-2-2-2-2-2-2-2-2-2-2------------------------4-4-4-4-4-4-4-4-4-|

e|-------------------------------------------|
B|-------------------------------------------|
G|----------6-6-6-6-6-6----------------------|
D|-4-4-4-4--6-6-6-6-6-6--6-6-6-6-6-6-6-6-6-6-|
A|-4-4-4-4--4-4-4-4-4-4--6-6-6-6-6-6-6-6-6-6-|
E|-2-2-2-2---------------4-4-4-4-4-4-4-4-4-4-|

Post Chorus
e|---------------------------------------------------------|
B|---------------------------------------------------------|
G|--------6-x-x---------6-x-x---------6-x-x---------6-x-x--|
D|-4-x-x--6-x-x--6-x-x--6-x-x--4-x-x--6-x-x--6-x-x--6-x-x--|
A|-4-x-x--4-x-x--6-x-x--4-x-x--4-x-x--4-x-x--6-x-x--4-x-x--|
E|-2-x-x---------4-x-x---------2-x-x---------4-x-x---------|

Bridge  
e|---------------------------------------------------------------------------------|
B|---------------------------------------------------------------------------------|
G|-4-4-4-4-4-4-4-4-------------------6-6-6-6-6-6-6-6---------------4-4-4-4-4-4-4-4-|
D|-4-4-4-4-4-4-4-4--4-4-4-4-4-4-4-4--6-6-6-6-6-6-6-6--6-6-6-6-6-6--4-4-4-4-4-4-4-4-|
A|-2-2-2-2-2-2-2-2--4-4-4-4-4-4-4-4--4-4-4-4-4-4-4-4--6-6-6-6-6-6--2-2-2-2-2-2-2-2-|
E|------------------2-2-2-2-2-2-2-2-------------------4-4-4-4-4-4------------------|
PM   *****************************************************************************

E|-----------------------------------------|
B|-----------------------------------------|
G|------------------------------------6----|
D|-4-4-4-4-4-4-4-4--6-6-6-6-6-6-6-6---6--6-|
A|-4-4-4-4-4-4-4-4--6-6-6-6-6-6-6-6---4--6-|
E|-2-2-2-2-2-2-2-2--4-4-4-4-4-4-4-4------4-|
PM ***************

Solo
Guitar 1
e|-----------------------|------------2--0--2--0-|
B|-3-3-3-3-3-3-3-2-0-2---|-3-3-3-3-3--3-----3----|
G|---------------------2-|-----------------------|
D|-----------------------|-----------------------| \
A|-----------------------|-----------------------|  \
E|-----------------------|-----------------------|   \
                                                        x3
Guitar 2                                                
e|-----------------------|-----------------------|   /
B|-----------------------|-----------------------|  / 
G|-----------------------|----------6-6-6--------| /
D|--4-4-4-4-4--6-6-6-6-6-|-4-4-4-4--6-6-6--6-6-6-|
A|--4-4-4-4-4--6-6-6-6-6-|-4-4-4-4--4-4-4--6-6-6-|
E|--2-2-2-2-2--4-4-4-4-4-|-2-2-2-2---------4-4-4-|

Solo part 2
Guitar 1
e|-----------------------|------------10--------10--------|
B|-3-3-3-3-3-3-3-2-0-2---|-3-3-3-------------10----10-----|
G|---------------------2-|--------12b----12b---------12b/-|
D|-----------------------|--------------------------------| 
A|-----------------------|--------------------------------| 
E|-----------------------|--------------------------------|  

Guitar 2 
e|-----------------------|--------------------------------|   
B|-----------------------|--------------------------------|
G|-----------------------|--------------6--6--6-----------| 
D|--4-4-4-4-4--6-6-6-6-6-|-4--4--4--4---6--6--6---6--6--6-|
A|--4-4-4-4-4--6-6-6-6-6-|-4--4--4--4---4--4--4---6--6--6-|
E|--2-2-2-2-2--4-4-4-4-4-|-2--2--2--2-------------4--4--4-|

Outro Part 1 (played by bass)
G|-----------------------------------------|
D|-----------------------------------------|
A|-----4-----4------4-----4------4-----4---|
E|-2-2---2-2----4-4---4-4----2-2---2-2---4-|

Outro part 2 (played by bass)
G|-----------------------------------------------------|
D|-----------------------------------------------------|
A|-----4-----4------4-----4------4-----4-----4------4--|
E|-2-2---2-2----4-4---4-4----2-2---2-2---4-4----4-4----|

Order

Intro bass (played by bass)
Intro
Verse x5
Chorus
Post Chorus
Verse x4
Chorus
Post Chorus x2
Bridge
Solo 
Chorus
Post Chorus x2
Outro Part 1
Outro Part 2 x3

Lyrics:


(Verse 1)
My friend drove off the other day
Now he's gone and all they say
Is you gotta live cos life goes on		
Now I see I'm mortal too
I can't live my life like you
Gotta live it up while life goes on

(Chorus)
And I think it's all right
That I do what I like
Cuz that's the way I wanna live			
So I give
And I'm still givin’

(Verse 2)
Now I wonder about my friend
If he gave all he could give
Did he live his life like I live mine?		
If you could see inside my head
Then you'd start to understand
The things I value in my heart

(Chorus)
And I think it's all right
That I do what I like
Cuz that's the way I wanna live			
So I give
And I'm still givin

(Bridge)
You know that
I know that					
You're watching me

(Solo)

(Chorus)
And I think it's all right
That I do what I like
Cuz that's the way I wanna live			
So I give
And I'm still givin

(Outro)
Gotta make a plan
Gotta do what's right
Can't run around in circles
If you wanna build a life			
But I don't wanna make a plan
For a day far away
While I'm young and while I'm able
All I wanna do is.....

--------------------------------------------------------------------------------------
Green Day Geek Stink Breath
--------------------------------------------------------------------------------------

Intro
e|---------------------|  |-------| |------------------|  |---------|
B|---------------5-5---|  |-------| |------------------|  |---------|
G|---------------5-5---|  |-------| |------------------|  |---------|
D|-5-5--x-x-3-3--5-5---|x4|-5---5-| |-----3--------5---|x3|-3-3-3/5-|
A|-5-5--x-x-3-3--3-3---|  |-5---5-| |-3-3-3-x--5-5-5-x-|  |-3-3-3/5-|
E|-3-3--x-x-1-1--------|  |-3-3-3-| |-1-1-1-x--3-3-3-x-|  |-1-1-1/3-|
PM                            *       ***   *  ***   *

Verse
e|------------------|  |-------------------|
B|------------------|  |-------------------|
G|------------------|  |-------------------|
D|-----3--------5---|x7|-3-3-3-3-3-3-3-3/5-|
A|-3-3-3-x--5-5-5-x-|  |-3-3-3-3-3-3-3-3/5-|
E|-1-1-1-x--3-3-3-x-|  |-1-1-1-1-1-1-1-1/3-|
PM ***   *  ***   *   

Chorus
e|----------------|   |---------------|     |-----------------|
B|----------------|   |---------------|     |-----------------|
G|-3-3------------|   |---------------|     |-----------------|
D|-3-3-2-3--3-3-3-|x4 |-5-5---3-3-3/5-| x3  |-5-5-5-5-5-5-5-5-|
A|-1-1-2-3--3-3-3-|   |-5-5---3-3-3/5-|     |-5-5-5-5-5-5-5-5-|
E|-----0-1--1-1-1-|   |-3-3-0-1-1-1/3-|     |-3-3-3-3-3-3-3-3-|

Fill l
e|------------------|------------------|
B|------------------|------------------|
G|------------------|------------------|
D|-----3--------5---|-----3--------5---|
A|-3-3-3-x--5-5-5-x-|-3-3-3-x--5-5-5-x-|
E|-1-1-1-x--3-3-3-x-|-1-1-1-x--3-3-3-x-|
PM ***   *  ***   *   ***   *  ***   *    

Bridge
E|------------------------|------------------------|
B|---------------5-5------|---------------5-5------|
G|----------x-x--5-5------|----------x-x--5-5------|
D|-5-5-x-x--3-3--5-5------|-5-5-x-x--3-3--5-5------|
A|-5-5-x-x--3-3--3-3------|-5-5-x-x--3-3--3-3------|
E|-3-3-x-x--1-1------0----|-3-3-x-x--1-1------0----|

Outro
E|---------------------|---------------------|-----|
B|---------------5-5---|---------------5-5---|-----|
G|---------------5-5---|---------------5-5---|-----|
D|-5-5--x-x-3-3--5-5---|-5-5--x-x-3-3--5-5---|-5-5-|
A|-5-5--x-x-3-3--3-3---|-5-5--x-x-3-3--3-3---|-5-5-|
E|-3-3--x-x-1-1--------|-3-3--x-x-1-1------0-|-3-3-|


Order

Intro
Verse
Chorus
Fill l
Verse 
Chorus
Bridge x8
Chorus
Bridge x2
Outro

Lyrics

(Verse 1)
I'm on a mission
I've made my decision
To lead a path of self-destruction
Slow progression			
Killing my complexion
And it's rotting out my teeth

(Chorus)
I'm on a roll
No self-control
I'm blowing off steam
With amphetamines		
I don't know what I want
And it's all that I've got
And I'm picking scabs off my face

(Verse 2)
Every hour
My blood is turning sour
And my pulse is beating out of time
I found a treasure			
Filled with sick pleasure
And it sits on a thick white line

(Chorus)
I'm on a roll
No self-control
I'm blowing off steam
With amphetamines
I don't know what I want
And it's all that I've got
And I'm picking scabs off my face

(Bridge)

(Verse 3)
I'm on a mission
I got no decision
Like a cripple running the rat race
Wish in one hand			
Shit in the other
And see which one gets filled first

(Chorus)
I'm on a roll
No self-control
I'm blowing off steam
With amphetamines			
I don't know what I want
And it's all that I've got
And I'm picking scabs off my face

Geek...stink...breath!



--------------------------------------------------------------------------------------
Green Day Brain Stew
--------------------------------------------------------------------------------------

Riff 1
e|--------------------------|
B|--------------------------|
G|--------------------------|
D|--7-7--5-5--4-4--3-3--2-2-|
A|--7-7--5-5--4-4--3-3--2-2-|
E|--5-5--3-3--2-2--1-1--0-0-|

Riff 2
e|------------------------------------------------------------------|
B|------------------------------------------------------------------|
G|------------------------------------------------------------------|
D|--7-7-x-x-x-x-x-x-5-5-x-x-x-x-x-x-4-4-x-x-x-x-x-x-3-3-x-x-2-2-x-x-|
A|--7-7-x-x-x-x-x-x-5-5-x-x-x-x-x-x-4-4-x-x-x-x-x-x-3-3-x-x-2-2-x-x-|
E|--5-5-x-x-x-x-x-x-3-3-x-x-x-x-x-x-2-2-x-x-x-x-x-x-1-1-x-x-0-0-x-x-|

Riff 2a
e|------x-x-x-x-x-x-----x-x-x-x-x-x-----x-x-x-x-x-x-----x-x-----x-x--|
B|------x-x-x-x-x-x-----x-x-x-x-x-x-----x-x-x-x-x-x-----x-x-----x-x--|
G|-------------------------------------------------------------------|
D|--7-7-------------5-5-------------4-4-------------3-3-----2-2------|
A|--7-7-------------5-5-------------4-4-------------3-3-----2-2------|
E|--5-5-------------3-3-------------2-2-------------1-1-----0-0------|

Riff 3
e|----------------------------------|
B|----------------------------------|
G|----------------------------------|
D|--7-7--5-5-4-4----------3-3--2-2--|
A|--7-7--5-5-4-4----------3-3--2-2--|
E|--5-5--3-3-2-2--2/14\2--1-1--0-0--|

Riff 4
e|---------0--------------0--------------0-----------0--------0-|
B|-------0--------------0--------------0------------------------|
G|--------------------------------------------------------------|
D|--7-7-------7----5-5-------5----4-4-------4----3-3-----2-2----|
A|--7-7-------7----5-5-------5----4-4-------4----3-3-----2-2----|
E|--5-5-------5-0--3-3-------3-0--2-2-------2-0--1-1-----0-0----|


Order

Riff 1 x12
Riff 2 x2
Riff 1 x4
Riff 2 x2
Riff 2a x3
Riff 3
Riff 4 x6

End with
E|------|
B|------|
G|------|
D|-7-7~-|
A|-7-7~-|
E|-5-5~-|

(Verse 1)
I'm having trouble trying to sleep
I'm countin sheep but running out
As time ticks by, still I try		   
No rest for cross tops in my mind
On my own, here we go

(Verse 2)
My eyes feel like they're gonna bleed
Dried up and bulging out my skull
My mouth is dry; my face is numb	   
Fucked up and spun out in my room
On my own, here we go

(Verse 3)
My mind is set on overdrive
The clock is laughing in my face
Crooked spine, senses dulled		   
Passed the point of delirium
On my own, here we go

(Verse 2)
My eyes feel like they're gonna bleed
Dried up and bulging out my skull
My mouth is dry; my face is numb	   
Fucked up and spun out in my room
On my own, here we go


--------------------------------------------------------------------------------------
Green Day Jaded
--------------------------------------------------------------------------------------
Standard tuning

Intro
e|---------------|
B|---------------|
G|-------------6-| 
D|-6-6-6\4-4-4-6-| 
A|-6-6-6\4-4-4-4-|
E|-4-4-4\2-2-2---|

Verse 
e|----------------|    |---------------------|
B|----------------|    |---------------------|
G|-------------6--|    |---------------------|
D|-6-6-6\4-4-4-6--| x7 |-6-6-6-6-6-6-6-6-6-6-|
A|-6-6-6\4-4-4-4--|    |-6-6-6-6-6-6-6-6-6-6-|
E|-4-4-4\2-2-2----|    |-4-4-4-4-4-4-4-4-4-4-|

Chorus
e|---------------------------------------------------------------------|
B|---------------------------------------------------------------------|
G|-6-6-6-6-6-6-6-6-6-6-6-6-6-6-6-6-6-6-6-6--------------6--------------|
D|-6-6-6-6-6-6-6-6-6-6-6-6-6-6-6-6-6-6-6-6--6-6-6\4-4-4-6--6-6-6\4-4-4-|
A|-4-4-4-4-4-4-4-4-4-4-4-4-4-4-4-4-4-4-4-4--6-6-6\4-4-4-4--6-6-6\4-4-4-|
E|------------------------------------------4-4-4\2-2-2----4-4-4\2-2-2-|

e|-----------------------------------------------------------------------------------|
B|-----------------------------------------------------------------------------------|
G|-6-6-6-6-6-6-6-6-6-6-6-6-6-6-6-6-6-6-6--7--8-8-8-8-8-8-8-8-8-8-8-8-8-8-8-8-8-8-8-8-|
D|-6-6-6-6-6-6-6-6-6-6-6-6-6-6-6-6-6-6-6--7--8-8-8-8-8-8-8-8-8-8-8-8-8-8-8-8-8-8-8-8-|
A|-4-4-4-4-4-4-4-4-4-4-4-4-4-4-4-4-4-4-4--5--6-6-6-6-6-6-6-6-6-6-6-6-6-6-6-6-6-6-6-6-|
E|-----------------------------------------------------------------------------------|

Outro
e|---------------|--------------------|
B|---------------|--------------------|
G|-------------6-|-------------6--x---|
D|-6-6-6\4-4-4-6-|-6-6-6\4-4-4-6--x-6-|
A|-6-6-6\4-4-4-4-|-6-6-6\4-4-4-4--x-6-|
E|-4-4-4\2-2-2---|-4-4-4\2-2-2------4-|

Order

Intro (x2 with one guitar then x2 with band)
Verse
Chorus
Intro x2
Verse
Chorus
Verse
Chorus
Intro x2
Outro

Lyrics

(Verse 1)
Somebody keep my balance
I think I'm falling off
Into a state of regression
The expiration date			
Rapidly coming up
It's leaving me behind to rank

(Chorus)
Always move forward
Going straight will get you nowhere
There is no progress
Evolution killed it all
I found my place in nowhere

(Verse 2)
I'm taking one step sideways
Leaning with my crutch
Got a fucked-up equilibrium
Countdown from 9 to 5
Hooray we're gonna die
Blessed into our extinction

(Chorus)
Always move forward
Going straight will get you nowhere
There is no progress
Evolution killed it all
I found my place in nowhere

(Bridge)

(Chorus)
Always move forward
Going straight will get you nowhere
There is no progress
Evolution killed it all
I found my place in nowhere



--------------------------------------------------------------------------------------
Green Day Walking Contradiction
--------------------------------------------------------------------------------------

Intro
E|-------------------|-----------------|------------------|-----------------|
B|-------------------|-----------------|------------------|-----------------|
G|-------------------|-----------------|------------------|-----------------|
D|-7-----------------|-----------------|-7----------------|-----------------|
A|-7---7-7-7-7-7-7-7-|-7-7-7-7-7-7-7-7-|-7--7-7-7-7-7-7-7-|-7-7-7-7-7-7-7-7-|
E|-5---5-5-5-5-5-5-5-|-5-5-5-5-5-5-5-5-|-5--5-5-5-5-5-5-5-|-5-5-5-5-5-5-5-5-|
PM     *******************************

Verse
E|------------------------------|---------------------------------|
B|---------7--------------------|---------7--7--------------------|
G|------7--7--------------------|---------7--7--------------------|
D|------7--7--------------------|---------7--7--------------------|
A|-7-7--5--5-----5-5-5/7--7-7-7-|-7-7-----5--5-----5-5-5/7--7-7-7-|
E|-5-5--------0--3-3-3/5--5-5-5-|-5-5--0--------0--3-3—3/5--5-5-5-|

Chorus
E|-----------------------------------|------------------------------------|
B|-7--7------------------------------|-7--7-------------------------------|
G|-7--7------------------------------|-7--7-------------------------------|
D|-7--7------------------------------|-7--7-------------------------------|
A|-5--5-----5-5/7-(7)--7-7-7-7-7-7-7-|-5--5-----5--5/7-(7)--7-7-7-7-7-7-7-|
E|-------0--3—3/5-(5)--5-5-5-5-5-5-5-|-------0--3--3/5-(5)--5-5-5-5-5-5-5-|

Outro
E|----------------------------------|-----------------------------------|
B|------7--7------------------------|------7--7-------------------------|
G|------7--7------------------------|------7--7-------------------------|
D|------7--7------------------------|------7--7-------------------------|
A|-7----5--5----5-(5)--5/7--7-7-7-7-|-7----5--5-----5-(5)--5------------|
E|-5-0--------0-3-(3)--3/5--5-5-5-5-|-5--x-------0--3-(3)--3--0-0-0-x-x-|

E|-----------------------------------|---------------------------|
B|-------7--7------------------------|------7--7-----------------|
G|-------7--7------------------------|------7--7-----------------|
D|-------7--7------------------------|------7--7-----------------|
A|-7-7---5--5----5-(5)--5/7--7-7-7-7-|-7-7--5--5---5-(5)-5--7--7-|
E|-5-5---------0-3-(3)--3/5--5-5-5-5-|-5-5-------0-3-(3)-3--5--5-|

Order

Intro
Verse x9
Chorus x2
Verse x5
Chorus x4
Outro

Lyrics

(Verse 1)
Do as I say, not as I do because
The shit's so deep run can't run away
I beg to differ, on the contrary
I agree with every word that you say		
Talk is cheap and lies are expensive
My wallet's fat and so is my head
Hit and run and then I'll hit you again
I'm a smart-ass, but I'm playing dumb

(Verse 2)
Standards set and broken all the time
Control the chaos behind a gun
Call it as I see it even if
I was born deaf, blind, and dumb		
Losers winning big on the lottery
Rehab rejects still sniffing glue
Constant refutation with myself
I'm a victim of a catch 22

(Chorus)
I have no belief
But I believe I'm a
Walking contradiction
And I ain't got no right

(Verse 1)
Do as I say, not as I do because
The shit's so deep run can't run away
I beg to differ, on the contrary
I agree with every word that you say		
Talk is cheap and lies are expensive
My wallet's fat and so is my head
Hit and run and then I'll hit you again
I'm a smart-ass, but I'm playing dumb

(Chorus)
I have no belief
But I believe I'm a
Walking contradiction
And I ain't got no right

(Chorus)
I have no belief
But I believe I'm a
Walking contradiction
And I ain't got no right

--------------------------------------------------------------------------------------
Green Day Stuck with me
--------------------------------------------------------------------------------------

Intro
e|---------------------------------------------|
B|---------------------------------------------|
G|-9-9-9-9-9-9-9-9-----------------------------|
D|-9-9-9-9-9-9-9-9--11--9--7-7-7-7-7-7-7-7-7-7-|
A|-7-7-7-7-7-7-7-7--11--9--7-7-7-7-7-7-7-7-7-7-|
E|-------------------9--7--5-5-5-5-5-5-5-5-5-5-|

Verse
e|---------------------------------------------------------------------------------|
B|---------------------------------------------------------------------------------|
G|-9-------------9-9-9-9-9-9-9-x---------------------------------------------------|
D|-9-------------9-9-9-9-9-9-9-x--9-9-9-9-9-9-9-9-9--7-7-7-7--9-9-9-9-9-9--7-7-7-7-|
A|-7-------------7-7-7-7-7-7-7-x--9-9-9-9-9-9-9-9-9--7-7-7-7--9-9-9-9-9-9--7-7-7-7-|
E|---0-0-0-0-0-0------------------7-7-7-7-7-7-7-7-7--5-5-5-5--7-7-7-7-7-7--5-5-5-5-|
PM   ***********

e|---------------------------------------------------------------------------|
B|---------------------------------------------------------------------------|
G|--------------9-9-9-9-9-9-9-9-9-9------------------------------------------|
D|-9-9-9-9-9-9--9-9-9-9-9-9-9-9-9-9--9-9-9-9-9-9-9-9-9--7-7-7-7--9-9-9-9-9-9-|
A|-9-9-9-9-9-9--7-7-7-7-7-7-7-7-7-7--9-9-9-9-9-9-9-9-9--7-7-7-7--9-9-9-9-9-9-|
E|-7-7-7-7-7-7-----------------------7-7-7-7-7-7-7-7-7--5-5-5-5--7-7-7-7-7-7-|

e|----------------------|
B|----------------------|
G|----------------------|
D|-7-7-7-7--9-9-9-9-9-9-|
A|-7-7-7-7--9-9-9-9-9-9-|
E|-5-5-5-5--7-7-7-7-7-7-|

Chorus
e|-----------------------------------------------|   |----------------------|
B|-----------------------------------------------|   |----------------------|
G|-6-6-6-6-6-6-6-6-------9-9-9-9-9-9-9-9-9-9-9-9-|   |----------------------|
D|-6-6-6-6-6-6-6-6--7-7--9-9-9-9-9-9-9-9-9-9-9-9-|x3 |-7-7-7-7--9-9-9-9-9-9-|
A|-4-4-4-4-4-4-4-4--7-7--7-7-7-7-7-7-7-7-7-7-7-7-|   |-7-7-7-7--9-9-9-9-9-9-|
E|------------------5-5--------------------------|   |-5-5-5-5--7-7-7-7-7-7-|

e|-------------------------|
B|-------------------------|
G|-9-9-9-9-9-9-9-9-9-9-9-9-|
D|-9-9-9-9-9-9-9-9-9-9-9-9-|
A|-7-7-7-7-7-7-7-7-7-7-7-7-|
E|-------------------------|

Verse 2
e|---------------------------------------------------------------------------|
B|---------------------------------------------------------------------------|
G|-9-9-9-9-9-9-9-9-9-9-9-9---------------------------------------------------|
D|-9-9-9-9-9-9-9-9-9-9-9-9--9-9-9-9-9-9-9-9-9--7-7-7-7--9-9-9-9-9-9--7-7-7-7-|
A|-7-7-7-7-7-7-7-7-7-7-7-7--9-9-9-9-9-9-9-9-9--7-7-7-7--9-9-9-9-9-9--7-7-7-7-|
E|--------------------------7-7-7-7-7-7-7-7-7--5-5-5-5--7-7-7-7-7-7--5-5-5-5-|

e|----------------------------------------------------------------------------------|
B|----------------------------------------------------------------------------------|
G|--------------9---------------------9-9-9-----------------------------------------|
D|-9-9-9-9-9-9--9---------------------9-9-9--9-9-9-9-9-9-9-9-9--7-7-7-7--9-9-9-9-9-9|
A|-9-9-9-9-9-9--7---------------------7-7-7--9-9-9-9-9-9-9-9-9--7-7-7-7--9-9-9-9-9-9|
E|-7-7-7-7-7-7----0-0-0-0-0-0-0-0-0-0--------7-7-7-7-7-7-7-7-7--5-5-5-5--7-7-7-7-7-7|
PM                *******************

e|----------------------|
B|----------------------|
G|----------------------|
D|-7-7-7-7--9-9-9-9-9-9-|
A|-7-7-7-7--9-9-9-9-9-9-|
E|-5-5-5-5--7-7-7-7-7-7-|

Chorus 2
e|-----------------------------------------------|   |----------------------|
B|-----------------------------------------------|   |----------------------|
G|-6-6-6-6-6-6-6-6-------9-9-9-9-9-9-9-9-9-9-9-9-|   |----------------------|
D|-6-6-6-6-6-6-6-6--7-7--9-9-9-9-9-9-9-9-9-9-9-9-|x3 |-7-7-7-7--9-9-9-9-9-9-|
A|-4-4-4-4-4-4-4-4--7-7--7-7-7-7-7-7-7-7-7-7-7-7-|   |-7-7-7-7--9-9-9-9-9-9-|
E|------------------5-5--------------------------|   |-5-5-5-5--7-7-7-7-7-7-|

e|-----------------------------------------------------|
B|-----------------------------------------------------|
G|-9-9-9-9-9-9-9-9-9-9-9-9-----------------------------|
D|-9-9-9-9-9-9-9-9-9-9-9-9--11--9--7-7-7-7-7-7-7-7-7-7-|
A|-7-7-7-7-7-7-7-7-7-7-7-7--11--9--7-7-7-7-7-7-7-7-7-7-|
E|---------------------------9--7--5-5-5-5-5-5-5-5-5-5-|

Interlude
e|------------------------------------------------------------------|
B|------------------------------------------------------------------|
G|-8---x-x-x-x-x-x-x-x-x-x-x-x-x-x-x-x-x-x-x-x-x-x-x-x-x-x-x-9-9--x-|
D|-9---x-x-x-x-x-x-x-x-x-x-x-x-x-x-x-x-x-x-x-x-x-x-x-x-x-x-x-9-9--x-|
A|-9---x-x-x-x-x-x-x-x-x-x-x-x-x-x-x-x-x-x-x-x-x-x-x-x-x-x-x-7-7--x-|
E|-7---x-x-x-x-x-x-x-x-x-x-x-x-x-x-x-x-x-x-x-x-x-x-x-x-x-x-x--------|


Order

Intro x2
Verse 1
Chorus
Verse 2 (don’t PM the first chords)
Chorus 2
Intro x3
Interlude
Chorus

Lyrics

(Verse 1) 
I'm not part of your elite
I'm just all right
Class structures waving colours
Bleeding from my throat
Not subservient to you
I'm just all right
Down classed by the powers that be
Give me loss of hope

(Chorus)
Cast out, buried in a hole
Struck down, forcing me to fall
Destroyed, giving up the fight		
Well I know I'm not all right

(Verse 2)
What's my price and will you pay it?
If it's alright
Take it from my dignity
Waste it till it's dead
Throw me back into the gutter
Cuz it's all right
Find another pleasure fucker
Drag him down to hell

(Chorus)
Cast out, buried in a hole
Struck down, forcing me to fall
Destroyed, giving up the fight          
Well I know I'm not all right

(Bridge)

(Chorus)
Cast out, buried in a hole
Struck down, forcing me to fall
Destroyed, giving up the fight		
Well I know I'm not all right


--------------------------------------------------------------------------------------
Green Day Hitchin’ a Ride
--------------------------------------------------------------------------------------

Intro (Violin arranged For Guitar)
e|--------------------------------------------|
B|------4h5--7b~~----8------------------------|
G|-4h5------------------11--9--8bu-(9)-r--5~~-|
D|--------------------------------------------|
A|--------------------------------------------|
E|--------------------------------------------|

Main Riff 
E|------------------------|------------------------|
B|------------------------|------------------------|
G|------------------------|------------------------|
D|------------------------|------------------------|
A|-9-9--7-7--6-6--5-5-5-5-|-9-9--7-7--6-6--5-5-5-5-|
E|-7-7--5-5--4-4--3-3-3-3-|-7-7--5-5--4-4--3-3-3-3-|
PM ***********************************************

Pre Chorus
E|------------------------|----------|-----------------|
B|------------------------|----------|-----------------|
G|------------------------|----------|-----------------|
D|------------------------|----------|-6-6-6-6-5-5-5-5-|
A|-9-9--7-7--6-6--5-5-5-5-|-9-9--7-7-|-6-6-6-6-5-5-5-5-|
E|-7-7--5-5--4-4--3-3-3-3-|-7-7--5-5-|-4-4-4-4-3-3-3-3-|
PM *********************************

Chorus
E|------------------------|------------------------|------------------------|
B|------------------------|------------------------|------------------------|
G|------------------------|------------------------|------------------------|
D|-9-9--7-7--6-6--5-5-5-5-|-9-9--7-7--6-6--5-5-5-5-|-9-9--7-7--6-6--5-5-5-5-|
A|-9-9--7-7--6-6--5-5-5-5-|-9-9--7-7--6-6--5-5-5-5-|-9-9--7-7--6-6--5-5-5-5-|
E|-7-7--5-5--4-4--3-3-3-3-|-7-7--5-5--4-4--3-3-3-3-|-7-7--5-5--4-4--3-3-3-3-|

E|---------------|
B|---------------|
G|---------------|
D|-9-9--7-7--6-6-|
A|-9-9--7-7--6-6-|
E|-7-7--5-5--4-4-|

Chorus 2
E|------------------------|------------------------|------------------------|
B|------------------------|------------------------|------------------------|
G|------------------------|------------------------|------------------------|
D|-9-9--7-7--6-6--5-5-5-5-|-9-9--7-7--6-6--5-5-5-5-|-9-9--7-7--6-6--5-5-5-5-|
A|-9-9--7-7--6-6--5-5-5-5-|-9-9--7-7--6-6--5-5-5-5-|-9-9--7-7--6-6--5-5-5-5-|
E|-7-7--5-5--4-4--3-3-3-3-|-7-7--5-5--4-4--3-3-3-3-|-7-7--5-5--4-4--3-3-3-3-|

E|----------------------------------|---------------------|-----------------------|
B|----------------------------------|---------------------|-----------------------|
G|----------------------------------|-1-1-1-1-1-----------|-----------------------|
D|9-9-9-9--7-7-7-7--6-6-6-6--5-5-5-5|-2-2-2-2-2--4-4-4-4-4|-9-9--7-7--6-6--5-5-5-5|
A|9-9-9-9--7-7-7-7--6-6-6-6--5-5-5-5|-2-2-2-2-2--4-4-4-4-4|-9-9--7-7--6-6--5-5-5-5|
E|7-7-7-7--5-5-5-5--4-4-4-4--3-3-3-3|-0-0-0-0-0--2-2-2-2-2|-7-7--5-5--4-4--3-3-3-3|

E|----------------------|
B|----------------------|
G|-1-1-1-1-1------------|
D|-2-2-2-2-2--4-4-4-4-4-|
A|-2-2-2-2-2--4-4-4-4-4-|
E|-0-0-0-0-0--2-2-2-2-2-|

Pre Solo
E|------------------------|------------------------|------------------------|
B|------------------------|------------------------|------------------------|
G|------------------------|------------------------|------------------------|
D|------------------------|------------------------|------------------------|
A|-9-9--7-7--6-6--5-5-5-5-|-9-9--7-7--6-6--5-5-5-5-|-9-9--7-7--6-6--5-5-5-5-|
E|-7-7--5-5--4-4--3-3-3-3-|-7-7--5-5--4-4--3-3-3-3-|-7-7--5-5--4-4--3-3-3-3-|
PM ************************************************************************

E|------------------------|------------------------|
B|------------------------|------------------------|
G|------------------------|------------------------|
D|------------------------|------------------------|
A|-9-9--7-7--6-6--5-5-5-5-|-9-9--7-7--6-6--5-5-5-5-|
E|-7-7--5-5--4-4--3-3-3-3-|-7-7--5-5--4-4--3-3-3-3-|
PM ***********************************************

Solo
Guitar 1
E|-----------------------------------------------------------------------------|
B|-----------------------------------------------------------------------------|
G|-----------------------------------------------------------------------------|
D|-9-9-9-9-9-9-9-9--12-12-12-12-12-12-12-12--9-9-9-9-9-9-9-9--5-5-5-5--4-4-4-4-|
A|-x-x-x-x-x-x-x-x---x--x--x--x--x--x--x--x--x-x-x-x-x-x-x-x--x-x-x-x--x-x-x-x-|
E|-7-7-7-7-7-7-7-7--10-10-10-10-10-10-10-10--7-7-7-7-7-7-7-7--3-3-3-3--2-2-2-2-|

Guitar 2
E|------------------------------------------|-----------------------------------|
B|------------------------------------------|-----------------------------------|
G|------------12---12-----------------------|----------12--12-------------------|
D|---9---9----12---12----12---12---4--4---4-|---9--9---12--12---12--12---4-4--4-|
A|---9---9----10---10----12---12---4--4---4-|---9--9---10--10---12--12---4-4--4-|
E|---7---7---------------10---10---2--2---2-|---7--7------------10--10---2-2--2-|

Guitar 1
E|-------------------------------------------------------------------------------------|
B|-------------------------------------------------------------------------------------|
G|-------------------------------------------------------------------------------------|
D|-9-9-9-9-9-9-9-9-12-12-12-12-12-12-12-12-14-14-14-14-14-14-14-14-14-14-14-14-14141414|
A|-x-x-x-x-x-x-x-x--x--x--x--x--x--x--x--x--x--x--x--x--x--x--x--x--x--x--x--x—-x-x-x-x|
E|-7-7-7-7-7-7-7-7-10-10-10-10-10-10-10-10-12-12-12-12-12-12-12-12-12-12-12-12-12121212|

Guitar 2
E|------------------------------------------|------------------------------------------|
B|------------------------------------------|------------------------------------------|
G|------------12---12-----------------------|----------12----12------------------------|
D|---9---9----12---12----12---12---4--4---4-|---9--9---12----12-----12-----12---4--4--4|
A|---9---9----10---10----12---12---4--4---4-|---9--9---10----10-----12-----12---4--4--4|
E|---7---7---------------10---10---2--2---2-|---7--7----------------10-----10---2--2--2|

Guitar 1
E|-----------------------|-----------------------|-----------------------|
B|-----------------------|-----------------------|-----------------------|
G|-11--9-6-9--11--9-6-9--|-11--9-6-9--11--9-6-9--|-11--9-6-9--11--9-6-9--|
D|--x--x-x-x---x--x-x-x--|--x--x-x-x---x--x-x-x--|--x--x-x-x---x--x-x-x--|
A|--9--7-4-7---9--7-4-7--|--9--7-4-7---9--7-4-7--|--9--7-4-7---9--7-4-7--|
E|-----------------------|-----------------------|-----------------------|

Guitar 2
E|-----------------------|-----------------------|-----------------------|
B|-----------------------|-----------------------|-----------------------|
G|-----12-12-------------|-----12-12-------------|-----12-12-------------|
D|-9-9-12-12-12-12-4-4-4-|-9-9-12-12-12-12-4-4-4-|-9-9-12-12-12-12-4-4-4-|
A|-9-9-10-10-12-12-4-4-4-|-9-9-10-10-12-12-4-4-4-|-9-9-10-10-12-12-4-4-4-|
E|-7-7-------10-10-2-2-2-|-7-7-------10-10-2-2-2-|-7-7-------10-10-2-2-2-|

Guitar 1
E|-------------------------------------------------|
B|-------------------------------------------------|
G|-------------------------------------------------|
D|-14-14-14-14-14-14-14-14-14-14-14-14-14-14-14-14-|
A|--x--x--x--x--x--x--x--x--x--x--x--x--x--x—-x--x-|
E|-12-12-12-12-12-12-12-12-12-12-12-12-12-12-12-12-|

Guitar 2
E|-------------------------------------------------|
B|-------------------------------------------------|
G|------------12----12-----------------------------|
D|---9---9----12----12----12----12----4----4----4--|
A|---9---9----10----10----12----12----4----4----4--|
E|---7---7----------------10----10----2----2----2--|

Post Solo
E|----------------------|-------------------------|----------------------|
B|----------------------|-------------------------|----------------------|
G|-1-1-1-1-1------------|-------------------------|-1-1-1-1-1------------|
D|-2-2-2-2-2--4-4-4-4-4-|--9-9--7-7--6-6--5-5-5-5-|-2-2-2-2-2--4-4-4-4-4-|
A|-2-2-2-2-2--4-4-4-4-4-|--9-9--7-7--6-6--5-5-5-5-|-2-2-2-2-2--4-4-4-4-4-|
E|-0-0-0-0-0--2-2-2-2-2-|--7-7--5-5--4-4--3-3-3-3-|-0-0-0-0-0--2-2-2-2-2-|

Outro
E|-----------------------|-----------------------|-----------------------|
B|-----------------------|-----------------------|-----------------------|
G|-----12-12-------------|-----12-12-------------|-----12-12-------------|
D|-9-9-12-12-12-12-4-4-4-|-9-9-12-12-12-12-4-4-4-|-9-9-12-12-12-12-4-4-4-|
A|-9-9-10-10-12-12-4-4-4-|-9-9-10-10-12-12-4-4-4-|-9-9-10-10-12-12-4-4-4-|
E|-7-7-------10-10-2-2-2-|-7-7-------10-10-2-2-2-|-7-7-------10-10-2-2-2-|

E|-----------------------|------------------------------------------|
B|-----------------------|------------------------------------------|
G|-----12-12-------------|------------------------------------------|
D|-9-9-12-12-12-12-4-4-4-|-9-9-9-9-9-9-9-9--12-12-12-12-12-12-12-12-|
A|-9-9-10-10-12-12-4-4-4-|-x-x-x-x-x-x-x-x---x--x--x--x--x--x--x--x-|
E|-7-7-------10-10-2-2-2-|-7-7-7-7-7-7-7-7--10-10-10-10-10-10-10-10-|

E|-----------------------------------|-----------------------------------------|
B|-----------------------------------|-----------------------------------------|
G|-----------------------------------|-----------------------------------------|
D|-9-9-9-9-9-9-9-9--5-5-5-5--4-4-4-4-|-9-9-9-9-9-9-9-9-12-12-12-12-12-12-12-12-|
A|-x-x-x-x-x-x-x-x--x-x-x-x--x-x-x-x-|-x-x-x-x-x-x-x-x--x--x--x--x--x--x--x--x-|
E|-7-7-7-7-7-7-7-7--3-3-3-3--2-2-2-2-|-7-7-7-7-7-7-7-7-10-10-10-10-10-10-10-10-|

  Gradual bend_____________full bend and hold
E|-------------------------------------------------|
B|-------------------------------------------------|
G|-------------------------------------------------|
D|-14-14-14-14-14-14-14-14-14-14-14-14-14-14-14-14-|
A|--x--x--x--x--x--x--x--x--x--x--x--x--x--x—-x--x-|
E|-12-12-12-12-12-12-12-12-12-12-12-12-12-12-12-12-|

Order

Violin Intro
Main Riff x4
Pre Chorus 
Chorus
Main Riff x 3
Pre Chorus
Chorus 2
Pre Solo
Solo
Post Solo
Outro		

Lyrics

(Verse) (With main riff)
Hey mister, where you headed?
Are you in a hurry?
I need a lift to happy hour.
Say oh no.
Do you brake for distilled spirits?
I need a break as well.
The well that inebriates the guilt.
1, 2...

(Pre Chorus)
1, 2, 3, 4.

	
(Verse) (With main riff)
Cold turkey's getting stale,
Tonight I'm eating crow.
Fermented salmonella poison oak no.
There's a drought at the fountain of youth 
And I'm dehydrated
My tongue is swelling up, 
A say 1, 2...

(Pre Chorus)
1, 2, 3, 4.

(Chorus)

(Chorus 2)
Troubled times, you know I cannot lie.
I'm off the wagon and I'm hitchin' a ride.

(Pre-Solo)
There's a drought at the fountain of youth 
And I'm dehydrated
My tongue is swelling up, 
A say, shite!

Solo

(Post solo)
Troubled times, you know I cannot lie.
I'm off the wagon and I'm hitchin' a ride.


(Outro)
(Don't know where im going) Hitchin’ a ride
(Don't know where im going) Hitchin’ a ride
(Don't know where im going) Hitchin’ a ride
(Don't know where im going) Hitchin’ a ride
(Don't know where im going) Hitchin’ a ride
(Don't know where im going) Hitchin’ a ride
(Don't know where im going) Hitchin’ a ride

--------------------------------------------------------------------------------------
Green Day Good Riddance (Time of your life)
--------------------------------------------------------------------------------------

Intro
e|-------------------|------3-----------3-----------3------------3-----|
B|-------------------|--------3-----------3-----------3------------3---|
G|-----0--------0----|----------0-----------0-----------0-----2------2-|
D|---0---0----0---0--|---0-----------0-----------2----------0----------|
A|-------------------|-------------------------3-----------------------|
E|-3--------3--------|-3-----------3-----------------------------------|

Verse 1
e|------3-----------3-----------3------------3-----|
B|--------3-----------3-----------3------------3---|
G|----------0-----------0-----------0-----2------2-|
D|---0-----------0-----------2----------0----------| x2
A|-------------------------3-----------------------|
E|-3-----------3—----------------------------------|

Verse 1 (cont)
e|------3------------3-----------3-----------3-----|
B|--------3------------3-----------3-----------3---|
G|----------0-----2------2-----------0-----------0-|
D|---2----------0-------------2-----------0--------| x2
A|--------------------------3----------------------|
E|-0------------------------------------3----------|

Chorus 1
e|------3-----------3-----------3-----------3------------3-----------3------|
B|--------3-----------3-----------3-----------3------------3-----------3----|
G|----------0-----------0-----------0-----------0------------0-----2-----2--|
D|---2-----------0-----------2-----------0------------2----------0----------|
A|--------------------------------------------------------------------------|
E|-0-----------3-----------0-----------3------------0-----------------------|

Post chorus (this looks strange but sounds great –while playing the higher
strings just lightly strum over.
e|---3-3-3-3-3-3-3-3-3----3-3-3-3-3--3-3-3-3-3-3-|
B|---3-3-3-3-3-3-3-3-3----3-3-3-3-3--3-3-3-3-3-3-|
G|-0-0-0-0-0-0-0-0-0-0--0-0-0-0-0-0--2-2-2-2-2-2-|
D|-0-0-0-0-0-0-0-0-0-0--2-2-2-2-2-2--0-0-0-0-0-0-| x2
A|-2--------------------3------------------------|
E|-3---------------------------------------------|

Verse 2
e|-3-3-3-3-3-3-3-3-3-3--3-3-3-3-3--3-3-3-3-3-3-3-|
B|-3-3-3-3-3-3-3-3-3-3--3-3-3-3-3--3-3-3-3-3-3-3-|
G|-0-0-0-0-0-0-0-0-0-0--0-0-0-0-0--2-2-2-2-2-2-2-|
D|-0-0-0-0-0-0-0-0-0-0--2-2-2-2-2--0-0-0-0-0-0-0-| x2
A|-2-2-2-2-2-2-2-2-2-2--3-3-3-3-3----------------|
E|-3-3-3-3-3-3-3-3-3-3---------------------------|

Verse 2 (cont)
e|----------2-2-2-2-2-2--0-0-0-0--3-3-3-3-3-3-|
B|----------3-3-3-3-3-3--1-1-1-1--3-3-3-3-3-3-|
G|-0-0-0-0--2-2-2-2-2-2--0-0-0-0--0-0-0-0-0-0-|
D|-2-2-2-2--0-0-0-0-0-0--2-2-2-2--0-0-0-0-0-0-| x2
A|-2-2-2-2---------------3-3-3-3--2-2-2-2-2-2-|
E|-0-0-0-0------------------------3-3-3-3-3-3-|

Chorus 2
e|----------3-3-3-3-3-3-----------3-3-3-3-3-3-----------2-2-2-2-2-2-|
B|----------3-3-3-3-3-3-----------3-3-3-3-3-3-----------3-3-3-3-3-3-|
G|-0-0-0-0--0-0-0-0-0-0--0-0-0-0--0-0-0-0-0-0--0-0-0-0--2-2-2-2-2-2-|
D|-2-2-2-2--0-0-0-0-0-0--2-2-2-2--0-0-0-0-0-0--2-2-2-2--0-0-0-0-0-0-|
A|-2-2-2-2--2-2-2-2-2-2--2-2-2-2--2-2-2-2-2-2--2-2-2-2--------------|
E|-0-0-0-0--3-3-3-3-3-3--0-0-0-0--3-3-3-3-3-3--0-0-0-0--------------|

Interlude
e|-3-3-3-3-3-3-3-3-3-3--3-3-3-3-3--2-2-2-2-2-2-2-|
B|-3-3-3-3-3-3-3-3-3-3--3-3-3-3-3--3-3-3-3-3-3-3-|
G|-0-0-0-0-0-0-0-0-0-0--0-0-0-0-0--2-2-2-2-2-2-2-|
D|-0-0-0-0-0-0-0-0-0-0--2-2-2-2-2--0-0-0-0-0-0-0-| x4
A|-2-2-2-2-2-2-2-2-2-2--3-3-3-3-3----------------|
E|-3-3-3-3-3-3-3-3-3-3---------------------------|

Interlude (cont)
e|----------2-2-2-2-2-3--0-0-0-0--3-3-3-3-3-3-|
B|----------3-3-3-3-3-3--1-1-1-1--3-3-3-3-3-3-|
G|-0-0-0-0--2-2-2-2-2-2--0-0-0-0--0-0-0-0-0-0-|
D|-2-2-2-2--0-0-0-0-0-0--2-2-2-2--0-0-0-0-0-0-|
A|-2-2-2-2---------------3-3-3-3--2-2-2-2-2-2-|
E|-0-0-0-0------------------------3-3-3-3-3-3-|

Chorus 3
e|----------3-3-3-3-3-3-----------3-3-3-3-3-3-----------2-2-2-2-2-2-|
B|----------3-3-3-3-3-3-----------3-3-3-3-3-3-----------3-3-3-3-3-3-|
G|-0-0-0-0--0-0-0-0-0-0--0-0-0-0--0-0-0-0-0-0--0-0-0-0--2-2-2-2-2-2-|
D|-2-2-2-2--0-0-0-0-0-0--2-2-2-2--0-0-0-0-0-0--2-2-2-2--0-0-0-0-0-0-|
A|-2-2-2-2--2-2-2-2-2-2--2-2-2-2--2-2-2-2-2-2--2-2-2-2--------------|
E|-0-0-0-0--3-3-3-3-3-3--0-0-0-0--3-3-3-3-3-3--0-0-0-0--------------|

Pre outro (This time play close attention to the lower strings and listen to the
song to pick up the rhythm because it changes a lot here)
e|-3-3-3-3-3-3-3-3-3-3--3-3-3-3-3--2-2-2-2-2-2-2-|
B|-3-3-3-3-3-3-3-3-3-3--3-3-3-3-3--3-3-3-3-3-3-3-|
G|-0-0-0-0-0-0-0-0-0-0--0-0-0-0-0—-2-2-2-2-2-2-2-|
D|-0-0-0-0-0-0-0-0-0-0--2-2-2-2-2--0-0-0-0-0-0-0-| x2
A|-2-2-2-2-2-2-2-2-2-2--3-3-3-3-3----------------|
E|-3-3-3-3-3-3-3-3-3-3---------------------------|

Outro
e|-----3----------3----------3----------3-----------3----------3------|
B|-------3----------3----------3----------3-----------3----------3----|
G|---------0----------0----------0----------0-----------0----2-----2--|
D|---2----------0----------2----------0-----------2--------0----------|
A|--------------------------------------------------------------------|
E|-0----------3----------0----------3-----------0---------------------|

e|-----3----------3----------3----------3-----------3----------3-------|
B|-------3----------3----------3----------3-----------3----------3-----|
G|---------0----------0----------0----------0-----------0----------0---|
D|---2----------0----------2----------0-----------2----------0---------|
A|---------------------------------------------------------------------|
E|-0----------3----------0----------3-----------0----------3-----------|

e|------3------------3-----------3~--|
B|--------3------------3---------3~--|
G|----------0-----2------2-------0~--|
D|---2----------0----------0-----0~--|
A|---------------------------0---2~--|
E|-0-----------------------------3~--|


(Verse 1)
Another turning point, 
A fork stuck in the road
Time grabs you by the wrist, 
Directs you where to go
So make the best of this test and don't ask why
It's not a question, but a lesson learned in time

(Chorus)
It's something unpredictable, 
But in the end is right
I hope you had the time of your life

(Verse 2)
So take the photographs and still frames in your mind
Hang it on a shelf in good health and good time
Tattoos of memories and dead skin on trial
For what it's worth, it was worth all the while

(Chorus)
It's something unpredictable, 
But in the end is right
I hope you had the time of your life

(Chorus)
It's something unpredictable, 
but in the end is right
I hope you had the time of your life
It's something unpredictable, 
but in the end is right
I hope you had the time of your life



--------------------------------------------------------------------------------------
Green Day Redundant
--------------------------------------------------------------------------------------
Guitars one and two tabbed for you lucky lucky people!!!

Intro
Guitar 1
e|----------------------------------------------------------------------------|
B|----2----------2-------------2----------------------------------3-------3---|
G|------2----------2-------------2---------------------------4--------4-------|
D|----------------------------------------4-4-4-4-4-4-4-4---------------------|
A|----------------------------------------4-4-4-4-4-4-4-4-0-------------------|
E|-5-------4h5-4-------2h4--3-------3--0--2-2-2-2-2-2-2-2-0-------------------|

Guitar 2
e|----------------------------------------------------------------------------|
B|----------------------------------------------------------------------------|
G|------------------------------------------------------------4-4-4-4-4-4-4-4-|
D|----------------------------------------4-4-4-4-4-4-4-4-----4-4-4-4-4-4-4-4-|
A|----------------------------------------4-4-4-4-4-4-4-4-0---2-2-2-2-2-2-2-2-|
E|-5-------4h5-4-------2h4--3-------3--0--2-2-2-2-2-2-2-2-0-------------------|

Intro cont
Guitar 1
e|--------------------------------------------------|
B|--------------------------------------------------|
G|-7-7-7-7-7-7-7-7--2-2-2-2-2-2-2-2-2-2-2-2-----9-9-|
D|-7-7-7-7-7-7-7-7--2-2-2-2-2-2-2-2-2-2-2-2-----9-9-|
A|-5-5-5-5-5-5-5-5--0-0-0-0-0-0-0-0-0-0-0-0-----7-7-|
E|-------------------------------------------0------|

Guitar 2
e|--------------------------------------------------|
B|--------------------------------------------------|
G|-7-7-7-7-7-7-7-7--2-2-2-2-2-2-2-2-2-2-2-2-----9-9-|
D|-7-7-7-7-7-7-7-7--2-2-2-2-2-2-2-2-2-2-2-2-----9-9-|
A|-5-5-5-5-5-5-5-5--0-0-0-0-0-0-0-0-0-0-0-0-----7-7-|
E|-------------------------------------------0------|

Verse
Guitar 1
e|--------------------------2-------------------2---------------|
B|-------2---------------3----3-----------------3--------2------|
G|----2------2--------2---------2------------2--2------2---2----|
D|-------------2----0---------------------2-----0------------2--|
A|-0---------------------------------0--------------0-----------|
E|--------------------------------------------------------------|

Guitar 2
e|--------------------------------------------------------------|
B|--------------------------------------------------------------|
G|------------------7-7-7-7-7-7-7-7--------------7--------------|
D|-7-7-7-7-7-7-7-7--7-7-7-7-7-7-7-7--7-7-7-7-7-7-7--7-7-7-7-7-7-|
A|-7-7-7-7-7-7-7-7--5-5-5-5-5-5-5-5--7-7-7-7-7-7-5--7-7-7-7-7-7-|
E|-5-5-5-5-5-5-5-5-------------------5-5-5-5-5-5----5-5-5-5-5-5-|

Guitar 1
e|--------------------2---------------------------------------|
B|-----2------------3----3------------------------------------|
G|---2----2-------2---------2---------------------------------|
D|----------2---0----------------2-2-2-2-2-2-2-2-2-2-2-2--5-5-|
A|-0-----------------------------2-2-2-2-2-2-2-2-2-2-2-2--5-5-|
E|-------------------------------0-0-0-0-0-0-0-0-0-0-0-0--3-3-|

Guitar 2
e|------------------------------------------------------------|
B|------------------------------------------------------------|
G|--------------7-7-7-7-7-7-7-7-------------------------------|
D|-7-7-7-7-7-7--7-7-7-7-7-7-7-7--2-2-2-2-2-2-2-2-2-2-2-2--5-5-|
A|-7-7-7-7-7-7--5-5-5-5-5-5-5-5--2-2-2-2-2-2-2-2-2-2-2-2--5-5-|
E|-5-5-5-5-5-5-------------------0-0-0-0-0-0-0-0-0-0-0-0--3-3-|

Guitar 1
e|--------------------------2-------------------2---------------|
B|-------2---------------3----3-----------------3--------2------|
G|----2------2--------2---------2------------2--2------2---2----|
D|-------------2----0---------------------2-----0------------2--|
A|-0---------------------------------0--------------0-----------|
E|--------------------------------------------------------------|

Guitar 2
e|--------------------------------------------------------------|
B|--------------------------------------------------------------|
G|------------------7-7-7-7-7-7-7-7--------------7--------------|
D|-7-7-7-7-7-7-7-7--7-7-7-7-7-7-7-7--7-7-7-7-7-7-7--7-7-7-7-7-7-|
A|-7-7-7-7-7-7-7-7--5-5-5-5-5-5-5-5--7-7-7-7-7-7-5--7-7-7-7-7-7-|
E|-5-5-5-5-5-5-5-5-------------------5-5-5-5-5-5----5-5-5-5-5-5-|

Guitar 1
e|--------------------2------------------------------------|
B|-----2------------3----3---------------------------------|
G|---2----2-------2---------2----9-9-9-9-9-9-9-9-9-9-9-9-9-|
D|----------2---0----------------9-9-9-9-9-9-9-9-9-9-9-9-9-|
A|-0-----------------------------7-7-7-7-7-7-7-7-7-7-7-7-7-|
E|---------------------------------------------------------|

Guitar 2
e|---------------------------------------------------------|
B|---------------------------------------------------------|
G|--------------7-7-7-7-7-7-7-7--9-9-9-9-9-9-9-9-9-9-9-9-9-|
D|-7-7-7-7-7-7--7-7-7-7-7-7-7-7--9-9-9-9-9-9-9-9-9-9-9-9-9-|
A|-7-7-7-7-7-7--5-5-5-5-5-5-5-5--7-7-7-7-7-7-7-7-7-7-7-7-7-|
E|-5-5-5-5-5-5---------------------------------------------|

Chorus
Guitar 1
e|------------------------------------------------------------------------|
B|-------2----------------2----------------2--------------------2---------|
G|-----------2---------------2----------------2-------------3-----------3-|
D|--------------------------------------------------------4-------------4-|
A|------------------------------------------------------------------------|
E|-5----------------4----------------3----------------2-------------------|

Guitar 2
e|------------------------------------------------------------------------|
B|------------------------------------------------------------------------|
G|------------------------------------------------------------------------|
D|------------------------------------------------------------------------|
A|----------------------------------------------------4-4-4-4-4-4-4-4-4-4-|
E|-5-5-5-5-5-5-5-5--4-4-4-4-4-4-4-4--3-3-3-3-3-3-3-3--2-2-2-2-2-2-2-2-2-2-|

Guitar 1
e|-----2-------2----2--2-2-2-3--2---------------------------------|
B|-----3--3-3--3----3--3-3-3-3--3---------------------------------|
G|-4---4--4-4--4----2--2-2-2-2--2---------------------------------|
D|-----4--4-4--4----0--0-0-0-0--0----7-7-7-7-7-7-7-7-7-7-7----2-2-|
A|-----------------------------------7-7-7-7-7-7-7-7-7-7-7----2-2-|
E|-----------------------------------5-5-5-5-5-5-5-5-5-5-5-0--0-0-|

Guitar 2
e|----------------------------------------------------------------|
B|------------------------------------------------------------9-9-|
G|-4-4-4-4-4-4-4-0--7-7-7-7-7-7-7-0---------------------------9-9-|
D|-4-4-4-4-4-4-4-0--7-7-7-7-7-7-7-0--7-7-7-7-7-7-7-7-7-7-7----9-9-|
A|-2-2-2-2-2-2-2-0--5-5-5-5-5-5-5-0--7-7-7-7-7-7-7-7-7-7-7----7-7-|
E|-----------------------------------5-5-5-5-5-5-5-5-5-5-5-0------|

Solo (iv tabbed guitar 2 here as chord symbols cos its easier to read)
  A5		   D5		   A5             D5  A5
e|------------------|-------2----------|---------------2--|---------5-------|
B|---------2--------|-----3-----3------|-------2-------3--|-------2---------|
G|------2----2----2-|---2----------2---|-----2-----2---2--|-----2-----------|
D|---2---------2----|-0--------------0-|---2-----------0--|---2-------------|
A|-0----------------|------------------|-0----------------|-0---------------|
E|------------------|------------------|------------------|------------5-4--|

  F#5                B5                 E5                              G5
e|------------------|------------------|--------0---------|-----------------|
B|---------------2--|-------3----------|--------0---0-----|-----------------|
G|-------3----------|-----4------4-----|-----1----------1-|-----------------|
D|-----4-----4------|---4-----------4--|---2--------------|-----------------|
A|---4--------------|-2----------------|------------------|-2--2--2--2--5--5|
E|-2----------------|------------------|-0----------------|-0--0--0--0--3--3|

  A5                 D5                 A5             G#5  A5             G#5
e|------------------|-------0----------|------------------|-----------------|
B|-------2----------|-----3----3-------|-------2----------|-------2---------|
G|-----2----2-----2-|---2---------2----|-----2------2-----|-----2------2----|
D|---2---------2----|-0--------------0-|---2-----------2--|---2-----------2-|
A|-0----------------|------------------|-0----------------|-0---------------|
E|------------------|------------------|------------------|-----------------|

 F#5                 B5                 E5
e|------------------|------------------|------------------|-----------------|
B|------------------|-------3----------|------------------|-----------------|
G|-------3----------|-----4-----4------|-------2----1-----|-----------------|
D|-----4-----4---4--|---4-----------4--|-----2---------2--|-2---------------|
A|---4--------------|-2----------------|---2--------------|----2-2-2--2-2-2-|
E|-2----------------|------------------|-0----------------|----0-0-0--0-0-0-|

Chorus 2
Guitar 1
e|------------------------------------------------------------------------|
B|-------2----------------2----------------2--------------------2---------|
G|-----------2---------------2----------------2-------------3-----------3-|
D|--------------------------------------------------------4-------------4-|
A|------------------------------------------------------------------------|
E|-5----------------4----------------3----------------2-------------------|

Guitar 2
e|------------------------------------------------------------------------|
B|------------------------------------------------------------------------|
G|------------------------------------------------------------------------|
D|------------------------------------------------------------------------|
A|----------------------------------------------------4-4-4-4-4-4-4-4-4-4-|
E|-5-5-5-5-5-5-5-5--4-4-4-4-4-4-4-4--3-3-3-3-3-3-3-3--2-2-2-2-2-2-2-2-2-2-|

Guitar 1
e|-----2-------2----2--2-2-2-3--2-------------------------------------|
B|-----3--3-3--3----3--3-3-3-3--3-------------------------------------|
G|-4---4--4-4--4----2--2-2-2-2--2-------------------------------------|
D|-----4--4-4--4----0--0-0-0-0--0----7-7-7-7-7-7-7-7--7-7-7-7-7-7-7-7-|
A|-----------------------------------7-7-7-7-7-7-7-7--7-7-7-7-7-7-7-7-|
E|-----------------------------------5-5-5-5-5-5-5-5--5-5-5-5-5-5-5-5-|

Guitar 2
e|--------------------------------------------------------------------|
B|--------------------------------------------------------------------|
G|-4-4-4-4-4-4-4-0--7-7-7-7-7-7-7-0-----------------------------------|
D|-4-4-4-4-4-4-4-0--7-7-7-7-7-7-7-0--7-7-7-7-7-7-7-7--7-7-7-7-7-7-7-7-|
A|-2-2-2-2-2-2-2-0--5-5-5-5-5-5-5-0--7-7-7-7-7-7-7-7--7-7-7-7-7-7-7-7-|
E|-----------------------------------5-5-5-5-5-5-5-5--5-5-5-5-5-5-5-5-|

Outro
Guitar 1
e|----------------------------------------------|
B|----2-----------2------------2----------------|
G|------2-----------2------------2--------------|
D|----------------------------------------------|
A|----------------------------------------------|
E|-5-----------4------------3-------------2~~~--|

Guitar 2
e|----------------------------------------------|
B|----------------------------------------------|
G|----------------------------------------------|
D|----------------------------------------------|
A|----------------------------------------------|
E|-5bu-----4h5-4bu-----2h4--3-------3p0-0-2~~~--|

Order

Intro
Verse
Chorus
Verse
Chorus
Solo
Chorus 2 x2
Outro

(Verse)
We're living in repetition
Content in the same old shtick again
Now the routine's turning to contention,
Like a production line going over 
And over and over, roller coaster

(Chorus)
Now I cannot speak, I've lost my voice
I'm speechless and redundant
Cos’ I love you (is) not enough
I'm lost for words

(Verse)
Choreographed and lack of passion
Prototypes of what we were
Went full circle til’ I'm nauseous
Taken for granted now I waste it, 
Faked it, ate it, now I hate it

(Chorus)
Now I cannot speak, I've lost my voice
I'm speechless and redundant
Cos’ I love you (is) not enough
I'm lost for words

(Solo)

(Chorus)
Now I cannot speak, I've lost my voice
I'm speechless and redundant
Cos’ I love you (is) not enough
I'm lost for words

Now I cannot speak, I've lost my voice
I'm speechless and redundant
Cos’ I love you (is) not enough
I'm lost for words

(Outro)


--------------------------------------------------------------------------------------
Green Day Nice guys finish last
--------------------------------------------------------------------------------------
Intro
e|--------------|--------------|--------------|--------------|----------------|
B|--------------|--------------|--------------|--------------|----------------|
G|----9-9-9-9-9-|--------------|----9-9-9-9-9-|--------------|----9-9-9-9-9---|
D|-7--9-9-9-9-9-|-7--9-9-9-9-9-|-7--9-9-9-9-9-|-7--9-9-9-9-9-|-7--9-9-9-9-9---|
A|-7--7-7-7-7-7-|-7--9-9-9-9-9-|-7--7-7-7-7-7-|-7--9-9-9-9-9-|-7--7-7-7-7-7---|
E|-5------------|-5--7-7-7-7-7-|-5------------|-5--7-7-7-7-7-|-5--------------|

e|--------------|--------------|--------------|----------------------------|
B|--------------|--------------|--------------|----------------------------|
G|--------------|----9-9-9-9-9-|--------------|---------(wait for-------9--|
D|-7--9-9-9-9-9-|-7--9-9-9-9-9-|-7--9-9-9-9-9-|-7---2------bass-----7---9--|
A|-7--9-9-9-9-9-|-7--7-7-7-7-7-|-7--9-9-9-9-9-|-7---2------bit)-----7---7--|
E|-5--7-7-7-7-7-|-5------------|-5--7-7-7-7-7-|-5---0---------------5------|

Verse part 1 (no guitar – just bass)

Verse part 2
e|-------|---------------------------------|----------------------------------|
B|-------|---------------------------------|----------------------------------|
G|----9--|-9-9-9-9-9-9-9-9-9-9-9-9-9-9-9-9-|-9-9-9-9-9-9-9-9-9-9-9-9-9-9-9-9--|
D|-7--9--|-9-9-9-9-9-9-9-9-9-9-9-9-9-9-9-9-|-9-9-9-9-9-9-9-9-9-9-9-9-9-9-9-9--|
A|-7--7--|-7-7-7-7-7-7-7-7-7-7-7-7-7-7-7-7-|-7-7-7-7-7-7-7-7-7-7-7-7-7-7-7-7--|
E|-5-----|---------------------------------|----------------------------------|
PM         *****************************************************************

e|-----------------|---------------------------------|---------------------|
B|-----------------|---------------------------------|---------------------|
G|-9-9-9-9-9-9-9-9-|---------------------------------|-9-9-9-9-9-9-9-9-9-9-|
D|-9-9-9-9-9-9-9-9-|-9-9-9-9-9-9-9-9-9-9-9-9-9-9-9-9-|-9-9-9-9-9-9-9-9-9-9-|
A|-7-7-7-7-7-7-7-7-|-9-9-9-9-9-9-9-9-9-9-9-9-9-9-9-9-|-7-7-7-7-7-7-7-7-7-7-|
E|-----------------|-7-7-7-7-7-7-7-7-7-7-7-7-7-7-7-7-|---------------------|
PM *************************************************

Pre Chorus
e|--------------------|--------------------|--------------------|--------------------|
B|--------------------|--------------------|--------------------|--------------------|
G|--------------------|-9-9-9-9-9-9-9-9-9-9|--------------------|-9-9-9-9-9-9-9-9-9-9|
D|-7-7-7-7-7-7-7-7-7-7|-9-9-9-9-9-9-9-9-9-9|-7-7-7-7-7-7-7-7-7-7|-9-9-9-9-9-9-9-9-9-9|
A|-7-7-7-7-7-7-7-7-7-7|-7-7-7-7-7-7-7-7-7-7|-7-7-7-7-7-7-7-7-7-7|-7-7-7-7-7-7-7-7-7-7|
E|-5-5-5-5-5-5-5-5-5-5|--------------------|-5-5-5-5-5-5-5-5-5-5|--------------------|

e|--------------------|--------------------|--------------------|--------------------|
B|--------------------|--------------------|--------------------|--------------------|
G|--------------------|-9-9-9-9-9-9-9-9-9-9|--------------------|--------------------|
D|-7-7-7-7-7-7-7-7-7-7|-9-9-9-9-9-9-9-9-9-9|-7-7-7-7-7-7-7-7-7-7|-9-9-9-9-9-9-9-9-9-9|
A|-7-7-7-7-7-7-7-7-7-7|-7-7-7-7-7-7-7-7-7-7|-7-7-7-7-7-7-7-7-7-7|-9-9-9-9-9-9-9-9-9-9|
E|-5-5-5-5-5-5-5-5-5-5|--------------------|-5-5-5-5-5-5-5-5-5-5|-7-7-7-7-7-7-7-7-7-7|

Chorus
e|--------------------------|--------------------------|--------------------------|
B|--------------------------|--------------------------|--------------------------|
G|----------2-2-2-2-2-2-2-2-|----------2-2-2-2-2-2-2-2-|----------2-2-2-2-2-2-2-2-|
D|-2-2-2-2--2-2-2-2-2-2-2-2-|-2-2-2-2--2-2-2-2-2-2-2-2-|-2-2-2-2--2-2-2-2-2-2-2-2-|
A|-2-2-2-2--0-0-0-0-0-0-0-0-|-2-2-2-2--0-0-0-0-0-0-0-0-|-2-2-2-2--0-0-0-0-0-0-0-0-|
E|-0-0-0-0------------------|-0-0-0-0------------------|-0-0-0-0------------------|

e|---------------------|
B|---------------------|
G|-4-4-4-4-4-4-4-4-4-4-|
D|-4-4-4-4-4-4-4-4-4-4-|
A|-2-2-2-2-2-2-2-2-2-2-|
E|---------------------|

Bridge
e|--------------|--------------|--------------|--------------|----------------|
B|--------------|--------------|--------------|--------------|----------------|
G|----9-9-9-9-9-|--------------|----9-9-9-9-9-|--------------|----9-9-9-9-9---|
D|-7--9-9-9-9-9-|-7--9-9-9-9-9-|-7--9-9-9-9-9-|-7--9-9-9-9-9-|-7--9-9-9-9-9---|
A|-7--7-7-7-7-7-|-7--9-9-9-9-9-|-7--7-7-7-7-7-|-7--9-9-9-9-9-|-7--7-7-7-7-7---|
E|-5------------|-5--7-7-7-7-7-|-5------------|-5--7-7-7-7-7-|-5--------------|

e|--------------|--------------|------------------------------------------------|
B|--------------|--------------|------------------------------------------------|
G|--------------|----9-9-9-9-9-|------------------------------------------------|
D|-7--9-9-9-9-9-|-7--9-9-9-9-9-|-6--7-7-7-7-7--6--4-4-4-4-4--7--9-9-9-9-9-9-9-9-|
A|-7--9-9-9-9-9-|-7--7-7-7-7-7-|-6--7-7-7-7-7--6--4-4-4-4-4--7--9-9-9-9-9-9-9-9-|
E|-5--7-7-7-7-7-|-5------------|-4--5-5-5-5-5--4--2-2-2-2-2--5--7-7-7-7-7-7-7-7-|

e|---------------|
B|---------------|
G|---------------|
D|-9-9-9-9-9-9-9-|
A|-9-9-9-9-9-9-9-|
E|-7-7-7-7-7-7-7-|

Outro
e|----------------------------|
B|----------------------------|
G|---------(wait for-------9--|
D|-7---2~~----bass-----7---9--|
A|-7---2~~----bit)-----7---7--|
E|-5---0~~-------------5------|

Order

Intro
Verse part 1 (no guitar – just bass)
Verse part 2
Pre Chorus
Chorus 
Verse part 2 x2
Pre Chorus
Chorus x2
Bridge
Chorus x2
Outro

Lyrics

(Verse part 1)
Nice guys finish last
You're running out of gas
Your sympathy will get you left behind

(Verse part 2)
Sometimes you’re at your best, when you look the worst
Do you feel washed up, like piss going down the drain?

(Pre-Chorus)
Pressure cooker pick my brain and tell me I'm insane -
I'm so fucking happy I could cry
Every joke can have its truth and now the jokes on you.
I never know you were such a funny guy

(Chorus)
Oh nice guys finish last, when you are the outcast
Don’t pat yourself on the back; you might break your spine.

(Verse part 2)
Living on command.
You're shaking lots of hands
Kissing up and bleeding all your trust 
Taking what you need
Bit the hand that feeds
You’ll lose your memory
And you go no shame

(Pre-Chorus)
Pressure cooker pick my brain and tell me I'm insane
I'm so fucking happy I could cry
Every joke can have its truth and now the jokes on you.
I never know you were such a funny guy

(Chorus)
Oh nice guys finish last, when you are the outcast
Don’t pat yourself on the back; you might break your spine
Oh nice guys finish last, when you are the outcast
Don’t pat yourself on the back; you might break your spine


Interlude

(Chorus)
Oh nice guys finish last, when you are the outcast.
Don’t pat yourself on the back; you might break your spine.
Oh nice guys finish last, when you are the outcast.
Don’t pat yourself on the back; you might break your spine.



--------------------------------------------------------------------------------------
Green Day Minority
--------------------------------------------------------------------------------------

Intro
E|---------|---------|------0--|----------|----------|---------|-----------|
B|------1--|------3--|--1----1-|------1---|------1---|------3--|-----------|
G|---0---0-|---0---0-|----2----|--------0-|--------0-|---0---0-|-2-0---0---|
D|-----2---|----0----|-3-------|-0h2------|-0h2------|----0----|-3-2-0-2---|
A|--3------|---------|---------|-----3----|-----3----|---------|-------3---|
E|---------|-3-------|---------|----------|----------|-3-------|-----------|

Chorus
E|-----------------------------------------|
B|-----------------------------------------|
G|-5-5-5-5-x-------------------------------|
D|-5-5-5-5-x-3-3-3-3-x--5-5-5-5-x--3-3-3-3-|
A|-3-3-3-3-x-3-3-3-3-x--5-5-5-5-x--3-3-3-3-|
E|-----------1-1-1-1-x--3-3-3-3-x--1-1-1-1-|

Verse 
Part 1
E|-0-0-0--3-3-3-3--0-0-0--0-0-0-0--0-0-0-0--3-3-3-3--0-0-0-0--3-3-3-3-|
B|-1-1-1--3-3-3-3--1-1-1--1-1-1-1--1-1-1-1--3-3-3-3--1-1-1-1--3-3-3-3-|
G|-0-0-0--0-0-0-0--2-2-2--0-0-0-0--0-0-0-0--0-0-0-0--2-2-2-2--0-0-0-0-|
D|-2-2-2--0-0-0-0--3-3-3--2-2-2-2--2-2-2-2--0-0-0-0--3-3-3-3--0-0-0-0-|
A|-3-3-3--2-2-2-2---------3-3-3-3--3-3-3-3--2-2-2-2-----------2-2-2-2-|
E|--------3-3-3-3---------------------------3-3-3-3-----------3-3-3-3-| 

E|-0-0-0--3-3-3-3--0-0-0--0-0-0-0--0-0-0-0--0-0-0-0--3-3-3-3--0--|
B|-1-1-1--3-3-3-3--1-1-1--1-1-1-1--1-1-1-1--1-1-1-1--3-3-3-3--1--|
G|-0-0-0--0-0-0-0--2-2-2--0-0-0-0--0-0-0-0--2-2-2-2--0-0-0-0--0--|
D|-2-2-2--0-0-0-0--3-3-3--2-2-2-2--2-2-2-2--3-3-3-3--0-0-0-0--2--|
A|-3-3-3--2-2-2-2---------3-3-3-3--3-3-3-3-----------2-2-2-2--3--|
E|--------3-3-3-3------------------------------------3-3-3-3-----|    

Bridge
E|----------------------------------------------------------------------------------|
B|----------------------------------------------------------------------------------|
G|----------------9---10-10-10-10---------------------------------------------------|
D|-7-7-7-7-7-7-7--9---10-10-10-10--10-10-10-10---7-7-7-7-7-7-7--2--3-3-3-3--5-5-5-5-|
A|-7-7-7-7-7-7-7--7---8--8--8--8---10-10-10-10---7-7-7-7-7-7-7--2--3-3-3-3--5-5-5-5-|
E|-5-5-5-5-5-5-5-------------------8--8--8--8----5-5-5-5-5-5-5--0--1-1-1-1--3-3-3-3-|

E|-----------------------------------------------------------------------------------|
B|-----------------------------------------------------------------------------------|
G|--------------9-10-10-10-10-------------------------------------------------------4|
D|7-7-7-7-7-7-7-9-10-10-10-10-10-10-10-10-7-7-7-7-7-7-7-3-5-5-x-x-5-5-x-x-5-5-5-5-5-4|
A|7-7-7-7-7-7-7-7-8--8--8--8--10-10-10-10-7-7-7-7-7-7-7-3-5-5-x-x-5-5-x-x-5-5-5-5-5-2|
E|5-5-5-5-5-5-5----------------8--8--8--8-5-5-5-5-5-5-5-1-3-3-x-x-3-3-x-x-3-3-3-3-3--|

Solo
E|--------------8------------------------------8v---8-----8--|
B|---5--6--6h8-----8--6--5---------5--6--6h8------8----8-----|
G|-5------------------------5---5----------------------------|
D|-----------------------------------------------------------|
A|-----------------------------------------------------------|
E|-----------------------------------------------------------|

Outro (acoustic effects on_______________________________________________off
E|---------|---------|------0--|----------|----------|---------|-----------|
B|------1--|------3--|--1----1-|------1---|------1---|------3--|-----------|
G|---0---0-|---0---0-|----2----|--------0-|--------0-|---0---0-|-2-0---0---|
D|-----2---|----0----|-3-------|-0h2------|-0h2------|----0----|-3-2-0-2---|
A|--3------|---------|---------|-----3----|-----3----|---------|-------3---|
E|---------|-3-------|---------|----------|----------|-3-------|-----------|

Intro 
Chorus x4
Verse part 1 and 2
Chorus x4
Bridge
Verse part 1 and 2
Chorus x4
Bridge
Verse part 1 x2
Verse part 2
Chorus x4
Solo
Outro

Lyrics


(Chorus)
I wanna be the minority
I don’t need your authority
Down with the moral of majority, cos
I wanna be the minority

(Verse)
I pledge, allegiance to the underworld
One nation under dog of which I stand-alone
A face in the crowd a song against the mould
With out a doubt single doubt the only way I know cos

(Chorus)
I wanna be the minority
I don’t need your authority
Down with the moral of majority, cos...
I wanna be the minority

(Bridge)
Stepped out of the line, like a sheep runs from the herd
Marching out of time, to my own beat now!, the only way I know

(Verse)
One light, one mind flashing in the dark
Blinded by the silence of a thousand broken hearts
For crying out loud she screams unto me
A free for all fuck um’ all
You or your own sight, cos

(Chorus)
I wanna be the minority
I don’t need your authority
Down with the moral of majority, cos
I wanna be the minority, hey!

(Bridge - with no lyrics)

(Verse)
One light, one mind flashing in the dark
Blinded by the silence of a thousand broken hearts
For crying out loud she screams unto me
A free for all fuck um’ all
You or your own sight, cos...

(Chorus)
I wanna be the minority
I don’t need your authority
Down with the moral of majority, cos...
I wanna be the minority, hey!

(Solo) with chorus
I wanna be the minority
I wanna be the minority
I wanna be the minority
I wanna be the minority



--------------------------------------------------------------------------------------
Green Day Warning
--------------------------------------------------------------------------------------

Main Riff
e|----------2-2-2-2--3-3-3-3--2-2-2-2-|
B|-2-2-2-2--3-3-3-3--3-3-3-3--3-3-3-3-|
G|-2-2-2-2--2-2-2-2--0-0-0-0--2-2-2-2-|
D|-2-2-2-2--0-0—0-0--0-0-0-0--0-0-0-0-|
A|-0-0-0-0-----------2-2-2-2----------|
E|-------------------3-3-3-3----------|


Fill 1  (the bit on the 3rd verse where Billie sings 
‘Or shut up and be a Victim of authority’
e|-------2-2--3-|
B|--2-2--3-3--0-|
G|--2-2--2-2--0-|
D|--2-2--0-0--0-|
A|--0-0-------2-|
E|------------3-|

Bass solo
G|-----------------------------|
D|-----------------------------|
A|---0-4-0--------0-0-4-0------|
E|----------3--0----------3--0-|

Order

Main riff x16
Bass solo x2
Main riff x19
Bass solo x6
Main riff x3
Fill 1
Main riff x9


Lyrics

(Main riff)
This is a public service announcement
This is only a test
Emergency evacuation protest
May impair your ability to operate machinery
Can’t quite tell just what it means to me
Keep out of reach of children
Don’t you talk to strangers
Get your philosophy from a bumper sticker

Warning - live without warning
I said...
Warning - live without warning
Without... alright!

(Mini bass solo) no lyrics

(Main Riff)
Better homes and safety sealed communities
Did you remember to pay the utility?
Caution police line you better not cross
Is the cop or am I the one that’s really dangerous
Sanitation, expiration date – question everything
Or shut and be a victim of authority

Warning - live without warning
I said...
Warning - live without warning
I said...
Warning - live without warning
I said...
Warning - live without warning
Without... alright!

Mini bass solo
Better homes and safety sealed communities
Did you remember to pay the utility?

(Main Riff)
Caution police line you better not cross
Is the cop or am I the one that’s really dangerous
Sanitation, expiration date – question everything

(Fill 1)
Or shut and be a victim of authority

(Main riff)
Warning - live without warning
I said...
Warning - live without warning
I said...
Warning - live without warning
I said...
Warning - live without warning

This a public service announcement - this is only a test


--------------------------------------------------------------------------------------
Green Day Waiting
--------------------------------------------------------------------------------------
Standard tuning

Intro (clean__________________________________________
e|----------------------------------------------------|
B|----------------------------------------------------|
G|--------------6-6-6-6-6-6---------------6-6-6-6-6-6-|
D|-6-6-6-6-6-6--6-6-6-6-6-6--8-8-8-8-8-8--6-6-6-6-6-6-|
A|-6-6-6-6-6-6--4-4-4-4-4-4--8-8-8-8-8-8--4-4-4-4-4-4-|  
E|-4-4-4-4-4-4---------------6-6-6-6-6-6--------------|

_________________________________________________Distorted|
e|----------------------------------------------|---------|
B|----------------------------------------------|---------|
G|--------------6-6-6-6-6-6---------------6-6-6-|-6-6-6---|
D|-6-6-6-6-6-6--6-6-6-6-6-6--8-8-8-8-8-8--6-6-6-|-6-6-6---|
A|-6-6-6-6-6-6--4-4-4-4-4-4--8-8-8-8-8-8--4-4-4-|-4-4-4---|  
E|-4-4-4-4-4-4---------------6-6-6-6-6-6--------|---------|

Verse 
e|--------------------------------------------------------|
B|--------------------------------------------------------|
G|--------------6-6-6-6-6-6-6---------------6-6-6-6-6-6-6-|
D|-6-6-6-6-6-6--6-6-6-6-6-6-6--8-8-8-8-8-8--6-6-6-6-6-6-6-|
A|-6-6-6-6-6-6--4-4-4-4-4-4-4--8-8-8-8-8-8--4-4-4-4-4-4-4-|
E|-4-4-4-4-4-4-----------------6-6-6-6-6-6----------------|

e|------------------------------------------------------|
B|------------------------------------------------------|
G|--------------6-6-6-6-6-6-6---------------6-6-6-6-6-6-|
D|-6-6-6-6-6-6--6-6-6-6-6-6-6--8-8-8-8-8-8--6-6-6-6-6-6-|
A|-6-6-6-6-6-6--4-4-4-4-4-4-4--8-8-8-8-8-8--4-4-4-4-4-4-|  
E|-4-4-4-4-4-4-----------------6-6-6-6-6-6--------------|

Chorus
e|------------------------------------------|
B|------------------------------------------|
G|------------------------------------------|
D|-3-3-3-3--2-2-2-2--6-6-6-6--8-8-8-8-8-8-8-|
A|-3-3-3-3--2-2-2-2--6-6-6-6--8-8-8-8-8-8-8-|
E|-1-1-1-1--0-0-0-0--4-4-4-4--6-6-6-6-6-6-6-|

Bridge
e|---------------------|
B|---------------------|
G|-6-6-6---------6-6-6-|
D|-6-6-6--6-6-6--6-6-6-|
A|-4-4-4--6-6-6--4-4-4-|
E|--------4-4-4--------|

Bridge 2
e|-------------------------------------|    |----------------------------------|
B|-------------------------------------|    |----------------------------------|
G|-6-6-6---------6-6-6---------6---6---|    |-6-6-6---------6----8-8-8-8-8-8-8-|
D|-6-6-6--6-6-6--6-6-6--6-6-6--6-6-6-6-| x3 |-6-6-6--6-6-6--6-6--8-8-8-8-8-8-8-|
A|-4-4-4--6-6-6--4-4-4--6-6-6--4-6-4-6-|    |-4-4-4--6-6-6--4-6--6-6-6-6-6-6-6-|
E|--------4-4-4---------4-4-4----4---4-|    |--------4-4-4----4----------------|

Solo
Guitar 1
E|--------------------------------------------------------|
B|-4----------------------------4-------------------------|
G|-------5b-----3-5-6--5b--3---------5b-----3-5-6--5b--3--|
D|--------------------------------------------------------|
A|--------------------------------------------------------|
E|--------------------------------------------------------|

Guitar 2
e|--------------------------------------------------------|
B|--------------------------------------------------------|
G|--------------6-6-6-6-6-6-6---------------6-6-6-6-6-6-6-|
D|-6-6-6-6-6-6--6-6-6-6-6-6-6--8-8-8-8-8-8--6-6-6-6-6-6-6-|
A|-6-6-6-6-6-6--4-4-4-4-4-4-4--8-8-8-8-8-8--4-4-4-4-4-4-4-|
E|-4-4-4-4-4-4-----------------6-6-6-6-6-6----------------|

Guitar 1
E|-------------------------------1-------4-|
B|----------------------------3--------1---|
G|--5---1b-------3—5-6-5-3---3-3---3-1-----|
D|-----------------------------------------|
A|-----------------------------------------|
E|-----------------------------------------|

Guitar 2
E|------------------------------------------------------|
B|------------------------------------------------------|
G|--------------6-6-6-6-6-6-6---------------6-6-6-6-6-6-|
D|-6-6-6-6-6-6--6-6-6-6-6-6-6--8-8-8-8-8-8--6-6-6-6-6-6-|
A|-6-6-6-6-6-6--4-4-4-4-4-4-4--8-8-8-8-8-8--4-4-4-4-4-4-|
E|-4-4-4-4-4-4-----------------6-6-6-6-6-6--------------| 

Guitar 1
E|------9---12-9---------9---12-9--------9---12-9--------|
B|---10--10-----10----10--10-----10---10--10------10-----|
G|-11--------------10---------------9----------------7/3-|
D|-------------------------------------------------------|
A|-------------------------------------------------------|
E|-------------------------------------------------------|

Guitar 2
e|------------------------------------------------------|
B|------------------------------------------------------|
G|------------------------------------------------------|
D|--3--3--3--3--3---2--2--2--2--2---6--6--6--6--6----8~-|
A|--3--3--3--3--3---2--2--2--2--2---6--6--6--6--6----8~-|
E|--1--1--1--1--1---0--0--0--0--0---4--4--4--4--4----6~-|

Interlude
|Clean_________________________________________________________________________
e|------------------------------------------------------------------------------|
B|------------------------------------------------------------------------------|
G|------------6-6-6-6-6-6-6-------------6-6-6-6-6-6-6-------------6-6-6-6-6-6-6-|
D|6-6-6-6-6-6-6-6-6-6-6-6-6-8-8-8-8-8-8-6-6-6-6-6-6-6-6-6-6-6-6-6-6-6-6-6-6-6-6-|
A|6-6-6-6-6-6-4-4-4-4-4-4-4-8-8-8-8-8-8-4-4-4-4-4-4-4-6-6-6-6-6-6-4-4-4-4-4-4-4-| 
E|4-4-4-4-4-4---------------6-6-6-6-6-6---------------4-4-4-4-4-4---------------|

___________________________________________________________________|
e|-----------------------------------------------------------------|
B|-----------------------------------------------------------------|
G|-------------6-6-6-6-6-6-6-------------6-6-6-6-6-6-6-------------|
D|-8-8-8-8-8-8-6-6-6-6-6-6-6-6-6-6-6-6-6-6-6-6-6-6-6-6-8-8-8-8-x-8-|
A|-8-8-8-8-8-8-4-4-4-4-4-4-4-6-6-6-6-6-6-4-4-4-4-4-4-4-8-8-8-8-x-8-|  
E|-6-6-6-6-6-6---------------4-4-4-4-4-4---------------6-6-6-6-x-6-|

Outro
e|--------------------------------------------------------|
B|--------------------------------------------------------|
G|--------------6-6-6-6-6-6-6---------------6-6-6-6-6-6-6-|
D|-6-6-6-6-6-6--6-6-6-6-6-6-6--8-8-8-8-8-8--6-6-6-6-6-6-6-|
A|-6-6-6-6-6-6--4-4-4-4-4-4-4--8-8-8-8-8-8--4-4-4-4-4-4-4-|
E|-4-4-4-4-4-4-----------------6-6-6-6-6-6----------------|

e|---------------------------------------------|
B|---------------------------------------------|
G|--------------6-6-6-6-6-6-6-------------6~~~-|
D|-6-6-6-6-6-6--6-6-6-6-6-6-6--8-8-8-8-8--6~~~-|
A|-6-6-6-6-6-6--4-4-4-4-4-4-4--8-8-8-8-8--4~~~-|
E|-4-4-4-4-4-4-----------------6-6-6-6-6-------|

Order

Intro
Verse x2
Chorus
Bridge
Verse x2
Chorus
Bridge 2
Solo
Bridge 2
Interlude
Verse
Outro

Lyrics

(Intro)
I’ve been waiting a long time
For this moment to come by
I destined for anything at all

(Verse)
Downtown lights always shining... 
On me like a new diamond ring...
Out onto the midnight hour

Well no one can touch me now and
I cant turn my back its...
Too late, ready or not at all

(Bridge)
Well Im so much closer than
I have ever known... wake up!

(Verse)
Dawning on a new era..
Calling don’t let it catch you 
Falling, ready or not at all

Im so close – enough to taste it
Almost I can embrace this
Feeling on the tip of my tongue

(Bridge 2)
Well Im so much closer than
I have ever known... wake up!
Better thank your lucky stars
Said, huh!

(Solo)
Well Im so much closer than
I have ever known... wake up!

(Bridge)
Better thank your lucky stars
Said, huh!

(Interlude)
I’ve been waiting a long time
For this moment to come by
I destined for anything at all

(Verse)
Dumbstruck calling me stupid 
Good luck you gonna need it
Where im goin if I get there at all

(Outro)
Wake up! _______________
Better thank your lucky stars



------------------------------------------------------------------------------------
Green Day Macy’s Day Parade
------------------------------------------------------------------------------------
Standard tuning

Intro
E|---------------------------------------|
B|-4-4-x-4-4-4-x-4-4-4-x-4-4-4-x-4-4-4-x-|
G|-4-4-x-4-4-4-x-4-4-4-x-4-4-4-x-4-4-4-x-|
D|-4-4-x-4-4-4-x-4-4-4-x-4-4-4-x-4-4-4-x-|
A|-2-2-x-2-2-2-x-2-2-2-x-2-2-2-x-2-2-2-x-|
E|---------------------------------------|

Verse
E|----------------------------------------------------------|
B|--4-4-4-x-4-4-4-x-4-4-4-x---------------------------------|
G|--4-4-4-x-4-4-4-x-4-4-4-x---------------------------------|
D|--4-4-4-x-4-4-4-x-4-4-4-x-6-6-6-x-6-6-6-x-6-6-6-x-6-6-6-x-|
A|--2-2-2-x-2-2-2-x-2-2-2-x-6-6-6-x-6-6-6-x-6-6-6-x-6-6-6-x-|
E|--------------------------4-4-4-x-4-4-4-x-4-4-4-x-4-4-4-x-|

E|-0-0-0-x-0-0-0-x-----------------------------------------------------|
B|-0-0-0-x-0-0-0-x---------------4-4-x-4-4-4-x-4-4-4-x-4-4-4-x-4-4-4-x-|
G|-x-x-x-x-x-x-x-x---------------4-4-x-4-4-4-x-4-4-4-x-4-4-4-x-4-4-4-x-|
D|-2-2-2-x-2-2-2-x-4-4-x-4-4-4-x-4-4-x-4-4-4-x-4-4-4-x-4-4-4-x-4-4-4-x-|
A|-2-2-2-x-2-2-2-x-4-4-x-4-4-4-x-2-2-x-2-2-2-x-2-2-2-x-2-2-2-x-2-2-2-x |
E|-0-0-0-x-0-0-0-x-2-2-x-2-2-2-x---------------------------------------|

Chorus
E|-------------------------------------------------------------------|
B|-------------------------------------------------------------------|
G|-9-9-x-9-9-9-x-9-9-9-x-9-9-9-x-1111-x-111111-x-111111-x-111111-x---|
D|-9-9-x-9-9-9-x-9-9-9-x-9-9-9-x-1111-x-111111-x-111111-x-111111-x---|
A|-7-7-x-7-7-7-x-7-7-7-x-7-7-7-x-9-9--x-9-9-9--x-9-9-9--x-9-9-9--x---|
E|-------------------------------------------------------------------|

E|--------------------------------------------------------------|
B|--------------------------------------------------------------|
G|--9-9-x-9-9-9-x-9-9-9-x-9-9-9-x-------------------------------|
D|--9-9-x-9-9-9-x-9-9-9-x-9-9-9-x-4-4-x-4-4-4-x-4-4-4-x-4-4-4-x-|
A|--7-7-x-7-7-7-x-7-7-7-x-7-7-7-x-4-4-x-4-4-4-x-4-4-4-x-4-4-4-x-|
E|--------------------------------2-2-x-2-2-2-x-2-2-2-x-2-2-2-x-|

Bridge
E|-------------------------------------------------------------------|
B|-------------------------------------------------------------------|
G|-9-9-x-9-9-9-x-9-9-9-x-9-9-9-x-1111-x-111111-x-111111-x-111111-x---|
D|-9-9-x-9-9-9-x-9-9-9-x-9-9-9-x-1111-x-111111-x-111111-x-111111-x---|
A|-7-7-x-7-7-7-x-7-7-7-x-7-7-7-x-9-9--x-9-9-9--x-9-9-9--x-9-9-9--x---|
E|-------------------------------------------------------------------|

 “Because I’m thinking about a brand new hope...”
E|--------------------------------------------------------------------|
B|--------------------------------------------------------------------|
G|--------------------------------------------------------------------|
D|-9-9-9-9--8-8-8-8--6-6-6-6--4-4-4-4-2-2-2-2-2-2-2-2-4-4-4-4-4-4-4-4-|
A|-9-9-9-9--8-8-8-8--6-6-6-6--4-4-4-4-2-2-2-2-2-2-2-2-4-4-4-4-4-4-4-4-|
E|-7-7-7-7--6-6-6-6--4-4-4-4--2-2-2-2-0-0-0-0-0-0-0-0-2-2-2-2-2-2-2-2-|

Bridge 2
“Because I’m thinking about a brand new hope...”
E|--------------------------------------------------------------------|
B|--------------------------------------------------------------------|
G|--------------------------------------------------------------------|
D|-9-9-9-9--8-8-8-8--6-6-6-6--4-4-4-4-2-2-2-2-2-2-2-2-4-4-4-4-4-4-4-4-|
A|-9-9-9-9--8-8-8-8--6-6-6-6--4-4-4-4-2-2-2-2-2-2-2-2-4-4-4-4-4-4-4-4-|
E|-7-7-7-7--6-6-6-6--4-4-4-4--2-2-2-2-0-0-0-0-0-0-0-0-2-2-2-2-2-2-2-2-|

Order

Intro
Verse x2
Chorus
Intro
Verse x2
Bridge
Intro
Verse x2
Chorus
Bridge2 x3
Intro x2


Lyrics

(Verse)
Today’s the day of Marcy’s day parade
The night of the living dead is on its way
With the credit report for duty call

It’s a lifetime guaranteed
Stuffed in a coffin 10% for Free
Red light special at the mausoleum 

(Chorus)
Give me something that I need
Satisfaction guaranteed to you
What’s the constellation price
Gonna be in signs dreams of hope

(Verse)
When I was a kid I thought
I wanted all the things I haven’t got
Oh but I learned the hardest way

Then I realised what It done
Tell the difference between theinds and guns
Lesson learned that me and you

(Bridge)
Give me something that I need
Satisfaction guaranteed
Cos im thinking about a brand new hope
And wanted them to know
Cos know I know its all that I wanted

(Verse – no lyrics)

(Chorus)
What’s the constellation price
Gonna be in signs dreams of hope
Give me something that I need
Satisfaction guaranteed

(Bridge)
Cos im thinking about a brand new hope
And wanted them to know.. Where it goes
And Im thinking about the only road...
And wanted them to know.. Where it goes
Cos im thinking about a brand new hope
And wanted them to know
Cos know I know its all that I wanted


Have fun guys second update and id say not far off perfect what d’you think leave
a comment or email, byes!
comments
print report bad tab
10 comments total. Showing first comments.
0 reply
sadistic_monkey wrote on December 15 2004, 12:00 am

Good at a glance. Welcome to Paradise is half as step down though.

0 reply
Liam wrote on January 15 2005, 12:00 am

thanks dude, but i dont get why my tab is only 3 stars cos individually the tabs did well but put in one document they dont do well i dont get it

0 reply
WhAtSeRnAmE<3 wrote on October 10 2005, 05:36 pm

thanks, this was really great. I've been searching for good tab and haven't found any in a while. good job, i found a few errors but besides that it was really awesome. keep up the good work.

I want to post or [tab]
guest
You may want to rate the tab now too:
select rating
Please do not post tabs as comments. Select "correction" instead!