Oops, an error
Loading. Please wait.

Jar Jason Andrew Relva Tab

ver2
ver2

Whole song

More versions @911Tabs.com
3,864 views 6 this week
no commentswrite comment
1 2 3 4 5
accurate
x 7
Autoscroll
+/-
esc
set tempo
stop
Contributor
WARNING: You are trying to view
                                    content from Ultimate-Guitar.com
                                    in an unauthorized application,
                                    which is prohibited.

                                    Please use an official Ultimate
                                    Guitar Tabs application for iPhone,
                                    iPad or Android to access legitimate
                                    chords, guitar, bass, and drum tabs
                                    from Ultimate-Guitar.com database.

                                    Type "ultimate guitar tabs" in Apple
                                    App Store's or Android Market's
                                    search to find the application.
Artist    : Green Day
Song      : J.A.R. (Jason Andrew Relva)
Album     : International Superhits!
Tabbed By : Ketan (ketan.gupta50@yahoo.co.in)

Standard Tuning (eBGDAE)

Intro (on Bass Guitar)
G|-----6-------6-------6-------6-------6-------------------6-----------------|
D|-4-4---4-------------------------4-4---4-----6-------6-----6---------------|
A|---------4-4---4---------4-4---4---------4-4---4---------------------------|
E|-----------------4-4---4-------------------------4-4---4-------------------|

e|---------------------------------------------------------------------------|
B|---------------------------------------------------------------------------|
G|---------------------------------------------------------6-----------------|
D|---------------------------------------------------------6-6---------------|
A|---------------------------------------------------------4-6---------------|
E|-----------------------------------------------------------4---------------|

e|---------------------------------------------------------------------------|
B|---------------------------------------------------------------------------|
G|----------------------------------------6-6-6------------------------------| x2
D|-4-4-4-4-4--6-6-6-6-6-6-6-6--4-4-4-4-4--6-6-6--6-6-6-----------------------|
A|-4-4-4-4-4--6-6-6-6-6-6-6-6--4-4-4-4-4--4-4-4--6-6-6-----------------------|
E|-2-2-2-2-2--4-4-4-4-4-4-4-4--2-2-2-2-2---------4-4-4-----------------------|

Verse 1
e|---------------------------------------------------------------------------|
B|---------------------------------------------------------------------------|
G|----------------------------------------6-6-6------------------------------| x4
D|-4-4-4-4-4--6-6-6-6-6-6-6-6--4-4-4-4-4--6-6-6--6-6-6-----------------------|
A|-4-4-4-4-4--6-6-6-6-6-6-6-6--4-4-4-4-4--4-4-4--6-6-6-----------------------|
E|-2-2-2-2-2--4-4-4-4-4-4-4-4--2-2-2-2-2---------4-4-4-----------------------|

Chorus
e|---------------------------------------------------------------------------|
B|---------------------------------------------------------------------------|
G|-----------------------------6-6-6-6-6--6-6-6------------------------------|
D|-4-4-4-4-4--4-4-4-4-4-4-4-4--6-6-6-6-6--6-6-6--6-6-6-6-6-6-6-6-6-----------|
A|-4-4-4-4-4--4-4-4-4-4-4-4-4--4-4-4-4-4--4-4-4--6-6-6-6-6-6-6-6-6-----------|
E|-2-2-2-2-2--2-2-2-2-2-2-2-2--------------------4-4-4-4-4-4-4-4-4-----------|

e|--------------------------------------------------------------------------------|
B|--------------------------------------------------------------------------------|
G|-----------6-6-6-6-6-6-6-6--------------------------6-6-----6-6-----6-6-----6---|
D|-4-4-4-4-4-6-6-6-6-6-6-6-6-6-6-6-6-6-6-6-6-6-6--4-4-6-6-6-6-6-6-4-4-6-6-6-6-6-6-|
A|-4-4-4-4-4-4-4-4-4-4-4-4-4-6-6-6-6-6-6-6-6-6-6--4-4-4-4-6-6-4-4-4-4-4-4-6-6-4-6-|
E|-2-2-2-2-2-----------------4-4-4-4-4-4-4-4-4-4--2-2-----4-4-----2-2-----4-4---4-|

Verse 2
e|---------------------------------------------------------------------------|
B|---------------------------------------------------------------------------|
G|----------------------------------------6-6-6------------------------------| x4
D|-4-4-4-4-4--6-6-6-6-6-6-6-6--4-4-4-4-4--6-6-6--6-6-6-----------------------|
A|-4-4-4-4-4--6-6-6-6-6-6-6-6--4-4-4-4-4--4-4-4--6-6-6-----------------------|
E|-2-2-2-2-2--4-4-4-4-4-4-4-4--2-2-2-2-2---------4-4-4-----------------------|

Chorus
e|---------------------------------------------------------------------------|
B|---------------------------------------------------------------------------|
G|-----------------------------6-6-6-6-6--6-6-6------------------------------|
D|-4-4-4-4-4--4-4-4-4-4-4-4-4--6-6-6-6-6--6-6-6--6-6-6-6-6-6-6-6-6-----------|
A|-4-4-4-4-4--4-4-4-4-4-4-4-4--4-4-4-4-4--4-4-4--6-6-6-6-6-6-6-6-6-----------|
E|-2-2-2-2-2--2-2-2-2-2-2-2-2--------------------4-4-4-4-4-4-4-4-4-----------|

e|---------------------------------------------------------------------------|
B|---------------------------------------------------------------------------|
G|-----------6-6-6-6-6-6-6-6-------------------------------------------------|
D|-4-4-4-4-4-6-6-6-6-6-6-6-6-6-6-6-6-6-6-6-6-6-6-----------------------------|
A|-4-4-4-4-4-4-4-4-4-4-4-4-4-6-6-6-6-6-6-6-6-6-6-----------------------------|
E|-2-2-2-2-2-----------------4-4-4-4-4-4-4-4-4-4-----------------------------|

e|---------------------------------------------------------------------------|
B|---------------------------------------------------------------------------|
G|-----6-6-----6-6------6-6-----6-6------6-6-----6-6------6-6-----6-6--------|
D|-4-4-6-6-6-6-6-6--4-4-6-6-6-6-6-6--4-4-6-6-6-6-6-6--4-4-6-6-6-6-6-6--------|
A|-4-4-4-4-6-6-4-4--4-4-4-4-6-6-4-4--4-4-4-4-6-6-4-4--4-4-4-4-6-6-4-4--------|
E|-2-2-----4-4------2-2-----4-4------2-2-----4-4------2-2-----4-4------------|

Bridge
e|------------------------------------------------------------------------------------------|
B|------------------------------------------------------------------------------------------|
G|-4-4-4-4-4-4-------------6-6-6-6-6-6-------------4-4-4-4-4-4--------------------------6---|
D|-4-4-4-4-4-4-4-4-4-4-4-4-6-6-6-6-6-6-6-6-6-6-6-6-4-4-4-4-4-4-4-4-4-4-4-4-6-6-6-6-6-6--6-6-|
A|-2-2-2-2-2-2-4-4-4-4-4-4-4-4-4-4-4-4-6-6-6-6-6-6-2-2-2-2-2-2-4-4-4-4-4-4-6-6-6-6-6-6--4-6-|
E|-------------2-2-2-2-2-2-------------4-4-4-4-4-4-------------2-2-2-2-2-2-4-4-4-4-4-4----4-|

Solo
(Guitar 1)
e|-----------------------------------------------------------------------------------------------|
B|------------------------------------6-4--6-4---------------------------------------------------|
G|6--6-6-6-6--6--5-----5--6--6-6-6-6--6-6--6---6-6--6-6-6-6-6--5----5--6--6-6-6-6----------------|
D|4--4-4-4-4--6--6--8--6--4--4-4-4-4-------------4--4-4-4-4-6--6--8-6--4--4-4-4-4-6--6--6--------|
A|--------------------------------------------------------------------------------4--4--4-6--6--6|
E|----------------------------------------------------------------------------------------4--4--4|

(Guitar 2)
e|---------------------------------------------------------------------------|
B|---------------------------------------------------------------------------|
G|----------------------------------------6-6-6------------------------------| x2
D|-4-4-4-4-4--6-6-6-6-6-6-6-6--4-4-4-4-4--6-6-6--6-6-6-----------------------|
A|-4-4-4-4-4--6-6-6-6-6-6-6-6--4-4-4-4-4--4-4-4--6-6-6-----------------------|
E|-2-2-2-2-2--4-4-4-4-4-4-4-4--2-2-2-2-2---------4-4-4-----------------------|

(Guitar 1)
e|------------------------------------------------------------------------------------9-9---9-9--|
B|------------------------------------6-4--6-4-------------------------------------/9-9-9-9-9-9-9|
G|6--6-6-6-6--6--5-----5--6--6-6-6-6--6-6--6---6-6--6-6-6-6-6--5----5--6--6-6-6-6----------------|
D|4--4-4-4-4--6--6--8--6--4--4-4-4-4-------------4--4-4-4-4-6--6--8-6--4--4-4-4-4----------------|
A|-----------------------------------------------------------------------------------------------|
E|-----------------------------------------------------------------------------------------------|

(Guitar 2)
e|---------------------------------------------------------------------------|
B|---------------------------------------------------------------------------|
G|----------------------------------------6-6-6------------------------------| x2
D|-4-4-4-4-4--6-6-6-6-6-6-6-6--4-4-4-4-4--6-6-6--6-6-6-----------------------|
A|-4-4-4-4-4--6-6-6-6-6-6-6-6--4-4-4-4-4--4-4-4--6-6-6-----------------------|
E|-2-2-2-2-2--4-4-4-4-4-4-4-4--2-2-2-2-2---------4-4-4-----------------------|

Chorus
e|---------------------------------------------------------------------------|
B|---------------------------------------------------------------------------|
G|-----------------------------6-6-6-6-6--6-6-6------------------------------|
D|-4-4-4-4-4--4-4-4-4-4-4-4-4--6-6-6-6-6--6-6-6--6-6-6-6-6-6-6-6-6-----------|
A|-4-4-4-4-4--4-4-4-4-4-4-4-4--4-4-4-4-4--4-4-4--6-6-6-6-6-6-6-6-6-----------|
E|-2-2-2-2-2--2-2-2-2-2-2-2-2--------------------4-4-4-4-4-4-4-4-4-----------|

e|---------------------------------------------------------------------------|
B|---------------------------------------------------------------------------|
G|-----------6-6-6-6-6-6-6-6-------------------------------------------------|
D|-4-4-4-4-4-6-6-6-6-6-6-6-6-6-6-6-6-6-6-6-6-6-6-----------------------------|
A|-4-4-4-4-4-4-4-4-4-4-4-4-4-6-6-6-6-6-6-6-6-6-6-----------------------------|
E|-2-2-2-2-2-----------------4-4-4-4-4-4-4-4-4-4-----------------------------|

e|---------------------------------------------------------------------------|
B|---------------------------------------------------------------------------|
G|-----6-6-----6-6------6-6-----6-6------6-6-----6-6------6-6-----6-6--------|
D|-4-4-6-6-6-6-6-6--4-4-6-6-6-6-6-6--4-4-6-6-6-6-6-6--4-4-6-6-6-6-6-6--------|
A|-4-4-4-4-6-6-4-4--4-4-4-4-6-6-4-4--4-4-4-4-6-6-4-4--4-4-4-4-6-6-4-4--------|
E|-2-2-----4-4------2-2-----4-4------2-2-----4-4------2-2-----4-4------------|

Outro (on Bass Guitar)
G|-----6-------6-------6-------6-------6-----------------------6-------------|
D|-4-4---4-------------------------4-4---4-----6-------6---------------------|
A|---------4-4---4---------4-4---4---------4-4---4---------4-4---4-----------|
E|-----------------4-4---4-------------------------4-4---4-------------------|

G|-----6-------6-------6-------6-------6-------------------------------------|
D|-4-4---4-------------------------4-4---4-----6-------6---------------------|
A|---------4-4---4---------4-4---4---------4-4---4---------4-----------------|
E|-----------------4-4---4-------------------------4-4---4-------------------|
comments
print report bad tab
I want to post or [tab]
guest
You may want to rate the tab now too:
select rating
Please do not post tabs as comments. Select "correction" instead!