Oops, an error
Loading. Please wait.

Jesus Of Suburbia Tab

ver3
ver3
More versions @911Tabs.com
15,778 views 12 this week
17 commentsread comments
1 2 3 4 5
accurate
x 35
Autoscroll
+/-
esc
set tempo
stop
WARNING: You are trying to view
                                    content from Ultimate-Guitar.com
                                    in an unauthorized application,
                                    which is prohibited.

                                    Please use an official Ultimate
                                    Guitar Tabs application for iPhone,
                                    iPad or Android to access legitimate
                                    chords, guitar, bass, and drum tabs
                                    from Ultimate-Guitar.com database.

                                    Type "ultimate guitar tabs" in Apple
                                    App Store's or Android Market's
                                    search to find the application.
Song: Jesus of Suburbia
Band: Green Day
Drummer: Tre Cool
Album: American Idiot

Normal Tuning

Okay!  This thing took a long time to write out, so here is how it works.
I did this tab in drumb tab form, where each hyphen (-) represents a 
16th note.  Every time a number appears, it is strummed on that count. 
This allows the tab to be much more accurate.  Strumming patterns can be 
tabbed.  Also, this song use triplet timing and swing eigth time.  This
was tabbed from a book, so a lot of it is put into tab from rythm slashes.
A, B, and C parts are at the played at the same time.

Did I make any mistakes?
Questions and comments:
chuck_j_ries@hotmail.com

Swing Eigth Time:
Two eight notes become a quarter note and eighth note triplet.
|2-2-| ---\ |2-2|
|1e&a| ---/ |1ea|

Key:
/   slide up
\   slide down
x   muted string/scratch
(2) sustained note (do not strum)





I. Jesus of Suburbia (0:00)
144 bpm
4/4 Time

Verse:
  Db                                Bbm
e|----------------|----------------|6-----6-----6---|6---------------|
B|6-----6-----6---|6---------------|6-----6-----6---|6---------------|
G|6-----6-----6---|6---------------|6-----6-----6---|6---------------|
D|6-----6-----6---|6---------------|8-----8-----8---|8---------------|
A|4-----4-----4---|4---------------|8-----8-----8---|8-----------8\x-|
E|----------------|----------------|6-----6-----6---|6-----------6\x-|
 |1e&a2e&a3e&a4e&a|1e&a2e&a3e&a4e&a|1e&a2e&a3e&a4e&a|1e&a2e&a3e&a4e&a|


  Gb5                               Ab5
e|----------------|----------------|----------------|----------------|
B|----------------|----------------|----------------|----------------|
G|----------------|----------------|----------------|----------------|
D|----------------|----------------|----------------|----------------|
A|4-4-4-4-4-4-6-4-|4-4-4-4-4-4-6-x-|6-6-6-6-8-6-6-6-|6-6-6-6-6-6---x-|
E|2-2-2-2-2-2-2-2-|2-2-2-2-2-2-2-x-|4-4-4-4-4-4-4-4-|4-4-4-4-4-4-4/x-|
 |1e&a2e&a3e&a4e&a|1e&a2e&a3e&a4e&a|1e&a2e&a3e&a4e&a|1e&a2e&a3e&a4e&a|


  Db                                Bbm
e|----------------|----------------|6-----6-----6---|6---------------|
B|6-----6-----6---|6---------------|6-----6-----6---|6---------------|
G|6-----6-----6---|6---------------|6-----6-----6---|6---------------|
D|6-----6-----6---|6---------------|8-----8-----8---|8---------------|
A|4-----4-----4---|4---------------|8-----8-----8---|8-----------8\x-|
E|----------------|----------------|6-----6-----6---|6-----------6\x-|
 |1e&a2e&a3e&a4e&a|1e&a2e&a3e&a4e&a|1e&a2e&a3e&a4e&a|1e&a2e&a3e&a4e&a|


  Gb5                               Ab5
e|----------------|----------------|----------------|-----------------|
B|----------------|----------------|----------------|-----------------|
G|----------------|----------------|----------------|-----------------|
D|----------------|----------------|----------------|-----------------|
A|4-4-4-4-4-4-6-4-|4-4-4-4-4-4-6-x-|6-6-6-6-8-6-6-6-|6-6-6------------|
E|2-2-2-2-2-2-2-2-|2-2-2-2-2-2-2-x-|4-4-4-4-4-4-4-4-|4-4-4-xx11\------|
 |1e&a2e&a3e&a4e&a|1e&a2e&a3e&a4e&a|1e&a2e&a3e&a4e&a|1e&a2e&a3 e&a4e&a|


Pre-Chorus:
  Gb5           Ab5                 Gb5           Ab5
e|----------------|----------------|----------------|----------------|
B|----------------|----------------|----------------|----------------|
G|----------------|----------------|----------------|----------------|
D|----------------|----------------|----------------|----------------|
A|4---4---4-4-4-6-|--6-6-6-6-6-6-x-|4---4---4-4-4-6-|--6-6-6-6-6-6-x-|
E|2---2---2-2-2-4-|--4-4-4-4-4-4-x-|2---2---2-2-2-4-|--4-4-4-4-4-4-x-|
 |1e&a2e&a3e&a4e&a|1e&a2e&a3e&a4e&a|1e&a2e&a3e&a4e&a|1e&a2e&a3e&a4e&a


  Gb5           Ab5
e|----------------|----------------|
B|----------------|----------------|
G|----------------|----------------|
D|----------------|----------------|
A|4---4---4-4-4-6-|--6-6-6-6-------|
E|2---2---2-2-2-4-|--4-4-4-4-------|
 |1e&a2e&a3e&a4e&a|1e&a2e&a3e&a4e&a|


  Db      Ab5   Gb5                 Db      Ab5   Gb5
e|----------------|----------------|----------------|----------------|
B|6---6-----------|----------------|6---6-----------|----------------|
G|6---6-----------|----------------|6---6-----------|----------------|
D|6---6-----------|----------------|6---6-----------|----------------|
A|4---4---6-6-6-4-|--4-4-4-4-4-4-xx|4---4---6-6-6-4-|--4-4-4-4-4-4/--|
E|--------4-4-4-2-|--2-2-2-2-2-2-xx|--------4-4-4-2-|--2-2-2-2-2-2/--|
 |1e&a2e&a3e&a4e&a|1e&a2e&a3e&a4e&a|1e&a2e&a3e&a4e&a|1e&a2e&a3e&a4e&a|


Verse:
  Db                                Bbm
e|----------------|----------------|6-----6-----6---|6---------------|
B|6-----6-----6---|6---------------|6-----6-----6---|6---------------|
G|6-----6-----6---|6---------------|6-----6-----6---|6---------------|
D|6-----6-----6---|6---------------|8-----8-----8---|8---------------|
A|4-----4-----4---|4---------------|8-----8-----8---|8-----------8\x-|
E|----------------|----------------|6-----6-----6---|6-----------6\x-|
 |1e&a2e&a3e&a4e&a|1e&a2e&a3e&a4e&a|1e&a2e&a3e&a4e&a|1e&a2e&a3e&a4e&a|


  Gb5                               Ab5
e|----------------|----------------|----------------|----------------|
B|----------------|----------------|----------------|----------------|
G|----------------|----------------|----------------|----------------|
D|----------------|----------------|----------------|----------------|
A|4-4-4-4-4-4-6-4-|4-4-4-4-4-4-6-x-|6-6-6-6-8-6-6-6-|6-6-6-6-6-6---x-|
E|2-2-2-2-2-2-2-2-|2-2-2-2-2-2-2-x-|4-4-4-4-4-4-4-4-|4-4-4-4-4-4-4/x-|
 |1e&a2e&a3e&a4e&a|1e&a2e&a3e&a4e&a|1e&a2e&a3e&a4e&a|1e&a2e&a3e&a4e&a|


  Db                                Bbm
e|----------------|----------------|6-----6-----6---|6---------------|
B|6-----6-----6---|6---------------|6-----6-----6---|6---------------|
G|6-----6-----6---|6---------------|6-----6-----6---|6---------------|
D|6-----6-----6---|6---------------|8-----8-----8---|8---------------|
A|4-----4-----4---|4---------------|8-----8-----8---|8-----------8\x-|
E|----------------|----------------|6-----6-----6---|6-----------6\x-|
 |1e&a2e&a3e&a4e&a|1e&a2e&a3e&a4e&a|1e&a2e&a3e&a4e&a|1e&a2e&a3e&a4e&a|


  Gb5                               Ab5
e|----------------|----------------|----------------|-----------------|
B|----------------|----------------|----------------|-----------------|
G|----------------|----------------|----------------|-----------------|
D|----------------|----------------|----------------|-----------------|
A|4-4-4-4-4-4-6-4-|4-4-4-4-4-4-6-x-|6-6-6-6-8-6-6-6-|6-6-6------------|
E|2-2-2-2-2-2-2-2-|2-2-2-2-2-2-2-x-|4-4-4-4-4-4-4-4-|4-4-4-xx11\------|
 |1e&a2e&a3e&a4e&a|1e&a2e&a3e&a4e&a|1e&a2e&a3e&a4e&a|1e&a2e&a3 e&a4e&a|


Pre-Chorus
  Gb5           Ab5                 Gb5           Ab5   
e|----------------|----------------|----------------|----------------|
B|----------------|----------------|----------------|----------------|
G|----------------|----------------|----------------|----------------|
D|----------------|----------------|----------------|----------------|
A|4---4---4-4-4-6-|--6-6-6-6-6-6-x-|4---4---4-4-4-6-|--6-6-6-6-6-6-x-|
E|2---2---2-2-2-4-|--4-4-4-4-4-4-x-|2---2---2-2-2-4-|--4-4-4-4-4-4-x-|
 |1e&a2e&a3e&a4e&a|1e&a2e&a3e&a4e&a|1e&a2e&a3e&a4e&a|1e&a2e&a3e&a4e&a|


  Gb5           Ab5
e|----------------|----------------|
B|----------------|----------------|
G|----------------|----------------|
D|----------------|----------------|
A|4---4---4-4-4-6-|--6-6-6-6-------|
E|2---2---2-2-2-4-|--4-4-4-4-------|
 |1e&a2e&a3e&a4e&a|1e&a2e&a3e&a4e&a|


  Db      Ab5   Gb5                 Db      Ab5   Gb5
e|----------------|----------------|----------------|----------------|
B|6---6-----------|----------------|6---6-----------|----------------|
G|6---6-----------|----------------|6---6-----------|----------------|
D|6---6-----------|----------------|6---6-----------|----------------|
A|4---4---6-6-6-4-|--4-4-4-4-4-4-xx|4---4---6-6-6-4-|--4-4-4-4-4-4/--|
E|--------4-4-4-2-|--2-2-2-2-2-2-xx|--------4-4-4-2-|--2-2-2-2-2-2/--|
 |1e&a2e&a3e&a4e&a|1e&a2e&a3e&a4e&a|1e&a2e&a3e&a4e&a|1e&a2e&a3e&a4e&a|


Interlude:
  Db                                Bbm
e|----------------|----------------|6-----6-----6---|6---------------|
B|6-----6-----6---|6---------------|6-----6-----6---|6---------------|
G|6-----6-----6---|6---------------|6-----6-----6---|6---------------|
D|6-----6-----6---|6---------------|8-----8-----8---|8---------------|
A|4-----4-----4---|4---------------|8-----8-----8---|8---------------|
E|----------------|----------------|6-----6-----6---|6---------------|
 |1e&a2e&a3e&a4e&a|1e&a2e&a3e&a4e&a|1e&a2e&a3e&a4e&a|1e&a2e&a3e&a4e&a|


  Gb5                               Ab5
e|----------------|----------------|----------------|----------------|
B|----------------|----------------|----------------|----------------|
G|----------------|----------------|----------------|----------------|
D|----------------|----------------|----------------|----------------|
A|4-4-4-4-4-4-6-4-|4-4-4-4-4-4-6-x-|6-6-6-6-8-6-6-6-|6-6-6-6-6-6---x-|
E|2-2-2-2-2-2-2-2-|2-2-2-2-2-2-2-x-|4-4-4-4-4-4-4-4-|4-4-4-4-4-4-4/x-|
 |1e&a2e&a3e&a4e&a|1e&a2e&a3e&a4e&a|1e&a2e&a3e&a4e&a|1e&a2e&a3e&a4e&a|


  Db                                F5
e|----------------|----------------|----------------|----------------|
B|6-----6-----6---|6---------------|----------------|----------------|
G|6-----6-----6---|6---------------|----------------|----------------|
D|6-----6-----6---|6---------------|3-----3-----3---|3---------------|
A|4-----4-----4---|4---------------|3-----3-----3---|3---------------|
E|----------------|----------------|1-----1-----1---|1---------------|
 |1e&a2e&a3e&a4e&a|1e&a2e&a3e&a4e&a|1e&a2e&a3e&a4e&a|1e&a2e&a3e&a4e&a|


  Bbm              Ab5
e|6-----6-----6---|----------------|
B|6-----6-----6---|----------------|
G|6-----6-----6---|----------------|
D|8-----8-----8---|----------------|
A|8-----8-----8---|6-----6-----6---|
E|6-----6-----6---|4-----4-----4---|
 |1e&a2e&a3e&a4e&a|1e&a2e&a3e&a4e&a|


II. City of the Damned (1:51)
72 bpm
4/4 Time

A:
  Gb               Ab               
e|2-222--222222-2x|4-444--444444-4x|
B|2-222--222222-2x|4-444--444444-4x|
G|3-333--333333-3x|5-555--555555-5x|
D|4-444--444444-4x|6-666--666666-6x|
A|4-444--444444-4x|6-666--666666-6x|
E|2-222--222222-2x|4-444--444444-4x|
 |1e&a2e&a3e&a4e&a|1e&a2e&a3e&a4e&a|


B:
  Gb               Ab
e|----------------|----------------|
B|----------------|----------------|
G|----------------|----------------|
D|----------------|----------------|
A|4--------------4/6---------------|
E|2--------------2/4---------------|
 |1e&a2e&a3e&a4e&a|1e&a2e&a3e&a4e&a|


Verse:
A:
  Db      Ab/C     Bbm     Ab       Gb               Ab
e|x-xxx—-xxxxxx-xx|6-666--644444-4x|2-222--222222-2x|4-444--444444-4x|
B|6-666--699999-9x|6-666--644444-4x|2-222--222222-2x|4-444--444444-4x|
G|6-666--688888-8x|6-666--655555-5x|3-333--333333-3x|5-555--555555-5x|
D|6-666--666666-6x|8-888--866666-6x|4-444--444444-4x|6-666--666666-6x|
A|4-444--4xxxxx-xx|8-888--866666-6x|4-444--444444-4x|6-666--666666-6x|
E|x-xxx—-x88888-8x|6-666--644444-4x|2-222--222222-2x|4-444--444444-4x|
 |1e&a2e&a3e&a4e&a|1e&a2e&a3e&a4e&a|1e&a2e&a3e&a4e&a|1e&a2e&a3e&a4e&a|


B:                                    Gb               Ab
e|----------------|----------------|----------------|----------------|
B|----------------|----------------|----------------|----------------|
G|----------------|----------------|----------------|----------------|
D|----------------|----------------|----------------|----------------|
A|----------------|----------------|4-4-4-4-4-4-4-4-|6-6-6-6-6-6-6-xx|
E|----------------|--------------9\|2-2-2-2-2-2-2-2-|4-4-4-4-4-4-4-xx|
 |1e&a2e&a3e&a4e&a|1e&a2e&a3e&a4e&a|1e&a2e&a3e&a4e&a|1e&a2e&a3e&a4e&a|


A:
  Db      Ab/C     Bbm     Ab       Gb               Ab
e|x-xxx--xxxxxx-xx|6-666--644444-4x|2-222--222222-2x|4-444--444444-4x|
B|6-666--699999-9x|6-666--644444-4x|2-222--222222-2x|4-444--444444-4x|
G|6-666--688888-8x|6-666--655555-5x|3-333--333333-3x|5-555--555555-5x|
D|6-666--666666-6x|8-888--866666-6x|4-444--444444-4x|6-666--666666-6x|
A|4-444--4xxxxx-xx|8-888--866666-6x|4-444--444444-4x|6-666--666666-6x|
E|x-xxx--x88888-8x|6-666--644444-4x|2-222--222222-2x|4-444--444444-4x|
 |1e&a2e&a3e&a4e&a|1e&a2e&a3e&a4e&a|1e&a2e&a3e&a4e&a|1e&a2e&a3e&a4e&a|


B:                                    Gb               Ab
e|----------------|----------------|----------------|-----------------|
B|----------------|----------------|----------------|-----------------|
G|----------------|----------------|----------------|-----------------|
D|----------------|----------------|----------------|-----------------|
A|4~~~~~643~~~~~~~|1~~~~~31-------x|4-4-4-4-4-4-4-4-|6-6-6-6-6-6-6----|
E|----------------|--------4~~~~~/x|2-2-2-2-2-2-2-2-|4-4-4-4-4-4-4-11\|
 |1e&a2e&a3e&a4e&a|1e&a2e&a3e&a4e&a|1e&a2e&a3e&a4e&a|1e&a2e&a3e&a4e& a|


Chorus:
A:
  Bbm     Ab       Db      Gb       Bbm     Ab       Gb
e|66666-6x44444-4x|xxxxx-xx22222-2x|6-6-6-6x4-x44-4x|2-2-2-22222-2-2x|
B|66666-6x44444-4x|66666-6x22222-2x|6-6-6-6x4-x44-4x|2-2-2-22222-2-2x|
G|66666-6x55555-5x|66666-6x33333-3x|6-6-6-6x5-x55-5x|3-3-3-33333-3-3x|
D|88888-8x66666-6x|66666-6x44444-4x|8-8-8-8x6-x66-6x|4-4-4-44444-4-4x|
A|88888-8x66666-6x|44444-4x44444-4x|8-8-8-8x6-x66-6x|4-4-4-44444-4-4x|
E|66666-6x44444-4x|xxxxx-xx22222-2x|6-6-6-6x4-x44-4x|2-2-2-22222-2-2x|
 |1e&a2e&a3e&a4e&a|1e&a2e&a3e&a4e&a|1e&a2e&a3e&a4e&a|1e&a2e&a3e&a4e&a|


B:
  Bbm     Ab       Db      Gb       Bbm     Ab       Gb
e|----------------|----------------|----------------|----------------|
B|----------------|66666-----------|----------------|----------------|
G|----------------|66666-----------|----------------|----------------|
D|----------------|66666-----------|----------------|----------------|
A|88888---66666---|44444-4/44444-4-|8-8-8-8x6-6-6-6x|4-4-4-4-4-4-4---|
E|66666-6/44444-4/|--------22222-2/|6-6-6-6x4-4-4-4x|2-2-2-2-2-2-2-2/|
 |1e&a2e&a3e&a4e&a|1e&a2e&a3e&a4e&a|1e&a2e&a3e&a4e&a|1e&a2e&a3e&a4e&a|


A:
  Bbm     Ab       Db      Gb       Bbm     Ab       Gb
e|66666-6x44444-4x|xxxxx-xx22222-2x|6-6-6-6x4-x44-4x|2-2-2-22222-2-2x|
B|66666-6x44444-4x|66666-6x22222-2x|6-6-6-6x4-x44-4x|2-2-2-22222-2-2x|
G|66666-6x55555-5x|66666-6x33333-3x|6-6-6-6x5-x55-5x|3-3-3-33333-3-3x|
D|88888-8x66666-6x|66666-6x44444-4x|8-8-8-8x6-x66-6x|4-4-4-44444-4-4x|
A|88888-8x66666-6x|44444-4x44444-4x|8-8-8-8x6-x66-6x|4-4-4-44444-4-4x|
E|66666-6x44444-4x|xxxxx-xx22222-2x|6-6-6-6x4-x44-4x|2-2-2-22222-2-2x|
 |1e&a2e&a3e&a4e&a|1e&a2e&a3e&a4e&a|1e&a2e&a3e&a4e&a|1e&a2e&a3e&a4e&a|


B:
  Bbm     Ab       Db      Gb       Bbm     Ab       Gb
e|----------------|----------------|----------------|----------------|
B|----------------|66666-----------|----------------|----------------|
G|----------------|66666-----------|----------------|----------------|
D|----------------|66666-----------|----------------|----------------|
A|88888---66666---|44444-4/44444-4-|8-8-8-8x6-6-6-6x|4-4-4-4-4-4-4-4-|
E|66666-6/44444-4/|--------22222-2/|6-6-6-6x4-4-4-4x|2-2-2-2-2-2-2-2-|
 |1e&a2e&a3e&a4e&a|1e&a2e&a3e&a4e&a|1e&a2e&a3e&a4e&a|1e&a2e&a3e&a4e&a|


Verse:
A:
  Db      Ab/C     Bbm     Ab       Gb               Ab
e|x-xxx—-xxxxxx-xx|6-666--644444-4x|2-222--222222-2x|4-444--444444-4x|
B|6-666--699999-9x|6-666--644444-4x|2-222--222222-2x|4-444--444444-4x|
G|6-666--688888-8x|6-666--655555-5x|3-333--333333-3x|5-555--555555-5x|
D|6-666--666666-6x|8-888--866666-6x|4-444--444444-4x|6-666--666666-6x|
A|4-444--4xxxxx-xx|8-888--866666-6x|4-444--444444-4x|6-666--666666-6x|
E|x-xxx—-x88888-8x|6-666--644444-4x|2-222--222222-2x|4-444--444444-4x|
 |1e&a2e&a3e&a4e&a|1e&a2e&a3e&a4e&a|1e&a2e&a3e&a4e&a|1e&a2e&a3e&a4e&a|


B:
                                    Gb               Ab
e|----------------|----------------|----------------|----------------|
B|----------------|----------------|----------------|----------------|
G|----------------|----------------|----------------|----------------|
D|----------------|----------------|----------------|----------------|
A|----------------|----------------|4-4-4-4-4-4-4-4-|6-6-6-6-6-6-6-xx|
E|----------------|--------------9\|2-2-2-2-2-2-2-2-|4-4-4-4-4-4-4-xx|
 |1e&a2e&a3e&a4e&a|1e&a2e&a3e&a4e&a|1e&a2e&a3e&a4e&a|1e&a2e&a3e&a4e&a|


A:
  Db      Ab/C     Bbm     Ab       Gb               Ab
e|x-xxx--xxxxxx-xx|6-666--644444-4x|2-222--222222-2x|4-444--444444-4x|
B|6-666--699999-9x|6-666--644444-4x|2-222--222222-2x|4-444--444444-4x|
G|6-666--688888-8x|6-666--655555-5x|3-333--333333-3x|5-555--555555-5x|
D|6-666--666666-6x|8-888--866666-6x|4-444--444444-4x|6-666--666666-6x|
A|4-444--4xxxxx-xx|8-888--866666-6x|4-444--444444-4x|6-666--666666-6x|
E|x-xxx--x88888-8x|6-666--644444-4x|2-222--222222-2x|4-444--444444-4x|
 |1e&a2e&a3e&a4e&a|1e&a2e&a3e&a4e&a|1e&a2e&a3e&a4e&a|1e&a2e&a3e&a4e&a|


B:
                                    Gb               Ab
e|----------------|----------------|----------------|-----------------|
B|----------------|----------------|----------------|-----------------|
G|----------------|----------------|----------------|-----------------|
D|----------------|----------------|----------------|-----------------|
A|4~~~~~643~~~~~~~|1~~~~~31-------x|4-4-4-4-4-4-4-4-|6-6-6-6-6-6-6----|
E|----------------|--------4~~~~~/x|2-2-2-2-2-2-2-2-|4-4-4-4-4-4-4-11\|
 |1e&a2e&a3e&a4e&a|1e&a2e&a3e&a4e&a|1e&a2e&a3e&a4e&a|1e&a2e&a3e&a4e& a|


Chorus:
A:
  Bbm     Ab       Db      Gb       Bbm     Ab       Gb
e|66666-6x44444-4x|xxxxx-xx22222-2x|6-6-6-6x4-x44-4x|2-2-2-22222-2-2x|
B|66666-6x44444-4x|66666-6x22222-2x|6-6-6-6x4-x44-4x|2-2-2-22222-2-2x|
G|66666-6x55555-5x|66666-6x33333-3x|6-6-6-6x5-x55-5x|3-3-3-33333-3-3x|
D|88888-8x66666-6x|66666-6x44444-4x|8-8-8-8x6-x66-6x|4-4-4-44444-4-4x|
A|88888-8x66666-6x|44444-4x44444-4x|8-8-8-8x6-x66-6x|4-4-4-44444-4-4x|
E|66666-6x44444-4x|xxxxx-xx22222-2x|6-6-6-6x4-x44-4x|2-2-2-22222-2-2x|
 |1e&a2e&a3e&a4e&a|1e&a2e&a3e&a4e&a|1e&a2e&a3e&a4e&a|1e&a2e&a3e&a4e&a|


B:
  Bbm     Ab       Db      Gb       Bbm     Ab       Gb
e|----------------|----------------|----------------|----------------|
B|----------------|66666-----------|----------------|----------------|
G|----------------|66666-----------|----------------|----------------|
D|----------------|66666-----------|----------------|----------------|
A|88888---66666---|44444-4/44444-4-|8-8-8-8x6-6-6-6x|4-4-4-4-4-4-4---|
E|66666-6/44444-4/|--------22222-2/|6-6-6-6x4-4-4-4x|2-2-2-2-2-2-2-2/|
 |1e&a2e&a3e&a4e&a|1e&a2e&a3e&a4e&a|1e&a2e&a3e&a4e&a|1e&a2e&a3e&a4e&a|


A:
  Bbm     Ab       Db      Gb       Bbm     Ab       
e|66666-6x44444-4x|xxxxx-xx22222-2x|6-6-6-6x4-x44-4x|
B|66666-6x44444-4x|66666-6x22222-2x|6-6-6-6x4-x44-4x|
G|66666-6x55555-5x|66666-6x33333-3x|6-6-6-6x5-x55-5x|
D|88888-8x66666-6x|66666-6x44444-4x|8-8-8-8x6-x66-6x|
A|88888-8x66666-6x|44444-4x44444-4x|8-8-8-8x6-x66-6x|
E|66666-6x44444-4x|xxxxx-xx22222-2x|6-6-6-6x4-x44-4x|
 |1e&a2e&a3e&a4e&a|1e&a2e&a3e&a4e&a|1e&a2e&a3e&a4e&a|


B:
  Bbm     Ab       Db      Gb       Bbm     Ab       
e|----------------|----------------|----------------|
B|----------------|66666-----------|----------------|
G|----------------|66666-----------|----------------|
D|----------------|66666-----------|----------------|
A|88888---66666---|44444-4/44444-4-|8-8-8-8x6-6-6-6x|
E|66666-6/44444-4/|--------22222-2/|6-6-6-6x4-4-4-4x|
 |1e&a2e&a3e&a4e&a|1e&a2e&a3e&a4e&a|1e&a2e&a3e&a4e&a|


144 bpm
A:
  Gb
e|2-2-2-2-2-2-2-2-|2-2-2-2-2-2-2-x-|2-2-2-2-2-2-2-2-|2-2-2-2-2-2-2---|
B|2-2-2-2-2-2-2-2-|2-2-2-2-2-2-2-x-|2-2-2-2-2-2-2-2-|2-2-2-2-2-2-2---|
G|3-3-3-3-3-3-3-3-|3-3-3-3-3-3-3-x-|3-3-3-3-3-3-3-3-|3-3-3-3-3-3-3---|
D|4-4-4-4-4-4-4-4-|4-4-4-4-4-4-4-x-|4-4-4-4-4-4-4-4-|4-4-4-4-4-4-4---|
A|4-4-4-4-4-4-4-4-|4-4-4-4-4-4-4-x-|4-4-4-4-4-4-4-4-|4-4-4-4-4-4-4---|
E|2-2-2-2-2-2-2-2-|2-2-2-2-2-2-2-x-|2-2-2-2-2-2-2-2-|2-2-2-2-2-2-2---|
 |1e&a2e&a3e&a4e&a|1e&a2e&a3e&a4e&a|1e&a2e&a3e&a4e&a|1e&a2e&a3e&a4e&a|


B:
  Gb
e|2-2-2-2-2-2-2-2-|2-2-2-2-2-2-2-x-|2-2-2-2-2-2-2-2-|2-2-2-2-2-2-2---|
B|2-2-2-2-2-2-2-2-|2-2-2-2-2-2-2-x-|2-2-2-2-2-2-2-2-|2-2-2-2-2-2-2---|
G|3-3-3-3-3-3-3-3-|3-3-3-3-3-3-3-x-|3-3-3-3-3-3-3-3-|3-3-3-3-3-3-3---|
D|4-4-4-4-4-4-4-4-|4-4-4-4-4-4-4-x-|4-4-4-4-4-4-4-4-|4-4-4-4-4-4-4---|
A|4-4-4-4-4-4-4-4-|4-4-4-4-4-4-4-x-|4-4-4-4-4-4-4-4-|4-4-4-4-4-4-4---|
E|2-2-2-2-2-2-2-2-|2-2-2-2-2-2-2-x-|2-2-2-2-2-2-2-2-|2-2-2-2-2-2-2---|
 |1e&a2e&a3e&a4e&a|1e&a2e&a3e&a4e&a|1e&a2e&a3e&a4e&a|1e&a2e&a3e&a4e&a|


III. I Don't Care (3:42)
144 bpm
3/4 Time

Interlude:
A:
  Ab           Db           Ab           Db
e|4-4---4-4---|x---x---x---|4-4---4-4---|x---x---x---|
B|4-4---4-4---|6---6---6---|4-4---4-4---|6---6---6---|
G|5-5---5-5---|6---6---6---|5-5---5-5---|6---6---6---|
D|6-6---6-6---|6---6---6---|6-6---6-6---|6---6---6---|
A|6-6---6-6---|4---4---4---|6-6---6-6---|4---4---4---|
E|4-4---4-4---|x---x---x---|4-4---4-4---|x---x---x---|
 |1e&a2e&a3e&a|1e&a2e&a3e&a|1e&a2e&a3e&a|1e&a2e&a3e&a|


B:
e|------------|------------|------------|------------|
B|------------|------------|------------|6---4~~~2---|
G|------------|6---6~~~6---|------------|------------|
D|6-6~~~6-6-6-|------------|6-6~~~6-6-6-|------------|
A|------------|------------|------------|------------|
E|------------|------------|------------|------------|
 |1e&a2e&a3e&a|1e&a2e&a3e&a|1e&a2e&a3e&a|1e&a2e&a3e&a|


A:
  Gb           Db           Ab           
e|2-2---2-2---|x---x---x---|4-4---4-4---|4---4---4---|
B|2-2---2-2---|6---6---6---|4-4---4-4---|4---4---4---|
G|3-3---3-3---|6---6---6---|5-5---5-5---|5---5---5---|
D|4-4---4-4---|6---6---6---|6-6---6-6---|6---6---6---|
A|4-4---4-4---|4---4---4---|6-6---6-6---|6---6---6---|
E|2-2---2-2---|x---x---x---|4-4---4-4---|4---4---4---|
 |1e&a2e&a3e&a|1e&a2e&a3e&a|1e&a2e&a3e&a|1e&a2e&a3e&a|


B:
e|------------|------------|------------|-------------|
B/7-7~~~7-7-7-|6~~~4---2---|4-4---4-4---|9~~~~~~~-----|
G|------------|------------|------------|-------------|
D|------------|------------|------------|-------------|
A|------------|------------|------------|--------11\--|
E|------------|------------|------------|-------------|
 |1e&a2e&a3e&a|1e&a2e&a3e&a|1e&a2e&a3e&a|1e&a2e&a3 e&a|


Chorus:
  Ab           Db           Ab           Db
e|4-4---4-4---|x---x---x---|4-4---4-4---|x---x---x---|
B|4-4---4-4---|6---6---6---|4-4---4-4---|6---6---6---|
G|5-5---5-5---|6---6---6---|5-5---5-5---|6---6---6---|
D|6-6---6-6---|6---6---6---|6-6---6-6---|6---6---6---|
A|6-6---6-6---|4---4---4---|6-6---6-6---|4---4---4---|
E|4-4---4-4---|x---x---x---|4-4---4-4---|x---x---x---|
 |1e&a2e&a3e&a|1e&a2e&a3e&a|1e&a2e&a3e&a|1e&a2e&a3e&a|


  Gb           Db           Ab
e|2-2---2-2---|x---x---x---|4-4---4-4---|4---4---4---|
B|2-2---2-2---|6---6---6---|4-4---4-4---|4---4---4---|
G|3-3---3-3---|6---6---6---|5-5---5-5---|5---5---5---|
D|4-4---4-4---|6---6---6---|6-6---6-6---|6---6---6---|
A|4-4---4-4---|4---4---4---|6-6---6-6---|6---6---6---|
E|2-2---2-2---|x---x---x---|4-4---4-4---|4---4---4---|
 |1e&a2e&a3e&a|1e&a2e&a3e&a|1e&a2e&a3e&a|1e&a2e&a3e&a|


  Ab           Db           Ab           Db
e|4-4---4-4---|x---x---x---|4-4---4-4---|x---x---x---|
B|4-4---4-4---|6---6---6---|4-4---4-4---|6---6---6---|
G|5-5---5-5---|6---6---6---|5-5---5-5---|6---6---6---|
D|6-6---6-6---|6---6---6---|6-6---6-6---|6---6---6---|
A|6-6---6-6---|4---4---4---|6-6---6-6---|4---4---4---|
E|4-4---4-4---|x---x---x---|4-4---4-4---|x---x---x---|
 |1e&a2e&a3e&a|1e&a2e&a3e&a|1e&a2e&a3e&a|1e&a2e&a3e&a|


  Gb           Db           Ab
e|2-2---2-2---|x---x---x---|4-4---4-4---|4---4---4---|
B|2-2---2-2---|6---6---6---|4-4---4-4---|4---4---4---|
G|3-3---3-3---|6---6---6---|5-5---5-5---|5---5---5---|
D|4-4---4-4---|6---6---6---|6-6---6-6---|6---6---6---|
A|4-4---4-4---|4---4---4---|6-6---6-6---|6---6---6---|
E|2-2---2-2---|x---x---x---|4-4---4-4---|4---4---4---|
 |1e&a2e&a3e&a|1e&a2e&a3e&a|1e&a2e&a3e&a|1e&a2e&a3e&a|


  Ab           Db           Ab           Db
e|4-4---4-4---|x---x---x---|4-4---4-4---|x---x---x---|
B|4-4---4-4---|6---6---6---|4-4---4-4---|6---6---6---|
G|5-5---5-5---|6---6---6---|5-5---5-5---|6---6---6---|
D|6-6---6-6---|6---6---6---|6-6---6-6---|6---6---6---|
A|6-6---6-6---|4---4---4---|6-6---6-6---|4---4---4---|
E|4-4---4-4---|x---x---x---|4-4---4-4---|x---x---x---|
 |1e&a2e&a3e&a|1e&a2e&a3e&a|1e&a2e&a3e&a|1e&a2e&a3e&a|


  Gb           Db           Ab
e|2-2---2-2---|x---x---x---|4-4---4-4---|4---4---4---|
B|2-2---2-2---|6---6---6---|4-4---4-4---|4---4---4---|
G|3-3---3-3---|6---6---6---|5-5---5-5---|5---5---5---|
D|4-4---4-4---|6---6---6---|6-6---6-6---|6---6---6---|
A|4-4---4-4---|4---4---4---|6-6---6-6---|6---6---6---|
E|2-2---2-2---|x---x---x---|4-4---4-4---|4---4---4---|
 |1e&a2e&a3e&a|1e&a2e&a3e&a|1e&a2e&a3e&a|1e&a2e&a3e&a|


  Ab           Db           Ab           Db
e|4-4---4-4---|x---x---x---|4-4---4-4---|x---x---x---|
B|4-4---4-4---|6---6---6---|4-4---4-4---|6---6---6---|
G|5-5---5-5---|6---6---6---|5-5---5-5---|6---6---6---|
D|6-6---6-6---|6---6---6---|6-6---6-6---|6---6---6---|
A|6-6---6-6---|4---4---4---|6-6---6-6---|4---4---4---|
E|4-4---4-4---|x---x---x---|4-4---4-4---|x---x---x---|
 |1e&a2e&a3e&a|1e&a2e&a3e&a|1e&a2e&a3e&a|1e&a2e&a3e&a|


  Gb           Db           Ab
e|2-2---2-2---|x---x---x---|4-4---4-4---|4---4---4-x-|
B|2-2---2-2---|6---6---6---|4-4---4-4---|4---4---4-x-|
G|3-3---3-3---|6---6---6---|5-5---5-5---|5---5---5-x-|
D|4-4---4-4---|6---6---6---|6-6---6-6---|6---6---6-x-|
A|4-4---4-4---|4---4---4---|6-6---6-6---|6---6---6-x-|
E|2-2---2-2---|x---x---x---|4-4---4-4---|4---4---4-x-|
 |1e&a2e&a3e&a|1e&a2e&a3e&a|1e&a2e&a3e&a|1e&a2e&a3e&a|


2/4 Time

  Gb5 Ab5
e|x---x---|
B|x---x---|
G|x---x---|
D|x---x---|
A|4---6---|
E|2---4---|
 |1e&a2e&a|


142 bpm
4/4 time
Swing Eighth

  Db                 A5 Ab5 Db            
e|xxxx--xxxx--|xxxx--x--x--|xxxx--xxxx--|xxxx--x--x--|
B|6666--6666--|6666--x--x--|6666--6666--|6666--x--x--|
G|6666--6666--|6666--x--x--|6666--6666--|6666--x--x--|
D|6666--6666--|6666--x--x--|6666--6666--|6666--x--x--|
A|4444--4444--|4444--7--6--|4444--4444--|4444--7--6--|
E|xxxx--xxxx--|xxxx--5--4--|xxxx--xxxx--|xxxx--5--4--|
 |1ae2ae3ae4ae|1ae2ae3ae4ae|1ae2ae3ae4ae|1ae2ae3ae4ae|


  Db                 A5 Ab5 Db                 A5 Ab5
e|xxxx--xxxx--|xxxx--x--x--|xxxx--xxxx--|xxxx--x--x--|
B|6666--6666--|6666--x--x--|6666--6666--|6666--x--x--|
G|6666--6666--|6666--x--x--|6666--6666--|6666--x--x--|
D|6666--6666--|6666--x--x--|6666--6666--|6666--x--x--|
A|4444--4444--|4444--7--6--|4444--4444--|4444--7--6--|
E|xxxx--xxxx--|xxxx--5--4--|xxxx--xxxx--|xxxx--5--4--|
 |1ae2ae3ae4ae|1ae2ae3ae4ae|1ae2ae3ae4ae|1ae2ae3ae4ae|


Verse:
                     A5 Ab5                    A5 Ab5
e|------------|------x--x--|------------|------x--x--|
B|------------|------x--x--|------------|------x--x--|
G|------------|------x--x--|------------|------x--x--|
D|------------|------x--x--|------------|------x--x--|
A|------------|------7--6--|------------|------7--6--|
E|------------|------5--4--|------------|------5--4--|
 |1ae2ae3ae4ae|1ae2ae3ae4ae|1ae2ae3ae4ae|1ae2ae3ae4ae|


                     A5 Ab5                    A5 Ab5
e|------------|------x--x--|------------|------x--x--|
B|------------|------x--x--|------------|------x--x--|
G|------------|------x--x--|------------|------x--x--|
D|------------|------x--x--|------------|------x--x--|
A|------------|------7--6--|------------|------7--6--|
E|------------|------5--4--|------------|------5--4--|
 |1ae2ae3ae4ae|1ae2ae3ae4ae|1ae2ae3ae4ae|1ae2ae3ae4ae|


                     A5 Ab5                    A5 Ab5
e|------------|------x--x--|------------|------x--x--|
B|------------|------x--x--|------------|------x--x--|
G|------------|------x--x--|------------|------x--x--|
D|------------|------x--x--|------------|------x--x--|
A|------------|------7--6--|------------|------7--6--|
E|------------|------5--4--|------------|------5--4--|
 |1ae2ae3ae4ae|1ae2ae3ae4ae|1ae2ae3ae4ae|1ae2ae3ae4ae|


                     A5 Ab5                    A5 Ab5
e|------------|------x--x--|------------|------x--x--|
B|------------|------x--x--|------------|------x--x--|
G|------------|------x--x--|------------|------x--x--|
D|------------|------x--x--|------------|------x--x--|
A|------------|------7--6--|------------|------7--6--|
E|------------|------5--4--|------------|------5--4--|
 |1ae2ae3ae4ae|1ae2ae3ae4ae|1ae2ae3ae4ae|1ae2ae3ae4ae|


Bridge:
  Gb           Ab    Db Ab  Gb           Ab    Db Ab
e|2-22-22222-x|4-44-xx--4--|2-22-22222-x|4-44-xx--4--|
B|2-22-22222-x|4-44-x6--4--|2-22-22222-x|4-44-x6--4--|
G|3-33-33333-x|5-55-x6--5--|3-33-33333-x|5-55-x6--5--|
D|4-44-44444-x|6-66-x6--6--|4-44-44444-x|6-66-x6--6--|
A|4-44-44444-x|6-66-x4--6--|4-44-44444-x|6-66-x4--6--|
E|2-22-22222-x|4-44-xx--4--|2-22-22222-x|4-44-xx--4--|
 |1ae2ae3ae4ae|1ae2ae3ae4ae|1ae2ae3ae4ae|1ae2ae3ae4ae|


  Gb           Ab    Db Ab  Gb           Ab    Gb Ab
e|2-22-22222-x|4-44-xx--4--|2-22-22222-x|4-44-x2--4--|
B|2-22-22222-x|4-44-x6--4--|2-22-22222-x|4-44-x2--4--|
G|3-33-33333-x|5-55-x6--5--|3-33-33333-x|5-55-x3--5--|
D|4-44-44444-x|6-66-x6--6--|4-44-44444-x|6-66-x4--6--|
A|4-44-44444-x|6-66-x4--6--|4-44-44444-x|6-66-x4--6--|
E|2-22-22222-x|4-44-xx--4--|2-22-22222-x|4-44-x2--4--|
 |1ae2ae3ae4ae|1ae2ae3ae4ae|1ae2ae3ae4ae|1ae2ae3ae4ae|


  Db                 Gb5Ab5 Db                 Gb5Ab5
e|xxxx--xxxx--|xxxx--x--x--|xxxx--xxxx--|xxxx--x--x--|
B|6666--6666--|6666--x--x--|6666--6666--|6666--x--x--|
G|6666--6666--|6666--x--x--|6666--6666--|6666--x--x--|
D|6666--6666--|6666--x--x--|6666--6666--|6666--x--x--|
A|4444--4444--|4444--4--6--|4444--4444--|4444--4--6--|
E|xxxx--xxxx--|xxxx--2--4--|xxxx--xxxx--|xxxx--2--4--|
 |1ae2ae3ae4ae|1ae2ae3ae4ae|1ae2ae3ae4ae|1ae2ae3ae4ae|


  Db                 Gb5Ab5 Db                 Gb5Ab5
e|xxxx--xxxx--|xxxx--x--x--|xxxx--xxxx--|xxxx--x--x--|
B|6666--6666--|6666--x--x--|6666--6666--|6666--x--x--|
G|6666--6666--|6666--x--x--|6666--6666--|6666--x--x--|
D|6666--6666--|6666--x--x--|6666--6666--|6666--x--x--|
A|4444--4444--|4444--4--6--|4444--4444--|4444--4--6--|
E|xxxx--xxxx--|xxxx--2--4--|xxxx--xxxx--|xxxx--2--4--|
 |1ae2ae3ae4ae|1ae2ae3ae4ae|1ae2ae3ae4ae|1ae2ae3ae4ae|


  Db                    Ab
e|------------|------------|------------|--------------|
B|6-----6-----|6-----6-----|------------|--------------|
G|6-----6-----|6-----6--555|5-----------|(5)-----------|
D|6-----6-----|6-----6--666|6-----------|(6)-----------|
A|4-----4-----|4-----4--666|6-----------|(6)-----------|
E|------------|---------444|4-----------|(4)-----------|
 |1ae2ae3ae4ae|1ae2ae3ae4ae|1ae2ae3ae4ae| 1 ae2ae3ae4ae|


                              G5
e|--------------|--------------|
B|--------------|--------------|
G|(5)-----------|(5)-----------|
D|(6)-----------|(6)-----------|
A|(6)-----------|(6)----------5/
E|(4)-----------|(4)----------3/
 | 1 ae2ae3ae4ae| 1 ae2ae3ae4ae|



IV. Dearly Beloved (5:25)
142 bpm
4/4 Time
Swing Eigth

Verse:
  Ab5                     B5C5                      
e|------------|------------|------------|------------|
B|------------|------------|------------|------------|
G|------------|------------|------------|------------|
D|------------|-----------4/5-----------|-----------5/
A/6-----------|-----------2/3-----------|-----------3/ 
E/4-----------|------------|------------|------------| 
 |1ae2ae3ae4ae|1ae2ae3ae4ae|1ae2ae3ae4ae|1ae2ae3ae4ae|


  Db5                     GbAb5        DbEb5
e|------------|------------|------------|------------|
B|------------|------------|------------|------------|
G|------------|------------|------------|------------|
D/6-----------|------------|-----------7/8-----------|
A/4-----------|-----------5/6----------5/6-----------|
E|------------|-----------3/4-----------|------------|
 |1ae2ae3ae4ae|1ae2ae3ae4ae|1ae2ae3ae4ae|1ae2ae3ae4ae|


A:
     Ab                        Cm
e|---4-----4--|---4----44-x|---3-----3--|---3----33-x|
B|---4-----4--|---4----44-x|---4-----4--|---4----44-x|
G|---5-----5--|---5----55-x|---5-----5--|---5----55-x|
D|---6-----6--|---6----66-x|---5-----5--|---5----55-x|
A|---x-----x--|---x----xx-x|---3-----3--|---3----33-x|
E|---x-----x--|---x----xx-x|---x-----x--|---x----xx-x|
 |1ae2ae3ae4ae|1ae2ae3ae4ae|1ae2ae3ae4ae|1ae2ae3ae4ae|


B:
  Ab                        Cm
e|------------|------------|------------|------------|
B|------------|------------|---4-----4--|---4----44-x|
G|---5-----5--|---5----55-x|---5-----5--|---5----55-x|
D|---6-----6--|---6----66-x|---5-----5--|---5----55-x|
A|---6-----6--|---6----66-x|3-----3-----|3-----3-----|
E|4-----4-----|4-----4-----|------------|------------|
 |1ae2ae3ae4ae|1ae2ae3ae4ae|1ae2ae3ae4ae|1ae2ae3ae4ae|


A:
     Db                        Ab           Eb
e|---x-----x--|---x----xx-x|---4-----4--|---x----xx-x|
B|---6-----6--|---6----66-x|---4-----4--|---8----88-x|
G|---6-----6--|---6----66-x|---5-----5--|---8----88-x|
D|---6-----6--|---6----66-x|---6-----6--|---8----88-x|
A|---4-----4--|---4----44-x|---x-----x--|---6----66-x|
E|---x-----x--|---x----xx-x|---x-----x--|---x----xx-x|
 |1ae2ae3ae4ae|1ae2ae3ae4ae|1ae2ae3ae4ae|1ae2ae3ae4ae|


B:
  Db                        Ab           Eb
e|------------|------------|------------|------------|
B|---6-----6--|---6----66-x|------------|---8----88-x|
G|---6-----6--|---6----66-x|---5-----5--|---8----88-x|
D|---6-----6--|---6----66-x|---6-----5--|---8----88-x|
A|4-----4-----|4-----4-----|---6-----6--|6-----6-----|
E|------------|------------|4-----4-----|------------|
 |1ae2ae3ae4ae|1ae2ae3ae4ae|1ae2ae3ae4ae|1ae2ae3ae4ae|


A:
     Ab                        Cm
e|---4-----4--|---4----44-x|---3-----3--|---3----33-x|
B|---4-----4--|---4----44-x|---4-----4--|---4----44-x|
G|---5-----5--|---5----55-x|---5-----5--|---5----55-x|
D|---6-----6--|---6----66-x|---5-----5--|---5----55-x|
A|---x-----x--|---x----xx-x|---3-----3--|---3----33-x|
E|---x-----x--|---x----xx-x|---x-----x--|---x----xx-x|
 |1ae2ae3ae4ae|1ae2ae3ae4ae|1ae2ae3ae4ae|1ae2ae3ae4ae|


B:
  Ab                        Cm
e|------------|------------|------------|------------|
B|------------|------------|---4-----4--|---4----44-x|
G|---5-----5--|---5----55-x|---5-----5--|---5----55-x|
D|---6-----6--|---6----66-x|---5-----5--|---5----55-x|
A|---6-----6--|---6----66-x|3-----3-----|3-----3-----|
E|4-----4-----|4-----4-----|------------|------------|
 |1ae2ae3ae4ae|1ae2ae3ae4ae|1ae2ae3ae4ae|1ae2ae3ae4ae|


A:
     Db                        Ab           Eb
e|---x-----x--|---x----xx-x|---4-----4--|---x----xx-x|
B|---6-----6--|---6----66-x|---4-----4--|---8----88-x|
G|---6-----6--|---6----66-x|---5-----5--|---8----88-x|
D|---6-----6--|---6----66-x|---6-----6--|---8----88-x|
A|---4-----4--|---4----44-x|---x-----x--|---6----66-x|
E|---x-----x--|---x----xx-x|---x-----x--|---x----xx-x|
 |1ae2ae3ae4ae|1ae2ae3ae4ae|1ae2ae3ae4ae|1ae2ae3ae4ae|


B:
  Db                        Ab           Eb
e|------------|------------|------------|------------|
B|---6-----6--|---6----66-x|------------|---8----88-x|
G|---6-----6--|---6----66-x|---5-----5--|---8----88-x|
D|---6-----6--|---6----66-x|---6-----5--|---8----88-x|
A|4-----4-----|4-----4-----|---6-----6--|6-----6-----|
E|------------|------------|4-----4-----|------------|
 |1ae2ae3ae4ae|1ae2ae3ae4ae|1ae2ae3ae4ae|1ae2ae3ae4ae|


A:
     Ab                        Cm
e|---4-----4--|---4----44-x|---3-----3--|---3----33-x|
B|---4-----4--|---4----44-x|---4-----4--|---4----44-x|
G|---5-----5--|---5----55-x|---5-----5--|---5----55-x|
D|---6-----6--|---6----66-x|---5-----5--|---5----55-x|
A|---x-----x--|---x----xx-x|---3-----3--|---3----33-x|
E|---x-----x--|---x----xx-x|---x-----x--|---x----xx-x|
 |1ae2ae3ae4ae|1ae2ae3ae4ae|1ae2ae3ae4ae|1ae2ae3ae4ae|


B:
  Ab                        Cm
e|------------|------------|------------|------------|
B|------------|------------|---4-----4--|---4----44-x|
G|---5-----5--|---5----55-x|---5-----5--|---5----55-x|
D|---6-----6--|---6----66-x|---5-----5--|---5----55-x|
A|---6-----6--|---6----66-x|3-----3-----|3-----3-----|
E|4-----4-----|4-----4-----|------------|------------|
 |1ae2ae3ae4ae|1ae2ae3ae4ae|1ae2ae3ae4ae|1ae2ae3ae4ae|


A:
     Db                        Ab           Eb
e|---x-----x--|---x----xx-x|---4-----4--|---x----xx-x|
B|---6-----6--|---6----66-x|---4-----4--|---8----88-x|
G|---6-----6--|---6----66-x|---5-----5--|---8----88-x|
D|---6-----6--|---6----66-x|---6-----6--|---8----88-x|
A|---4-----4--|---4----44-x|---x-----x--|---6----66-x|
E|---x-----x--|---x----xx-x|---x-----x--|---x----xx-x|
 |1ae2ae3ae4ae|1ae2ae3ae4ae|1ae2ae3ae4ae|1ae2ae3ae4ae|


B:
  Db                        Ab           Eb
e|------------|------------|------------|------------|
B|---6-----6--|---6----66-x|------------|---8----88-x|
G|---6-----6--|---6----66-x|---5-----5--|---8----88-x|
D|---6-----6--|---6----66-x|---6-----5--|---8----88-x|
A|4-----4-----|4-----4-----|---6-----6--|6-----6-----|
E|------------|------------|4-----4-----|------------|
 |1ae2ae3ae4ae|1ae2ae3ae4ae|1ae2ae3ae4ae|1ae2ae3ae4ae|


A:
     Ab                        Cm
e|---4-----4--|---4----44-x|---3-----3--|---3----33-x|
B|---4-----4--|---4----44-x|---4-----4--|---4----44-x|
G|---5-----5--|---5----55-x|---5-----5--|---5----55-x|
D|---6-----6--|---6----66-x|---5-----5--|---5----55-x|
A|---x-----x--|---x----xx-x|---3-----3--|---3----33-x|
E|---x-----x--|---x----xx-x|---x-----x--|---x----xx-x|
 |1ae2ae3ae4ae|1ae2ae3ae4ae|1ae2ae3ae4ae|1ae2ae3ae4ae|


B:
  Ab                        Cm
e|------------|------------|------------|------------|
B|------------|------------|---4-----4--|---4----44-x|
G|---5-----5--|---5----55-x|---5-----5--|---5----55-x|
D|---6-----6--|---6----66-x|---5-----5--|---5----55-x|
A|---6-----6--|---6----66-x|3-----3-----|3-----3-----|
E|4-----4-----|4-----4-----|------------|------------|
 |1ae2ae3ae4ae|1ae2ae3ae4ae|1ae2ae3ae4ae|1ae2ae3ae4ae|


A:
     Db                        Ab           Eb
e|---x-----x--|---x----xx-x|---4-----4--|---x----xx-x|
B|---6-----6--|---6----66-x|---4-----4--|---8----88-x|
G|---6-----6--|---6----66-x|---5-----5--|---8----88-x|
D|---6-----6--|---6----66-x|---6-----6--|---8----88-x|
A|---4-----4--|---4----44-x|---x-----x--|---6----66-x|
E|---x-----x--|---x----xx-x|---x-----x--|---x----xx-x|
 |1ae2ae3ae4ae|1ae2ae3ae4ae|1ae2ae3ae4ae|1ae2ae3ae4ae|


B:
  Db                        Ab           Eb
e|------------|------------|------------|------------|
B|---6-----6--|---6----66-x|------------|---8----88-x|
G|---6-----6--|---6----66-x|---5-----5--|---8----88-x|
D|---6-----6--|---6----66-x|---6-----5--|---8----88-x|
A|4-----4-----|4-----4-----|---6-----6--|6-----6-----|
E|------------|------------|4-----4-----|------------|
 |1ae2ae3ae4ae|1ae2ae3ae4ae|1ae2ae3ae4ae|1ae2ae3ae4ae|


A:
     Ab                        Cm
e|---4-----4--|---4----44-x|---3-----3--|---3----33-x|
B|---4-----4--|---4----44-x|---4-----4--|---4----44-x|
G|---5-----5--|---5----55-x|---5-----5--|---5----55-x|
D|---6-----6--|---6----66-x|---5-----5--|---5----55-x|
A|---x-----x--|---x----xx-x|---3-----3--|---3----33-x|
E|---x-----x--|---x----xx-x|---x-----x--|---x----xx-x|
 |1ae2ae3ae4ae|1ae2ae3ae4ae|1ae2ae3ae4ae|1ae2ae3ae4ae|


B:
  Ab                        Cm
e|------------|------------|------------|------------|
B|------------|------------|---4-----4--|---4----44-x|
G|---5-----5--|---5----55-x|---5-----5--|---5----55-x|
D|---6-----6--|---6----66-x|---5-----5--|---5----55-x|
A|---6-----6--|---6----66-x|3-----3-----|3-----3-----|
E|4-----4-----|4-----4-----|------------|------------|
 |1ae2ae3ae4ae|1ae2ae3ae4ae|1ae2ae3ae4ae|1ae2ae3ae4ae|


A:
     Db                        Ab           Eb
e|---x-----x--|---x----xx-x|---4-----4--|---x----xx-x|
B|---6-----6--|---6----66-x|---4-----4--|---8----88-x|
G|---6-----6--|---6----66-x|---5-----5--|---8----88-x|
D|---6-----6--|---6----66-x|---6-----6--|---8----88-x|
A|---4-----4--|---4----44-x|---x-----x--|---6----66-x|
E|---x-----x--|---x----xx-x|---x-----x--|---x----xx-x|
 |1ae2ae3ae4ae|1ae2ae3ae4ae|1ae2ae3ae4ae|1ae2ae3ae4ae|


B:
  Db                        Ab           Eb
e|------------|------------|------------|------------|
B|---6-----6--|---6----66-x|------------|---8----88-x|
G|---6-----6--|---6----66-x|---5-----5--|---8----88-x|
D|---6-----6--|---6----66-x|---6-----5--|---8----88-x|
A|4-----4-----|4-----4-----|---6-----6--|6-----6-----|
E|------------|------------|4-----4-----|------------|
 |1ae2ae3ae4ae|1ae2ae3ae4ae|1ae2ae3ae4ae|1ae2ae3ae4ae|


A:
     Ab                        Cm
e|---4-----4--|---4----44-x|---3-----3--|---3----33-x|
B|---4-----4--|---4----44-x|---4-----4--|---4----44-x|
G|---5-----5--|---5----55-x|---5-----5--|---5----55-x|
D|---6-----6--|---6----66-x|---5-----5--|---5----55-x|
A|---x-----x--|---x----xx-x|---3-----3--|---3----33-x|
E|---x-----x--|---x----xx-x|---x-----x--|---x----xx-x|
 |1ae2ae3ae4ae|1ae2ae3ae4ae|1ae2ae3ae4ae|1ae2ae3ae4ae|


B:
  Ab                        Cm
e|------------|------------|------------|------------|
B|------------|------------|---4-----4--|---4----44-x|
G|---5-----5--|---5----55-x|---5-----5--|---5----55-x|
D|---6-----6--|---6----66-x|---5-----5--|---5----55-x|
A|---6-----6--|---6----66-x|3-----3-----|3-----3-----|
E|4-----4-----|4-----4-----|------------|------------|
 |1ae2ae3ae4ae|1ae2ae3ae4ae|1ae2ae3ae4ae|1ae2ae3ae4ae|


A:
     Db                        Ab           Eb
e|---x-----x--|---x----xx-x|---4-----4--|---x----xx-x|
B|---6-----6--|---6----66-x|---4-----4--|---8----88-x|
G|---6-----6--|---6----66-x|---5-----5--|---8----88-x|
D|---6-----6--|---6----66-x|---6-----6--|---8----88-x|
A|---4-----4--|---4----44-x|---x-----x--|---6----66-x|
E|---x-----x--|---x----xx-x|---x-----x--|---x----xx-x|
 |1ae2ae3ae4ae|1ae2ae3ae4ae|1ae2ae3ae4ae|1ae2ae3ae4ae|


B:
  Db                        Ab           Eb
e|------------|------------|------------|------------|
B|---6-----6--|---6----66-x|------------|---8----88-x|
G|---6-----6--|---6----66-x|---5-----5--|---8----88-x|
D|---6-----6--|---6----66-x|---6-----5--|---8----88-x|
A|4-----4-----|4-----4-----|---6-----6--|6-----6-----|
E|------------|------------|4-----4-----|------------|
 |1ae2ae3ae4ae|1ae2ae3ae4ae|1ae2ae3ae4ae|1ae2ae3ae4ae|


V. Tales of Another Broken Home (6:31)
72 bpm
4/4 Time
Normal Time

Interlude:
  Ab5        Gb5Db5Ab5        Gb5Db5Ab5        Gb5Db5Ab5        Gb5Db5
e|----------------|----------------|----------------|----------------|
B|----------------|----------------|----------------|----------------|
G|--------------6-|--------------6-|--------------6-|--------------6-|
D|6-----------4-6-|6-----------4-6-|6-----------4-6-|6-----------4-6-|
A|6-----------4-4-|6-----------4-4-|6-----------4-4-|6-----------4-4-|
E|4-----------2---|4-----------2---|4-----------2---|4-----------2---|
 |1e&a2e&a3e&a4e&a|1e&a2e&a3e&a4e&a|1e&a2e&a3e&a4e&a|1e&a2e&a3e&a4e&a|


Verse:
e|----------------|----------------|----------------|----------------|
B|----------------|----------------|----------------|----------------|
G|--------------6-|--------------6-|--------------6-|--------------6-|
D|66-66666-66x4-6-|66-66666-66x4-6-|66-66666-66x4-6-|66-66666-66x4-6-|
A|66-66666-66x4-4-|66-66666-66x4-4-|66-66666-66x4-4-|66-66666-66x4-4-|
E|44-44444-44x2---|44-44444-44x2---|44-44444-44x2---|44-44444-44x2---|
 |1e&a2e&a3e&a4e&a|1e&a2e&a3e&a4e&a|1e&a2e&a3e&a4e&a|1e&a2e&a3e&a4e&a|


e|----------------|----------------|----------------|----------------|
B|----------------|----------------|----------------|----------------|
G|--------------6-|--------------6-|--------------6-|--------------6-|
D|66-66666-66x4-6-|66-66666-66x4-6-|66-66666-66x4-6-|66-66666-66x4-6-|
A|66-66666-66x4-4-|66-66666-66x4-4-|66-66666-66x4-4-|66-66666-66x4-4-|
E|44-44444-44x2---|44-44444-44x2---|44-44444-44x2---|44-44444-44x2---|
 |1e&a2e&a3e&a4e&a|1e&a2e&a3e&a4e&a|1e&a2e&a3e&a4e&a|1e&a2e&a3e&a4e&a|


e|----------------|----------------|----------------|----------------|
B|----------------|8--9--8--9--8---|----------------|8--9--8--9--8---|
G|6-----6-----6---|8--8--8--8--8---|6-----6-----6---|8--8--8--8--8---|
D|6--6--6--6--6-6-|8--6--8--6--8---|6--6--6--6--6-6-|8--6--8--6--8---|
A|4--6--4--6--4-6-|----------------|4--6--4--6--4-6-|----------------|
E|---4-----4----4-|----------------|---4-----4----4-|----------------|
 |1e&a2e&a3e&a4e&a|1e&a2e&a3e&a4e&a|1e&a2e&a3e&a4e&a|1e&a2e&a3e&a4e&a|


e|----------------|----------------|----------------|----------------|
B|----------------|----------------|----------------|----------------|
G|--------------6-|--------------6-|--------------6-|--------------6-|
D|66-66666-66x4-6-|66-66666-66x4-6-|66-66666-66x4-6-|66-66666-66x4-6-|
A|66-66666-66x4-4-|66-66666-66x4-4-|66-66666-66x4-4-|66-66666-66x4-4-|
E|44-44444-44x2---|44-44444-44x2---|44-44444-44x2---|44-44444-44x2---|
 |1e&a2e&a3e&a4e&a|1e&a2e&a3e&a4e&a|1e&a2e&a3e&a4e&a|1e&a2e&a3e&a4e&a|


e|----------------|----------------|----------------|----------------|
B|----------------|----------------|----------------|----------------|
G|--------------6-|--------------6-|--------------6-|--------------6-|
D|66-66666-66x4-6-|66-66666-66x4-6-|66-66666-66x4-6-|66-66666-66x4-6-|
A|66-66666-66x4-4-|66-66666-66x4-4-|66-66666-66x4-4-|66-66666-66x4-4-|
E|44-44444-44x2---|44-44444-44x2---|44-44444-44x2---|44-44444-44x2---|
 |1e&a2e&a3e&a4e&a|1e&a2e&a3e&a4e&a|1e&a2e&a3e&a4e&a|1e&a2e&a3e&a4e&a|


e|----------------|----------------|----------------|----------------|
B|----------------|8--9--8--9--8---|----------------|8--9--8--9--8---|
G|6-----6-----6---|8--8--8--8--8---|6-----6-----6---|8--8--8--8--8---|
D|6--6--6--6--6-6-|8--6--8--6--8---|6--6--6--6--6-6-|8--6--8--6--8---|
A|4--6--4--6--4-6-|----------------|4--6--4--6--4-6-|----------------|
E|---4-----4----4-|----------------|---4-----4----4-|----------------|
 |1e&a2e&a3e&a4e&a|1e&a2e&a3e&a4e&a|1e&a2e&a3e&a4e&a|1e&a2e&a3e&a4e&a|


e|----------------|----------------|----------------|----------------|
B|----------------|8--9--8--9--8---|----------------|8--9--8--9------|
G|6-----6-----6---|8--8--8--8--8---|6-----6-----6---|8--8--8--8------|
D|6--6--6--6--6-6-|8--6--8--6--8---|6--6--6--6--6-6-|8--6--8--6----6-|
A|4--6--4--6--4-6-|----------------|4--6--4--6--4-6-|------------4-4-|
E|---4-----4----4-|----------------|---4-----4----4-|------------2---|
 |1e&a2e&a3e&a4e&a|1e&a2e&a3e&a4e&a|1e&a2e&a3e&a4e&a|1e&a2e&a3e&a4e&a|


A:
e|----------------|--------------8-|
B|----------------|----------------|
G|88-88-88-88-----|88-88-88-88---5-|
D|66-66-66-66-----|66-66-66-66-----|
A|66-66-66-66-----|66-66-66-66-----|
E|----------------|----------------|
 |1e&a2e&a3e&a4e&a|1e&a2e&a3e&a4e&a|


B:
e|----------------|----------------|
B|----------------|----------------|
G|----------------|----------------|
D|6-------------6-|6-------------6-|
A|6-----------4-4-|6-----------4-4-|
E|4-----------2---|4-----------2---|
 |1e&a2e&a3e&a4e&a|1e&a2e&a3e&a4e&a|


Guitar Solo:
A:
e|11---------9-13-9-|11-------------9-|
B|------------------|-----------------|
G|8----------6-10-6-|8--------------6-|
D|------------------|-----------------|
A|------------------|-----------------|
E|------------------|-----------------|
 |1 e&a2e&a3e&a4 e&a|1 e&a2e&a3e&a4e&a|


B:
e|----------------|----------------|
B|----------------|----------------|
G|--------------6-|--------------6-|
D|66-66666-66x4-6-|66-66666-66x4-6-|
A|66-66666-66x4-4-|66-66666-66x4-4-|
E|44-44444-44x2---|44-44444-44x2---|
 |1e&a2e&a3e&a4e&a|1e&a2e&a3e&a4e&a|


A:
e|8---------6-9-6-|8-------------8-|
B|----------------|----------------|
G|5---------3-6-3-|5-------------5-|
D|----------------|----------------|
A|----------------|----------------|
E|----------------|----------------|
 |1e&a2e&a3e&a4e&a|1e&a2e&a3e&a4e&a|


B:
e|----------------|----------------|
B|----------------|----------------|
G|--------------6-|--------------6-|
D|66-66666-66x4-6-|66-66666-66x4-6-|
A|66-66666-66x4-4-|66-66666-66x4-4-|
E|44-44444-44x2---|44-44444-44x2---|
 |1e&a2e&a3e&a4e&a|1e&a2e&a3e&a4e&a|


A:
e|11---------9-13-9-|11-------------9-|
B|------------------|-----------------|
G|8----------6-10-6-|8--------------6-|
D|------------------|-----------------|
A|------------------|-----------------|
E|------------------|-----------------|
 |1 e&a2e&a3e&a4 e&a|1 e&a2e&a3e&a4e&a|


B:
e|----------------|----------------|
B|----------------|----------------|
G|--------------6-|--------------6-|
D|66-66666-66x4-6-|66-66666-66x4-6-|
A|66-66666-66x4-4-|66-66666-66x4-4-|
E|44-44444-44x2---|44-44444-44x2---|
 |1e&a2e&a3e&a4e&a|1e&a2e&a3e&a4e&a|


A:
e|8---------6-9-6-|8-------------89|
B|----------------|----------------|
G|5---------3-6-3-|5-------------56|
D|----------------|----------------|
A|----------------|----------------|
E|----------------|----------------|
 |1e&a2e&a3e&a4e&a|1e&a2e&a3e&a4e&a|


B:
e|----------------|----------------|
B|----------------|----------------|
G|--------------6-|--------------6-|
D|66-66666-66x4-6-|66-66666-66x4-6-|
A|66-66666-66x4-4-|66-66666-66x4-4-|
E|44-44444-44x2---|44-44444-44x2---|
 |1e&a2e&a3e&a4e&a|1e&a2e&a3e&a4e&a|


C:
e|----------------|-----------------|
B|----------------|-----------------|
G|----------------|--------------5/6|
D|----------------|-----------------|
A|----------------|-----------------|
E|----------------|-----------------|
 |1e&a2e&a3e&a4e&a|1e&a2e&a3e&a4e& a|


A:
e|9-------------911|11-------------99|
B|-----------------|-----------------|
G|6-------------68-|8--------------66|
D|-----------------|-----------------|
A|-----------------|-----------------|
E|-----------------|-----------------|
 |1e&a2e&a3e&a4e&a |1 e&a2e&a3e&a4e&a|


B:
e|----------------------|------------------------|
B|7p6-9p6-7p6-9p6-7p6---|9p8-11p8-9p8-11p8-9p8---|
G|---6---6---6---6---6/8|---8----8---8----8---8\6|
D|----------------------|------------------------|
A|----------------------|------------------------|
E|----------------------|------------------------|
 |1 e&a 2e& a3e &a4 e& a|1 e&a  2e& a3e  &a4 e& a|


C:
e|----------------|----------------|
B|----------------|8--9--8--9--8---|
G|6-----6-----6---|8--8--8--8--8---|
D|6--6--6--6--6-6-|8--6--8--6--8---|
A|4--6--4--6--4-6-|----------------|
E|---4-----4----4-|----------------|
 |1e&a2e&a3e&a4e&a|1e&a2e&a3e&a4e&a|


A:
e|9-------------911|11-------------11-|
B|-----------------|------------------|
G|6-------------68-|8--------------8--|
D|-----------------|------------------|
A|-----------------|------------------|
E|-----------------|------------------|
 |1e&a2e&a3e&a4e&a |1 e&a2e&a3e&a4e& a|


B:
e|----------------------|-----------------------|
B|7p6-9p6-7p6-9p6-7p6---|9p8-11p8-9p8-11p8-9p8--|
G|---6---6---6---6---6/8|---8----8---8----8---8-|
D|----------------------|-----------------------|
A|----------------------|-----------------------|
E|----------------------|-----------------------|
 |1 e&a 2e& a3e &a4 e& a|1 e&a  2e& a3e  &a4 e&a|


C:
e|----------------|----------------|
B|----------------|8--9--8--9--8---|
G|6-----6-----6---|8--8--8--8--8---|
D|6--6--6--6--6-6-|8--6--8--6--8---|
A|4--6--4--6--4-6-|----------------|
E|---4-----4----4-|----------------|
 |1e&a2e&a3e&a4e&a|1e&a2e&a3e&a4e&a|


Bridge:
e|----------------|----------------|----------------|----------------|
B|----------------|----------------|----------------|----------------|
G|----------------|----------------|----------------|----------------|
D|----------------|----------------|----------------|----------------|
A|----------------|----------------|----------------|----------------|
E|----------------|----------------|----------------|----------------|
 |1e&a2e&a3e&a4e&a|1e&a2e&a3e&a4e&a|1e&a2e&a3e&a4e&a|1e&a2e&a3e&a4e&a|


e|----------------|----------------|----------------|
B|----------------|----------------|----------------|
G|----------------|----------------|----------------|
D|----------------|----------------|----------------|
A|----------------|----------------|----------------|
E|----------------|----------------|----------------|
 |1e&a2e&a3e&a4e&a|1e&a2e&a3e&a4e&a|1e&a2e&a3e&a4e&a|


5/4 time
e|--------------------|
B|--------------------|
G|--------------------|
D|--------------------|
A|--------------------|
E|--------------------|
 |1e&a2e&a3e&a4e&a5e&a|


Outro:
e|----------------|----------------|----------------|----------------|
B|----------------|----------------|----------------|----------------|
G|--------------6-|--------------6-|--------------6-|--------------6-|
D|66-66666-66x4-6-|66-66666-66x4-6-|66-66666-66x4-6-|66-66666-66x4-6-|
A|66-66666-66x4-4-|66-66666-66x4-4-|66-66666-66x4-4-|66-66666-66x4-4-|
E|44-44444-44x2---|44-44444-44x2---|44-44444-44x2---|44-44444-44x2---|
 |1e&a2e&a3e&a4e&a|1e&a2e&a3e&a4e&a|1e&a2e&a3e&a4e&a|1e&a2e&a3e&a4e&a|


A:
e|----------------|----------------|
B|----------------|----------------|
G|88-88-88-88-----|88-88-88-88-----|
D|66-66-66-66-----|66-66-66-66-----|
A|66-66-66-66-----|66-66-66-66-----|
E|----------------|----------------|
 |1e&a2e&a3e&a4e&a|1e&a2e&a3e&a4e&a|


B:
e|----------------|----------------|
B|----------------|----------------|
G|----------------|----------------|
D|6-------------6-|6-------------6-|
A|6-----------4-4-|6-----------4-4-|
E|4-----------2---|4-----------2---|
 |1e&a2e&a3e&a4e&a|1e&a2e&a3e&a4e&a|


e|----------------|
B|----------------|
G|----------------|
D|----------------|
A|6\--------------|
E|4\--------------|
 |1e&a2e&a3e&a4e&a|
comments
print report bad tab
17 comments total. Showing first comments.
0 reply
Alien_from_a_cd wrote on April 9 2005, 12:00 am

Why the hell did you write it in such a bright color?!
Anyway, I think it's pretty good.

+1 reply
Alien_from_a_cd wrote on April 9 2005, 12:00 am

no wait, sorry that's just my comp being retarded.

-1 reply
schuey100 wrote on May 23 2005, 12:00 am

You get 5 stars just for the effort! Good job

I want to post or [tab]
guest
You may want to rate the tab now too:
select rating
Please do not post tabs as comments. Select "correction" instead!