Oops, an error
Loading. Please wait.

Kerplunk Tab

18,583 views 24 this week
24 commentsread comments
1 2 3 4 5
accurate
x 28
add to favorites launch autoscroll
font size
0
reset
Autoscroll
+/-
esc
set tempo
stop
Contributor
WARNING: You are trying to view
                                    content from Ultimate-Guitar.com
                                    in an unauthorized application,
                                    which is prohibited.

                                    Please use an official Ultimate
                                    Guitar Tabs application for iPhone,
                                    iPad or Android to access legitimate
                                    chords, guitar, bass, and drum tabs
                                    from Ultimate-Guitar.com database.

                                    Type "ultimate guitar tabs" in Apple
                                    App Store's or Android Market's
                                    search to find the application.
Green Day Kerplunk album tab
Tabbed by Liam
Email: guitar_rocker_47@hotmail.com
Note: I've looked on every tab site and I cant find any Kerplunk tabs so I gonna try and
tab a good one now.

1.	2000 light years away
2.	One for the razorbacks
3.	Welcome to paradise
4.	Christie road
5.	Private ale
6.	Dominated love slave
7.	One of my lies
8.	80
9.	Android
10.	No one knows
11.	Who wrote Holden Caulfield
12.	Words I might have ate
13.	Sweet children
14.	Best thing in town
15.	Strangeland
16.	My Generation

--------------------------------------------------------------------------------------
Green Day 2000 light years away
--------------------------------------------------------------------------------------
Tuning standard

Intro
e|---------------------------------------------------------------------------|
B|---------------------------------------------------------------------------|
G|-4-4-4-4-4---------------4-4-4-4-4---------------4-4-4-4-4-----------------|
D|-4-4-4-4-4--6-4--4-4-4---4-4-4-4-4--6-4--4-4-4---4-4-4-4-4--6-4--4-4-4-----|
A|-2-2-2-2-2--6-4--4-4-4---2-2-2-2-2--6-4--4-4-4---2-2-2-2-2--6-4--4-4-4-----|
E|------------4-2--2-2-2--------------4-2--2-2-2--------------4-2--2-2-2-----|

e|---------------------------------------------------------------------------|
B|---------------------------------------------------------------------------|
G|--4-4-4-4------------------------------------------------------------------|
D|--4-4-4-4--6-4--4-4-4------------------------------------------------------|
A|--2-2-2-2--6-4--4-4-4------------------------------------------------------|
E|-----------4-2--2-2-2------------------------------------------------------|

Verse
e|---------------------------------------------------------------------------|
B|---------------------------------------------------------------------------|
G|-4-4-4-4-4-------------4-4-4-4-4-------------4-4-4-4-4---------------------|
D|-4-4-4-4-4--4-4-4-4-4--4-4-4-4-4--4-4-4-4-4--4-4-4-4-4--4-4-4-4-4----------|
A|-2-2-2-2-2--4-4-4-4-4--2-2-2-2-2--4-4-4-4-4--2-2-2-2-2--4-4-4-4-4----------|
E|------------2-2-2-2-2-------------2-2-2-2-2-------------2-2-2-2-2----------|

e|---------------------------------------------------------------------------|
B|---------------------------------------------------------------------------|
G|-4-4-4-4-4-----------------------------------------------------------------|
D|-4-4-4-4-4--4-4-4-4-4------------------------------------------------------|
A|-2-2-2-2-2--2-2-2-2-2------------------------------------------------------|
E|------------2-2-2-2-2------------------------------------------------------|

Chorus
e|---------------------------------------------------------------------------|
B|---------------------------------------------------------------------------|
G|------------4-4-4-4-4------------------------------------------------------|
D|-6-6-6-6-6--4-4-4-4-4--6-x-x-6-x--4-4-4-4-4-4--2-2-2-2-2-2--4-4-4-4-4-4----|
A|-6-6-6-6-6--2-2-2-2-2--6-x-x-6-x--4-4-4-4-4-4--2-2-2-2-2-2--4-4-4-4-4-4----|
E|-4-4-4-4-4-------------4-x-x-4-x--2-2-2-2-2-2--0-0-0-0-0-0--2-2-2-2-2-2----|

e|---------------------------------------------------------------------------|
B|---------------------------------------------------------------------------|
G|------------4-4-4-4-4------------------------------------------------------|
D|-6-6-6-6-6--4-4-4-4-4--6-x-x-6-x--4-4-4-4-4-4--2-2-2-2-2-2--4-4-4-4-4-4----|
A|-6-6-6-6-6--2-2-2-2-2--6-x-x-6-x--4-4-4-4-4-4--2-2-2-2-2-2--4-4-4-4-4-4----|
E|-4-4-4-4-4-------------4-x-x-4-x--2-2-2-2-2-2--0-0-0-0-0-0--2-2-2-2-2-2----|

Verse 2
e|---------------------------------------------------------------------------|
B|---------------------------------------------------------------------------|
G|-4-4-4-4-4-------------4-4-4-4-4-------------4-4-4-4-4---------------------|
D|-4-4-4-4-4--4-4-4-4-4--4-4-4-4-4--4-4-4-4-4--4-4-4-4-4--4-4-4-4-4----------|
A|-2-2-2-2-2--4-4-4-4-4--2-2-2-2-2--4-4-4-4-4--2-2-2-2-2--4-4-4-4-4----------|
E|------------2-2-2-2-2-------------2-2-2-2-2-------------2-2-2-2-2----------|
PM * * * *    * * * *    * * * *    * * * *    * * * *    * * * *  

e|---------------------------------------------------------------------------|
B|---------------------------------------------------------------------------|
G|-4-4-4-4-4-----------------------------------------------------------------|
D|-4-4-4-4-4--4-4-4-4-4------------------------------------------------------|
A|-2-2-2-2-2--2-2-2-2-2------------------------------------------------------|
E|------------2-2-2-2-2------------------------------------------------------|
PM * * * *    * * * *


Order

Intro
Verse
Chorus
Intro
Verse 2
Chorus
Intro
Intro (just bass)
Verse (just bass)
Chorus
Intro

Lyrics

(Verse 1)
I sit alone in my bedroom, staring at the walls
I've been up all damn nightlong
My pulse is speeding, my love is yearning

(Chorus)
I hold my breath and close my eyes
And dream about her...			
Cause she's 2000 light years away   
She holds my malachite so tight so
Never let go...
Cause she's 2000 light years away

(Verse 2)
I sit outside and watch the sunrise
Lookout as far as I can
I can't see her, but in the distance
I hear some laughter, we laugh together

(Chorus)
I hold my breath and close my eyes
And dream about her...			
Cause she's 2000 light years away   
She holds my malachite so tight so
Never let go...
Cause she's 2000 light years away

(Verse 1)
I sit alone in my bedroom, staring at the walls
I've been up all damn nightlong
My pulse is speeding, my love is yearning

(Chorus)
I hold my breath and close my eyes
And dream about her...			
Cause she's 2000 light years away   
She holds my malachite so tight so
Never let go...
Cause she's 2000 light years away


--------------------------------------------------------------------------------------
Green Day One for the Razorbacks
--------------------------------------------------------------------------------------
Tuning standard

Intro
e|---------------------------------------------------------------------------|
B|-----7------2-------7-------0-------7-------2-------7----------------------|
G|----8------3-------8-------1-------8-------3-------8-----------------------|
D|---9------4-------9-------2-------9-------4-------9------------------------|
A|--9------4-------9-------2-------9-------4-------9-------------------------|
E|-7------2-------7-------0-------7-------2-------7--------------------------|

Verse
e|---------------------------------------------------------------------------|
B|---------------------------------------------------------------------------|
G|----------------------------------------9-9-9-9-9-9------------------------|
D|-9-9-9-9-9-9--4-4-4-4-4-4--9-9-9-9-9-9--9-9-9-9-9-9--9-9-9-9-9-9--4-4-4-4--|
A|-9-9-9-9-9-9--4-4-4-4-4-4--9-9-9-9-9-9--7-7-7-7-7-7--9-9-9-9-9-9--4-4-4-4--|
E|-7-7-7-7-7-7--2-2-2-2-2-2--7-7-7-7-7-7---------------7-7-7-7-7-7--2-2-2-2--|

e|---------------------------------------------------------------------------|
B|---------------------------------------------------------------------------|
G|-----------------------------------------------------------------------9-9-|
D|-4-4--9-9-9-9-9-9--4-4-4-4-4-4--9-9-9-9-9-9--4-4-4-4-4-4--9-9-9-9-9-9--9-9-|
A|-4-4--9-9-9-9-9-9--4-4-4-4-4-4--9-9-9-9-9-9--4-4-4-4-4-4--9-9-9-9-9-9--7-7-|
E|-2-2--7-7-7-7-7-7--2-2-2-2-2-2--7-7-7-7-7-7--2-2-2-2-2-2--7-7-7-7-7-7------|
PM                   * *   * *

e|---------------------------------------------------------------------------|
B|---------------------------------------------------------------------------|
G|-9-9-9-9-------------------------------------------------------------------|
D|-9-9-9-9--9-9-9-9-9-9--4-4-4-4-4-4--9-9-9-9-9-9----------------------------|
A|-7-7-7-7--9-9-9-9-9-9--4-4-4-4-4-4--9-9-9-9-9-9----------------------------|
E|----------7-7-7-7-7-7--2-2-2-2-2-2--7-7-7-7-7-7----------------------------|

Chorus
e|---------------------------------------------------------------------------|
B|---------------------------------------------------------------------------|
G|----------9-9-9-9-----------------------------9-9-9-9----------------------|
D|-4-4-4-4--9-9-9-9--9-9-9-9-9-9-9-9---4-4-4-4--9-9-9-9--9-9-9-9-9-9-9-9-----|
A|-4-4-4-4--7-7-7-7--9-9-9-9-9-9-9-9---4-4-4-4--7-7-7-7--9-9-9-9-9-9-9-9-----|
E|-2-2-2-2-----------7-7-7-7-7-7-7-7---2-2-2-2-----------7-7-7-7-7-7-7-7-----|

e|---------------------------------------------------------------------------|
B|---------------------------------------------------------------------------|
G|----------9-9-9-9-----------------------------9-9-9-9----------------------|
D|-4-4-4-4--9-9-9-9--9-9-9-9-9-9-9-9---4-4-4-4--9-9-9-9--9-9-9-9-9-9-9-9-----|
A|-4-4-4-4--7-7-7-7--9-9-9-9-9-9-9-9---4-4-4-4--7-7-7-7--9-9-9-9-9-9-9-9-----|
E|-2-2-2-2-----------7-7-7-7-7-7-7-7---2-2-2-2-----------7-7-7-7-7-7-7-7-----|


Solo - sorry I couldn't work it out but if you get the one for the razorbacks
tab which was submitted by Chris, Email: cwsmith@together.net his solo sounds right

Order

Intro
Verse
Chorus
Verse
Chorus
Solo
Verse x2
Chorus

Lyrics

(Verse)
Juliet's trying to find out what she wants, but she don't know
Experience has got her down
Look this direction, I know it's not perfection; it's just me...
I want to bring you up again now

(Chorus)
Cause' I'm losing what's left of my dignity
A small price to pay to see that you're happy
Forget all the disappointments you have faced
Open up your worried world and let me in

(Verse)
Juliet's crying cause now she's realizing love can be
Filled with pain and distrust
I know I am crazy, and a bit lazy
But I will try to bring you up again somehow

(Chorus)
Cause' I'm losing what's left of my dignity
A small price to pay to see that you're happy
Forget all the disappointments you have faced
Open up your worried world and let me in

(Verse)
Juliet's crying cause now she's realizing love can be
Filled with pain and distrust
I know I am crazy, and a bit lazy
But I will try to bring you up again some how

(Chorus)
Cause' I'm losing what's left of my dignity
A small price to pay to see that you're happy
Forget all the disappointments you have faced
Open up your worried world and let me in



--------------------------------------------------------------------------------------
Green Day Welcome to Paradise
--------------------------------------------------------------------------------------

Tuning: Standard
Note: there is loads of guitars used in this song especially in the interlude but I have
tabbed it out as one guitar it's the easiest way

Intro
e|-----------------------------------------------------------------------------------|
B|-----------------------------------------------------------------------------------|
G|-8-x-8-8-x-6-6-6------8-x-8-8-x-6-6-6------8-x-8-8-x-6-6-6------8-x-8-8-x-6-6-6----| 
D|-8-x-8-8-x-6-6-6-6-6--8-x-8-8-x-6-6-6-6-6--8-x-8-8-x-6-6-6-6-6--8-x-8-8-x-6-6-6-6-6|
A|-6-x-6-6-x-4-4-4-6-6--6-x-6-6-x-4-4-4-6-6--6-x-6-6-x-4-4-4-6-6--6-x-6-6-x-4-4-4-6-6|
E|-----------------4-4------------------4-4------------------4-4------------------4-4|

Verse
e|-----------------------------------------------------------------------------------|
B|-----------------------------------------------------------------------------------|
G|-8-8-8-8-8-6-6-6-6-6--8-x-8-8-x-8-8-8-8-8-8-8-8-8-8--6-6-6-6-6-----------6-6-6-6---| 
D|-8-8-8-8-8-6-6-6-6-6--8-x-8-8-x-8-8-8-8-8-8-8-8-8-8--6-6-6-6-6--2-2-4-4--6-6-6-6---|
A|-6-6-6-6-6-4-4-4-4-4--6-x 6-6-x-6-6-6-6-6-6-6-6-6-6--4-4-4-4-4--2-2-4-4--4-4-4-4---|
E|----------------------------------------------------------------0-0-2-2------------|

e|----------------------------------------------------------------------------------|
B|----------------------------------------------------------------------------------|
G|-8-8-8-8-8-6-6-6-6-6--8-x-8-8-x-8-8-8-8-8-8-8-8-8-8-6-6-6-6-6-----------6-6-6-6---|
D|-8-8-8-8-8-6-6-6-6-6--8-x-8-8-x-8-8-8-8-8-8-8-8-8-8-6-6-6-6-6--2-2-4-4--6-6-6-6--2|
A|-6-6-6-6-6-4-4-4-4-4--6-x 6-6-x-6-6-6-6-6-6-6-6-6-6-4-4-4-4-4--2-2-4-4--4-4-4-4--2|
E|---------------------------------------------------------------0-0-2-2-----------0|

e|-----------------------------------------------------------------------------------|
B|-----------------------------------------------------------------------------------|
G|----------6-6-6-6-6-6--------------------------------------------------------------| 
D|--2--4-4--6-6-6-6-6-6--------------------------------------------------------------|
A|--2--4-4--4-4-4-4-4-4--------------------------------------------------------------|
E|--0--2-2---------------------------------------------------------------------------|

Chorus
e|-----------------------------------------------------------------------------------|
B|-----------------------------------------------------------------------------------|
G|---------------------2-2-2-2-2-6-6-6-6-6----------------------6-6-6-6-6-6-6-6------| 
D|-2-2-2-2-2-6-6-6-6-6-2-2-2-2-2-6-6-6-6-6--2-2-2-2-2-6-6-6-6-6-6-6-6-6-6-6-6-6--2-2-|
A|-2-2-2-2-2-6-6-6-6-6-0-0-0-0-0-4-4-4-4-4--2-2-2-2-2-6-6-6-6-6-4-4-4-4-4-4-4-4--2-2-|
E|-0-0-0-0-0-4-4-4-4-4----------------------0-0-0-0-0-4-4-4-4-4------------------0-0-|

e|-----------------------------------------------------------------------------------|
B|-----------------------------------------------------------------------------------|
G|-------------------2-2-2-2-2-6-6-6-6-6---------------------------------------------|
D|---2-2-2-6-6-6-6-6-2-2-2-2-2-6-6-6-6-6---------------------------------------------|
A|---2-2-2-6-6-6-6-6-0-0-0-0-0-4-4-4-4-4---------------------------------------------|
E|---0-0-0-4-4-4-4-4-----------------------------------------------------------------|

Fill 1
e|---------------|-------------------------------------------------------------------|
B|---------------|-------------------------------------------------------------------|
G|-------------4-|-8-x-6-6-x-4-4-4-----8-x-8-8-x-6-6-6-------------------------------|
D|-2-2--2-2--2-4-|-8-x-6-6-x-4-4-4--6--8-x-8-8-x-6-6-6-6-6---------------------------|
A|-2-2--2-2--2-2-|-6-x-6-6-x-4-4-4--6--6-x-6-6-x-4-4-4-6-6---------------------------|
E|-0-0--0-0--0---|------------------4------------------4-4---------------------------|

Fill 2
e|-----------------------------------------------------------------------------------|
B|-----------------------------------------------------------------------------------|
G|-------------4--8-x-6-6-x-4-4-4-----8-x-8-8-x-6-6-6------8-x-8-8-x-6-6-6-----------|
D|-2-2--2-2--2-4--8-x-6-6-x-4-4-4--6--8-x-8-8-x-6-6-6-6-6--8-x-8-8-x-6-6-6-6-6-------|
A|-2-2--2-2--2-2--6-x-6-6-x-4-4-4--6--6-x-6-6-x-4-4-4-6-6--6-x-6-6-x-4-4-4-6-6-------|
E|-0-0--0-0--0---------------------4------------------4-4------------------4-4-------|

e|-----------------------------------------------------------------------------------|
B|-----------------------------------------------------------------------------------|
G|-8-x-8-8-x-6-6-6-------------------------------------------------------------------|
D|-8-x-8-8-x-6-6-6-6-6---4~~---------------------------------------------------------|
A|-6-x-6-6-x-4-4-4-6-6---4~~---------------------------------------------------------|
E|-----------------4-4---2~~---------------------------------------------------------|


Bridge (gradually release palm mute)
e|----------------------------|
B|----------------------------|
G|-9-9-9--8-8-8--7-7-7--6-6-6-|
D|-9-9-9--8-8-8--7-7-7--6-6-6-| x8
A|-7-7-7--6-6-6--5-5-5--4-4-4-|
E|----------------------------|
PM ***    ***    ***    ***

End
e|-----------------------------------------------------------------------------------|
B|-----------------------------------------------------------------------------------|
G|----8-x-8-8-x-6-6-6------8-x-8-8-x-6-6-6------8-x-8-8-x-6-6-6------8-x-8-8-x-6-6-6-|
D|-6--8-x-8-8-x-6-6-6-6-6--8-x-8-8-x-6-6-6-6-6--8-x-8-8-x-6-6-6-6-6--8-x-8-8-x-6-6-6-|
A|-6--6-x-6-6-x-4-4-4-6-6--6-x-6-6-x-4-4-4-6-6--6-x-6-6-x-4-4-4-6-6--6-x-6-6-x-4-4-4-|
E|-4------------------4-4------------------4-4------------------4-4------------------|

e|-----------------------------------------------------------------------------------|
B|-----------------------------------------------------------------------------------|
G|-----------------------------------------------------------------------------------|
D|-6-6\8-----------------------------------------------------------------------------|
A|-6-6\8-----------------------------------------------------------------------------|
E|-4-4\6-----------------------------------------------------------------------------|

Order

Intro
Verse
Chorus
Fill 1
Verse
Chorus
Fill 2
Bridge
Verse
Chorus
End


Lyrics

(Verse)
Dear mother,
Can you hear me whining?
It's been three whole weeks
Since that I have left your home
This sudden fear has left me trembling
Cause now it seems that I am out here on my own
And I'm feeling so alone

(Chorus)
Pay attention to the cracked streets
And the broken homes
Some call it slums
Some call it nice
I want to take you through 
A wasteland I like to call 
My home
Welcome To Paradise

(Verse)
A gunshot rings out at the station
Another urchin snaps and left dead on his own
It makes me wonder why I'm still here
For some strange reason its now
Feeling like my home 
And I'm never gonna go

(Chorus)
Pay attention to the cracked streets
And the broken homes
Some call it slums
Some call it nice
I want to take you through 
A wasteland I like to call 
My home
Welcome To Paradise

(Verse)
Dear mother,
Can you hear me laughing?               
It's been six whole months since 
Since that I have left your home
It makes me wonder why I'm still here
For some strange reason it's now
Feeling like my home 
And I'm never gonna go

(Chorus)
Pay attention to the cracked streets
And the broken homes
Some call it slums
Some call it nice
I want to take you through 
A wasteland I like to call 
My home
Welcome To Paradise

(Outro)
To paradise

--------------------------------------------------------------------------------------
Green Day Christie Road
--------------------------------------------------------------------------------------
Tuning Standard

Verse
e|---------------------------------------------------------------------------|
B|---------------------------------------------------------------------------|
G|---------------------------------------------------5-5-5-5-5-5-5-5-5-5-5-5-|
D|-5-5-5-5-5-5-5-5-5-5-5-5--2-2-2-2-2-2-2-2-2-2-2-2--5-5-5-5-5-5-5-5-5-5-5-5-|
A|-5-5-5-5-5-5-5-5-5-5-5-5--2-2-2-2-2-2-2-2-2-2-2-2--3-3-3-3-3-3-3-3-3-3-3-3-|
E|-3-3-3-3-3-3-3-3-3-3-3-3--0-0-0-0-0-0-0-0-0-0-0-0--------------------------|
PM *************************************************************************

e|-0------------0-------0----------------------------------------------------|
B|-3--3----3------3---3---3---3----------------------------------------------|
G|-2----2----2------2-------2------------------------------------------------|
D|-0------------------------------5-5-5-5-5-5-5-5-5-5-5-5--2-2-2-2-2-2-2-2-2-|
A|--------------------------------5-5-5-5-5-5-5-5-5-5-5-5--2-2-2-2-2-2-2-2-2-|
E|--------------------------------3-3-3-3-3-3-3-3-3-3-3-3--0-0-0-0-0-0-0-0-0-|
PM                                ******************************************

e|-------------------------------------0-------------0-------0---------------|
B|-------------------------------------3--3----3-------3---3---3---3---------|
G|--------5-5-5-5-5-5-5-5-5-5-5-5------2----2----2-------2-------2-----------|
D|-2-2-2--5-5-5-5-5-5-5-5-5-5-5-5------0-------------------------------------|
A|-2-2-2--3-3-3-3-3-3-3-3-3-3-3-3--------------------------------------------|
E|-0-0-0---------------------------------------------------------------------|
PM *****

Chorus (Where there are palm mute marks just palm mute lightly)
e|-0------------0-------0---------0------------0-------0---------0-----------|
B|-3--3----3------3---3---3---2---3--3----3------3---3---3---3---3--3---3----|
G|-2----2----2------2-------2-----2----2----2------2-------2-----2----2---2--|
D|-0------------------------------0------------------------------0-----------|
A|---------------------------------------------------------------------------|
E|---------------------------------------------------------------------------|
PM ******************************                                ************

e|-0-------0---------0-----------0-------0--------0------------0------0------|
B|---3---3---3---3---3--3---3------3---3---3---3--3--3----3------3---3--3---3|
G|-----2-------2-----2----2---2------2-------2----2----2----2------2------2--|
D|-------------------0----------------------------0--------------------------|
A|---------------------------------------------------------------------------|
E|---------------------------------------------------------------------------|
PM*******************                             ***************************

e|-0------------0-------0----------------------------------------------------|
B|-3--3----3------3---3---3---3----------------------------------------------|
G|-2----2----2------2-------2-------5~~--------------7~~---------------------|
D|-0--------------------------------5~~-----5~~------7~~---------------------|
A|----------------------------------3~~-----5~~------5~~---------------------|
E|------------------------------------------3~~------------------------------|

Bridge
e|---------------------------------------------------------------------------|
B|---------------------------------------------------------------------------|
G|----------------5-5----------------------------5-5-------------------------|
D|-5-5--x-x--3-3--5-5-x-x--3-3----5-5--x-x--3-3--5-5-x-x--3-3----------------|
A|-5-5--x-x--3-3--3-3-x-x--3-3----5-5--x-x--3-3--3-3-x-x--3-3----------------|
E|-3-3--x-x--1-1------x-x--1-1----3-3--x-x--1-1------x-x--1-1----------------|

e|---------------------------------------------------------------------------|
B|---------------------------------------------------------------------------|
G|----------------5-5----------------------------5-5-------------------------|
D|-5-5--x-x--3-3--5-5-x-x--3-3----5-5--x-x--3-3--5-5-x-x--3-3----------------|
A|-5-5--x-x--3-3--3-3-x-x--3-3----5-5--x-x--3-3--3-3-x-x--3-3----------------|
E|-3-3--x-x--1-1------x-x--1-1----3-3--x-x--1-1------x-x--1-1----------------|

e|---------------------------------------------------------------------------|
B|---------------------------------------------------------------------------|
G|----------------5-5----------------------------5-5-------------------------|
D|-5-5--x-x--3-3--5-5-x-x--3-3----5-5--x-x--3-3--5-5-x-x--3-3----------------|
A|-5-5--x-x--3-3--3-3-x-x--3-3----5-5--x-x--3-3--3-3-x-x--3-3----------------|
E|-3-3--x-x--1-1------x-x--1-1----3-3--x-x--1-1------x-x--1-1----------------|

Interlude
e|---------------------------------------------------------------------------|
B|---------------------------------------------------------------------------|
G|---------------------------------------5-5-5-5-5-5-5-5-5-5-----------------|
D|-5-5-5-5-5-5-5-5--9-9-9-9-9-9-9-9-9-9--5-5-5-5-5-5-5-5-5-5-3-3-3-3-3-3-3-3-|
A|-5-5-5-5-5-5-5-5--9-9-9-9-9-9-9-9-9-9--3-3-3-3-3-3-3-3-3-3-3-3-3-3-3-3-3-3-|
E|-3-3-3-3-3-3-3-3--7-7-7-7-7-7-7-7-7-7----------------------1-1-1-1-1-1-1-1-|
PM **************************************************************************

e|---------------------------------------------------------------------------|
B|---------------------------------------------------------------------------|
G|---------------------------------------5-5-5-5-5-5-5-5-5-5-----------------|
D|-5-5-5-5-5-5-5-5--9-9-9-9-9-9-9-9-9-9--5-5-5-5-5-5-5-5-5-5-3-3-3-3-3-3-3-3-|
A|-5-5-5-5-5-5-5-5--9-9-9-9-9-9-9-9-9-9--3-3-3-3-3-3-3-3-3-3-3-3-3-3-3-3-3-3-|
E|-3-3-3-3-3-3-3-3--7-7-7-7-7-7-7-7-7-7----------------------1-1-1-1-1-1-1-1-|
PM***************************************************************************

e|---------------------------------------------------------------------------|
B|---------------------------------------------------------------------------|
G|---------5-5-5-5-5-5-5-5----------5-5-5-5-5-5-5-5----------5-5-5-5-5-5-5-5-|
D|-3-3-5-5-5-5-5-5-5-5-5-5--3-3-5-5-5-5-5-5-5-5-5-5--3-3-5-5-5-5-5-5-5-5-5-5-|
A|-3-3-5-5-3-3-3-3-3-3-3-3--3-3-5-5-3-3-3-3-3-3-3-3--3-3-5-5-3-3-3-3-3-3-3-3-|
E|-1-1-3-3------------------1-1-3-3------------------1-1-3-3-----------------|

e|---------------------------------------------------------------------------|
B|---------------------------------------------------------------------------|
G|------------------5-5-5-5-5-5-5-5--3-3-3-3-3-3-3-3--5-5-5-5-5-5-5-5--------|
D|-3-3-3-3-3-3-3-3--5-5-5-5-5-5-5-5--3-3-3-3-3-3-3-3--5-5-5-5-5-5-5-5--------|
A|-3-3-3-3-3-3-3-3--3-3-3-3-3-3-3-3--1-1-1-1-1-1-1-1--3-3-3-3-3-3-3-3--------|
E|-1-1-1-1-1-1-1-1-----------------------------------------------------------|

Outro
e|---------------------------------------------------------------------------|
B|---------------------------------------------------------------------------|
G|----------------5-5----------------------------5-5-------------------------|
D|-5-5--x-x--3-3--5-5-x-x--3-3----5-5--x-x--3-3--5-5-x-x--3-3----------------|
A|-5-5--x-x--3-3--3-3-x-x--3-3----5-5--x-x--3-3--3-3-x-x--3-3----------------|
E|-3-3--x-x--1-1------x-x--1-1----3-3--x-x--1-1------x-x--1-1----------------|

e|---------------------------------------------------------------------------|
B|---------------------------------------------------------------------------|
G|----------------5-5----------------------------5-5-------------------------|
D|-5-5--x-x--3-3--5-5-x-x--3-3----5-5--x-x--3-3--5-5-x-x--3-3----------------|
A|-5-5--x-x--3-3--3-3-x-x--3-3----5-5--x-x--3-3--3-3-x-x--3-3----------------|
E|-3-3--x-x--1-1------x-x--1-1----3-3--x-x--1-1------x-x--1-1----------------|

Order

Verse
Chorus
Verse
Chorus
Bridge
Interlude
Outro

Lyrics

(Verse 1)
Staring out of my window 
Watching the cars go rolling by
And my friends are gone
I've got nothing to do

So I sit here patiently
Watching the clock tick so slowly
Gotta get away
Or my brains will explode

(Chorus)
Give me something to do to kill some time
Take me to that place that I call home
Take away the strains of being lonely
Take me to the tracks and Christie road 

(Verse 2)
See the hills from above
Standing on my beat up car
And the sun went down
And the night fills the sky

Now I feel like me once again
As I train comes a rolling in
Smoked by boredom - gone
Slapped my brains out so high

(Chorus)
Give me something to do to kill some time
Take me to that place that I call home
Take away the strains of being lonely
Take me to the tracks and Christie road

(Interlude)
Mother stay out of my way
Of that place we go
We'll always seem to find our way 
To Christie road
Mother stay out of my way
Of that place we go
We'll always seem to find our way 
To Christie road

If there's one thing that I need
That makes me feel complete
So I go to Christie road its Home... its Home

(Outro)
Its Home
Its Home
Its Home

--------------------------------------------------------------------------------------
Green Day Private Ale 
--------------------------------------------------------------------------------------
Tuning Standard
I haven't bothered to tab any lead for this song because, well, I can't be bothered 

Intro
E|------------------------------------------------------------------|
B|------------------------------------------------------------------|
G|------------------------------------------------------------------|
D|--6-6-6-6-6-6-6-6-6-6-6-6-6-6-6-6-6-6-6-6-6-6-6-6-6-6-6-6-6-6-6-6-|
A|--6-6-6-6-6-6-6-6-6-6-6-6-6-6-6-6-6-6-6-6-6-6-6-6-6-6-6-6-6-6-6-6-|
E|--4-4-4-4-4-4-4-4-4-4-4-4-4-4-4-4-4-4-4-4-4-4-4-4-4-4-4-4-4-4-4-4-|
PM  ***********************************************

Verse
e|-------------------------------------------------------------------|
B|-------------------------------------------------------------------|
G|--------------------------------------------------6-6-6-6-x-6-6-6-6|
D|-6-6-6-6-6-6-6-6-6-6-6-6-6-6-6-6-6-6-6-6-6-6-6-6--6-6-6-6-x-6-6-6-6|
A|-6-6-6-6-6-6-6-6-6-6-6-6-6-6-6-6-6-6-6-6-6-6-6-6--4-4-4-4-x-4-4-4-4|
E|-4-4-4-4-4-4-4-4-4-4-4-4-4-4-4-4-4-4-4-4-4-4-4-4-------------------|
PM ***********************************

e|-------------------------------------------------|
B|-------------------------------------------------|
G|-------------------------------------------------|
D|-6-6-6-6-x-6-6-6-6-------------------------------|
A|-6-6-6-6-x-6-6-6-6-------------------------------|
E|-4-4-4-4-x-4-4-4-4-------------------------------|

Chorus
e|----------------------------|----------------------------|
B|----------------------------|----------------------------|
G|-6-6-6-6-------8-8-8-8-8-8--|-6-6-6-6-------8-8-8-8-8-8--|
D|-6-6-6-6--6-6--8-8-8-8-8-8--|-6-6-6-6--6-6--8-8-8-8-8-8--|
A|-4-4-4-4--6-6--6-6-6-6-6-6--|-4-4-4-4--6-6--6-6-6-6-6-6--|
E|----------4-4---------------|----------4-4---------------|

Post Chorus
e|---------------------------|---------------------------|
B|---------------------------|---------------------------|
G|----------------------6-6--|----------------------6-6--|
D|-6-6-6-6--x--4-4-4-4--6-6--|-6-6-6-6--x--4-4-4-4--6-6--|
A|-6-6-6-6--x--4-4-4-4--4-4--|-6-6-6-6--x--4-4-4-4--4-4--|
E|-4-4-4-4--x--2-2-2-2-------|-4-4-4-4--x--2-2-2-2-------|

Bridge
e|--------------|--------------|--------------|--------------|
B|--------------|--------------|--------------|--------------|
G|------5-5-----|------5-5-----|------5-5-----|------5-5-----|
D|-6-6--5-5-4~--|-6-6--5-5-4~--|-6-6--5-5-4~--|-6-6--5-5-4~--|
A|-6-6--3-3-4~--|-6-6--3-3-4~--|-6-6--3-3-4~--|-6-6--3-3-4~--|
E|-4-4------2~--|-4-4------2~--|-4-4------2~--|-4-4------2~--|

Bass solo (guitar plays this while bass plays a solo)
e|-------------------|-------------------|-----------------|-----------------|
B|-------------------|-------------------|-----------------|-----------------|
G|-6-6-6-6-----------|-6-6-6-6-----------|-6-6-6-6---------|-6-6-6-6---------|
D|-6-6-6-6--6-6-6-6--|-6-6-6-6--6-6-6-6--|-6-6-6-6--6-6-6-6|-6-6-6-6--6-6-6-6|
A|-4-4-4-4--6-6-6-6--|-4-4-4-4--6-6-6-6--|-4-4-4-4--6-6-6-6|-4-4-4-4--6-6-6-6|
E|----------4-4-4-4--|----------4-4-4-4--|----------4-4-4-4|----------4-4-4-4|

Outro (with feedback)
e|----------------------------|
B|----------------------------|
G|-8-8-8-8~~~-----------------|
D|-8-8-8-8~~~-----------------|
A|-6-6-6-6~~~-----------------|
E|----------------------------|

Order

Intro x2
Verse x2
Chorus x2
Post Chorus x2
Verse x2
Chorus x2
Post Chorus x2
Bridge
Bass solo bit
Chorus x2
Bridge
Outro

Lyrics

(Verse)
I wonder down these streets all by myself
Think of my future now I just don't know
I don't seem to care
I stop to notice that
I'm by your home
I wonder if you're sitting all alone
Or is your boyfriend there

(Chorus)
Because I feel so right
Let my imagination go
Until you're in my sight
And through my veins temptation flows
Whoa hoe...
Out here...

(Verse)
So I sit down here on the hard concrete
Think of my future now
I just don't know
I don't seem to care
So I sit across the street from your home
I wonder if you're sitting all alone
Or is your boyfriend there

(Chorus)
Because I feel so right
Let my imagination go
Until you're in my sight
And through my veins temptation flows
Whoa hoe...
Out here...

(Chorus)
Because I feel so right
Let my imagination go
Until you're in my sight
And through my veins temptation flows
Whoa hoa...
Out here...



--------------------------------------------------------------------------------------
Dominated love slave
--------------------------------------------------------------------------------------
Tuning standard
The quirky tune about whips and other kinds of bondage.
Written by Tre', rhythm guitar Tre', Lead vocals Tre'

Intro (played clean)
e|---------------------------------------------------------------------------|
B|---------------------------------------------------------------------------|
G|--------------------7-7-7-7-7-7-7-7-7-7-7-7-7-7-7-7-7-7--------------------|
D|-7-7--7--7--7--7----7-7-7-7-7-7-7-7-7-7-7-7-7-7-7-7-7-7--------------------|
A|-7-7--7--7--7--7----5-5-5-5-5-5-5-5-5-5-5-5-5-5-5-5-5-5--------------------|
E|-5-5--5--5--5--5-----------------------------------------------------------|
Pm * *  *  *  *  *

Verse (played clean)
Part 1
e|---------------------------------------------------------------------------|
B|---------------------------------------------------------------------------|
G|-7-7-7-7--------------7-7-7-7------------7-7-7-7-----------7-7-x-7---------|
D|-7-7-7-7-5-5-5-5-5-5--7-7-7-7-5-5-5-5-5--7-7-7-7--5-5-5-5--7-7-x-7-7-7-x-7-|
A|-5-5-5-5-5-5-5-5-5-5--5-5-5-5-5-5-5-5-5--5-5-5-5--5-5-5-5--5-5-x-5-7-7-x-7-|
E|---------3-3-3-3-3-3----------3-3-3-3-3-----------3-3-3-3----------5-5-x-5-|

                  Part 2
e|---------------|------------------------------------------------------------|
B|---------------|------------------------------------------------------------|
G|-7-x-x-7-7-7-7-|--7-7-7-7--------------7-7-7-7------------7-7-7-7-----------|
D|-7-x-x-7-7-7-7-|--7-7-7-7-5-5-5-5-5-5--7-7-7-7-5-5-5-5-5--7-7-7-7--5-5-5-5--|
A|-5-x-x-5-5-5-5-|--5-5-5-5-5-5-5-5-5-5--5-5-5-5-5-5-5-5-5--5-5-5-5--5-5-5-5--|
E|---------------|----------3-3-3-3-3-3----------3-3-3-3-3-----------3-3-3-3--|

                                   Part 3
e|--------------------------------|-------------------------------------------|
B|--------------------------------|-------------------------------------------|
G|-7-7-x-7----------7-x-x-7-7-7-7-|--7-7-7-7--------------7-7-7-7-------------|
D|-7-7-x-7-7-7-x-7--7-x-x-7-7-7-7-|--7-7-7-7-5-5-5-5-5-5--7-7-7-7-5-5-5-5-5---|
A|-5-5-x-5-7-7-x-7--5-x-x-5-5-5-5-|--5-5-5-5-5-5-5-5-5-5--5-5-5-5-5-5-5-5-5---|
E|---------5-5-x-5----------------|----------3-3-3-3-3-3----------3-3-3-3-3---|

e|---------------------------------------------------------------------------|
B|---------------------------------------------------------------------------|
G|-7-7-7-7-----------7-7-x-7-----------7-x-x-7-7-7-7-------------------------|
D|-7-7-7-7--5-5-5-5--7-7-x-7--7-7-x-7--7-x-x-7-7-7-7-------------------------|
A|-5-5-5-5--5-5-5-5--5-5-x-5--7-7-x-7--5-x-x-5-5-5-5-------------------------|
E|----------3-3-3-3-----------5-5-x-5----------------------------------------|

Solo  (played with heavy distortion and I think with a bit of wah wah effect)
e|----0-0-0--3-3------3--0-0-0--0-0--------0-0-0--2-2----2--0-0-0----14b-----|
B|----2-2-2--2-2----2----2-2-2--0-0--------2-2-2--1-1---1---2-2-2\-----------|
G|----2-2-2--3-3--3------2-2-2--1-1-----1--2-2-2--2-2--2----2-2-2\-----------|
D|----2-2-2--0-0-0-------2-2-2--2-2----2---2-2-2--0-0-0-----2-2-2\-----------|
A|------------------------------2-2---2--------------------------------------|
E|-0----------------------------0-0--0---------------------------------------|

Order

Intro
Verse
Solo
Verse 1, part 2 (slightly palm mute the strings)

If any one has a bass tab for dominated love song cud you plz email it to me thanks

Lyrics

(Verse 1, part 1)
I wanna be your dominated love slave
I wanna be the one who takes the pain
You can spank me when I do not behave
Mack me in the forehead with a chain

(Verse 1, part 2)
Cos I love feelin dirty
And I love feelin cheap
And I love it when you hurt me
So drive them staples deep

(Verse 1, part 3)
Want you to slap me and call me naughty
Put belt sander Against my skin
Wanna feel pain all over body
Can wait to be punished for my sins

(Verse 1, part 2)
Cos I love feelin dirty
And I love feelin cheap
And I love it when you hurt me
So drive them staples deep

(Verse 1, part 2)
Cos I love feelin dirty
And I love feelin cheap
And I love it when you hurt me
So drive________ staples?

--------------------------------------------------------------------------------------
Green Day One of my lies
--------------------------------------------------------------------------------------
Tuning Standard

Intro
e|---------------------------------------------------------------------------|
B|---------------------------------------------------------------------------|
G|-x--7-7-7-7-7-----------------------------------------------7-7-7-7-7------|
D|-x--7-7-7-7-7--7-7-7-7-7-7-7--5-x-x--5-5-5--x-x--7-7-7-7----7-7-7-7-7--7-7-|
A|-x--5-5-5-5-5--7-7-7-7-7-7-7--5-x-x--5-5-5--x-x--7-7-7-7----5-5-5-5-5--7-7-|
E|---------------5-5-5-5-5-5-5--3-x-x--3-3-3--x-x--5-5-5-5---------------5-5-|

e|---------------------------------------------------------------------------|
B|---------------------------------------------------------------------------|
G|---------------------------------------------------------------------------|
D|-7-7-7-7--5-x-x--5-5-5--x-x--7-7-7-----------------------------------------|
A|-7-7-7-7--5-x-x--5-5-5--x-x--7-7-7-----------------------------------------|
E|-5-5-5-5--3-x-x--3-3-3--x-x--5-5-5-----------------------------------------|

Verse 
e|---------------------------------------------------------------------------|
B|---------------------------------------------------------------------------|
G|-7-7-7-7------------------------------------------7-7-7-7------------------|
D|-7-7-7-7--7-7-7-7-7-9--9-9-9--4-4-4-4-4--5-5-5-5--7-7-7-7--7-7-7-7-7-7-7-7-|
A|-5-5-5-5--7-7-7-7-7-9--9-9-9--4-4-4-4-4--5-5-5-5--5-5-5-5--7-7-7-7-7-7-7-7-|
E|----------5-5-5-5-5-7--7-7-7--2-2-2-2-2--3-3-3-3-----------5-5-5-5-5-5-5-5-|

e|---------------------------------------------------------------------------|
B|---------------------------------------------------------------------------|
G|-7-7-7-7------------------------------------------7-7-7-7------------------|
D|-7-7-7-7--7-7-7-7-7--9-9-9-9--4-4-4-4-4--5-5-5-5--7-7-7-7--7-7-7-7-7-7-7-7-|
A|-5-5-5-5--7-7-7-7-7--9-9-9-9--4-4-4-4-4--5-5-5-5--5-5-5-5--7-7-7-7-7-7-7-7-|
E|----------5-5-5-5-5--7-7-7-7--2-2-2-2-2--3-3-3-3-----------5-5-5-5-5-5-5-5-|

Bridge

e|---------------------------------------------------------------------------|
B|---------------------------------------------------------------------------|
G|---------------------------------------------------------------------------|
D|-5-5-5-5-5--7-7-7-7--5-5-5-5-5--7-7-7-7-7-7---5-5-5-5-5--7-7-7-7--5-5-5-5--|
A|-5-5-5-5-5--7-7-7-7--5-5-5-5-5--7-7-7-7-7-7---5-5-5-5-5--7-7-7-7--5-5-5-5--|
E|-3-3-3-3-3--5-5-5-5--3-3-3-3-3--5-5-5-5-5-5---3-3-3-3-3--5-5-5-5--3-3-3-3--|

e|---------------------------------------------------------------------------|
B|---------------------------------------------------------------------------|
G|---------------------------------------------------------------------------|
D|-5--7-7-7-7-7-7------------------------------------------------------------|
A|-5--7-7-7-7-7-7------------------------------------------------------------|
E|-3--5-5-5-5-5-5------------------------------------------------------------|


Chorus
e|---------------------------------------------------------------------------|
B|---------------------------------------------------------------------------|
G|-7-7-7-7--8---------------7-7-7-7--8----------------7-7-7-7--8-------------|
D|-7-7-7-7--8--7-7-7-7-7-7--7-7-7-7--8--7-7-7-7-7-7---7-7-7-7--8--7-7-7-7-7--|
A|-5-5-5-5--6--7-7-7-7-7-7--5-5-5-5--6--7-7-7-7-7-7---5-5-5-5--6--7-7-7-7-7--|
E|-------------5-5-5-5-5-5--------------5-5-5-5-5-5---------------5-5-5-5-5--|

e|---------------------------------------------------------------------------|
B|---------------------------------------------------------------------------|
G|----7-7-7-7--8-------------------------------------------------------------|
D|-7--7-7-7-7--8--7-7-7-7-7-7------------------------------------------------|
A|-7--5-5-5-5--6--7-7-7-7-7-7------------------------------------------------|
E|-5--------------5-5-5-5-5-5------------------------------------------------|

Interlude
e|---------------------------------------------------------------------------|
B|---------------------------------------------------------------------------|
G|---------------------------------------------------------------------------|
D|-5-5-x-x-8--8-8-8-8---5-5-x-x-8--8-8-8-8--5-5-x-x-8--8-8-8-8--5-5-x-x-8----|
A|-5-5-x-x-8--8-8-8-8---5-5-x-x-8--8-8-8-8--5-5-x-x-8--8-8-8-8--5-5-x-x-8----|
E|-3-3-x-x-6--6-6-6-6---3-3-x-x-6--6-6-6-6--3-3-x-x-6--6-6-6-6--3-3-x-x-6----|

e|---------------------------------------------------------------------------|
B|---------------------------------------------------------------------------|
G|---------------------------------------------------------------------------|
D|-8-8-8-8-------------------------------------------------------------------|
A|-8-8-8-8-------------------------------------------------------------------|
E|-6-6-6-6-------------------------------------------------------------------|

Outro
e|-----------0-----------0---------------------------------------------------|
B|----------------------0-0--------------------------------------------------|
G|--7-7-7-7------------------------------------------------------------------|
D|--7-7-7-7-----7-7-7-7------5--x-x--5-5-5--x-x--7-7-------------------------|
A|--5-5-5-5-----7-7-7-7------5--x-x--5-5-5--x-x--7-7-------------------------|
E|--------------5-5-5-5------3--x-x--3-3-3--x-x--5-5-------------------------|
PM  * * * *     * * * *      *  * *  * * *  * *  * *

2nd Outro
e|---------------------------------------------------------------------------|
B|---------------------------------------------------------------------------|
G|-7-7-7-7-7-----------------------------------------------7-7-7-7-7---------|
D|-7-7-7-7-7--7-7-7-7-7-7-7--5-x-x--5-5-5--x-x--7-7-7-7----7-7-7-7-7--7-7----|
A|-5-5-5-5-5--7-7-7-7-7-7-7--5-x-x--5-5-5--x-x--7-7-7-7----5-5-5-5-5--7-7----|
E|------------5-5-5-5-5-5-5--3-x-x--3-3-3--x-x--5-5-5-5---------------5-5----|
PM * * * *    * * * *   * *  * * *    * *  * *  * * *      * * * *    * * 

e|---------------------------------------------------------------------------|
B|---------------------------------------------------------------------------|
G|---------------------------------------------------------------------------|
D|-7-7-7-7-7--5-x-x--5-5-5--x-x--7-7-7-7-------------------------------------|
A|-7-7-7-7-7--5-x-x--5-5-5--x-x--7-7-7-7-------------------------------------|
E|-5-5-5-5-5--3-x-x--3-3-3--x-x--5-5-5-5-------------------------------------|
PM * *   * *  * * *    * *  * *  * * *

Order

Intro
Verse
Bridge
Chorus
Verse
Bridge
Chorus
Interlude
Chorus x2
2nd Outro
Outro

Lyrics

(Verse 1)
When I was younger I thought that the world 
Circled around me
But (in) time I realised I was alone
My year by the thoughts turned in to child's dreams of the near future
It was a tragic case of my reality

(Bridge) 
Do you think your indestructible and no one can touch you?
Well I think your disposable and its time you knew the truth

(Chorus)
Cos this is one of my lies
Oh its just one of my lies
And all I wanna do is get real high
But its just one of my lies

(Verse 2)
Why does my life have to be so small? 
And nothings forever
And does forever have a plot to call his home
Don't give me an answer Cos you only now as much as I know 
Unless you've been their once well I hardly think so

(Bridge) 
Do you think your indestructible and no one can touch you?
Well I think your disposable and its time you knew the truth 

(Chorus)
Cos this is one of my lies
Oh its just one of my lies
And all I wanna do is get real high
But its just one of my lies

(Interlude)
I used to pray all night
Before I lay myself down
My mother said it was right
Her mother said it too...
Why?



--------------------------------------------------------------------------------------
Green Day 80    I'll write this one as chords (SORRY!)
--------------------------------------------------------------------------------------
Tuning Standard

(Verse 1 bass only)
My mental stability reaches it's bitter end
And all my senses are coming into bloom
Is there any cure for this disease someone called love?
Not as long as there are girls like you

(Chorus)

C#5      B5               C#5              B5
Everything she does questions my mental health

C#5         B5              C#5           B5
It makes me lose control I want to hurt myself

F#5       B5            C#5                 B5
If anyone can hear me slap some sense in me

                         B5            C#5         B5
(Well you're doing all right) And I end up talking to myself

F#5      B5          C#5               B5
Anxiety has got me strung out every day

                    B5               C#5             B5
(And I do all right) My head bang it up against the wall

                             B5            C#5         B5
(Well you're doing all right) And I end up talking to myself

F#5   B5             C#5               B5
Anxiety has got me strung out every day

F#5                 B5               C#5             B5
(And I do all right) My head bang it up against the wall


(Verse 2 Bass only) with a weird guitar riff in the background I think its D#5 and E5)
I don't know if I should be left alone
Or lock myself up in a burning room
I sit and spew my guts out to the open air
Cause no one wants to hear a drunken fool

(Chorus)

C#5      B5               C#5              B5
Everything she does questions my mental health

C#5         B5              C#5           B5
Makes me lose control, I want to hurt myself

F#5       B5            C#5                 B5
If anyone can hear me slap some sense in me

                         B5            C#5         B5
(Well you're doing all right) And I end up talking to myself

F#5      B5          C#5               B5
Anxiety has got me strung out every day

                    B5               C#5             B5
(And I do all right) My head bang it up against the wall

B5       C#5               F#5 B5 F#5
I do not mind if this goes on

B5            C#5                F#5 B5 F#5
Cause now it seems I'm too far-gone

B5        C#5                 F#5 B5 F#5
I must admit that I enjoy myself

B5              C#5            
80 please keep taking me away

Order
Verse 1
Chorus 1
Verse 2
Chorus 2
Verse (with no lyrics)
Chorus 1
Verse (with no lyrics)(to fade)

--------------------------------------------------------------------------------------
Green Day Android
--------------------------------------------------------------------------------------
Tuning Standard

Intro
e|---------------------------------------------------------------------------|
B|---------------------------------------------------------------------------|
G|-x--3-3----------------------x--3-3----------------------------------------|
D|-x--3-3--5-5--6-6-6--3-3-3---x--3-3--5-5--6-6-6--3-3-3---------------------|
A|-x--1-1--5-5--6-6-6--3-3-3---x--1-1--5-5--6-6-6--3-3-3---------------------|
E|---------3-3--4-4-4--1-1-1-----------3-3--4-4-4--1-1-1---------------------|
PM *  *    *    * *    * * *   *  *    *    * *    * * *

Intro part 2
e|---------------------------------------------------------------------------|
B|---------------------------------------------------------------------------|
G|-3---------------------------------3---------------------------------------|
D|-3--x-x--5--x-x--6-6--3-3-3-3------3--x-x--5--x-x--6-6--3-3-3-3------------|
A|-1--x-x--5--x-x--6-6--3-3-3-3------1--x-x--5--x-x--6-6--3-3-3-3------------|
E|----x-x--3--x-x--4-4--1-1-1-1---------x-x--3--x-x--4-4--1-1-1-1------------|

Verse
e|---------------------------------------------------------------------------|
B|---------------------------------------------------------------------------|
G|-3-3-3-3-3-3-3-3-3-3-3-3-3-3-3-3---------------------3-3-3-3-3-3-3-3-3-3-3-|
D|-3-3-3-3-3-3-3-3-3-3-3-3-3-3-3-3----8-------8--------3-3-3-3-3-3-3-3-3-3-3-|
A|-1-1-1-1-1-1-1-1-1-1-1-1-1-1-1-1----6--5-5--6--5-5---1-1-1-1-1-1-1-1-1-1-1-|
E|---------------------------------------------------------------------------|
PM *******************************                     **********************

e|---------------------------------------------------------------------------|
B|---------------------------------------------------------------------------|
G|-3-3-3-3-3-----------------------------------------------------------------|
D|-3-3-3-3-3----8---------8--------------------------------------------------|
A|-1-1-1-1-1----6--5-5----6--5-5---------------------------------------------|
E|---------------------------------------------------------------------------|
PM *********

Chorus
e|---------------------------------------------------------------------------|
B|---------------------------------------------------------------------------|
G|---------------------------------------------------------------------------|
D|--------------8-8-8-8-8-8--6-6-6-6-6-6--3-3-3-3-3-3---------------8-8-8-8--|
A|-6-6-6-6-6-6--8-8-8-8-8-8--6-6-6-6-6-6--3-3-3-3-3-3--6-6-6-6-6-6--8-8-8-8--|
E|-6-6-6-6-6-6--6-6-6-6-6-6--4-4-4-4-4-4--1-1-1-1-1-1--6-6-6-6-6-6--6-6-6-6--|

e|---------------------------------------------------------------------------|
B|---------------------------------------------------------------------------|
G|---------------------------------------------------------------------------|
D|-8-8--6-6-6-6-6-6--3-3-3-3-3-3---------------8-8-8-8-8-8--6-6-6-6-6-6--3-3-|
A|-8-8--6-6-6-6-6-6--3-3-3-3-3-3--6-6-6-6-6-6--8-8-8-8-8-8--6-6-6-6-6-6--3-3-|
E|-6-6--4-4-4-4-4-4--1-1-1-1-1-1--6-6-6-6-6-6--6-6-6-6-6-6--4-4-4-4-4-4--1-1-|

e|---------------------------------------------------------------------------|
B|---------------------------------------------------------------------------|
G|---------------------------------------------------------------------------|
D|-3-3-3-3----------------8-8-8-8-8-8--6-6-6-6-6-6--3-3-3-3-3-3--------------|
A|-3-3-3-3---6-6-6-6-6-6--8-8-8-8-8-8--6-6-6-6-6-6--3-3-3-3-3-3--------------|
E|-1-1-1-1---6-6-6-6-6-6--6-6-6-6-6-6--4-4-4-4-4-4--1-1-1-1-1-1--------------|

Fill 1
e|---------------------------------------------------------------------------|
B|---------------------------------------------------------------------------|
G|-3-3-3-3-3-3---------------------------------------------------------------|
D|-3-3-3-3-3-3---------------------------------------------------------------|
A|-1-1-1-1-1-1---------------------------------------------------------------|
E|---------------------------------------------------------------------------|
PM ***********

Order

Intro
Intro part 2
Verse
Chorus
Intro part 2
Verse
Chorus
Intro part 2
Fill 1 (a lot and every now again play an open chord)
Intro part 2 x2
(Bass bit not tabbed)
Intro part 2 x3


Lyrics


(Verse)
Hey old man in woman's shoes
I wonder if he knows I think he's crazy
When he was young did he have dreams
Of wearing woman's shoes and being crazy?

(Chorus)
It makes me wonder when I grow to be that age
Will I be walking down the street begging for your spare change
Or will I grow that old?
Will I still be around?
The way I carry on I'll end up
Six feet underground
And waste away

(Verse)
When the old man was in school
Did the golden rules make him go crazy?
Or did he hide away from hopes
Behind a smile and smoking dope
It's crazy

(Chorus)
It makes me wonder when I grow to be that age
Will I be walking down the street begging for your spare change
Or will I grow that old?
Will I still be around?
The way I carry on I'll end up
Six feet underground
And waste away

(Fill 1)
It seems so frightening
Time passes by like lightning
Before you know it you're struck down
I always waste my time on my chemical emotions
It keeps my head spinning around
Waste away

(Bass bit)
It seems so frightening
Time passes by like lightning
Before you know it you're struck down
I always waste my time on my chemical emotions
It keeps my head spinning around
Waste away


--------------------------------------------------------------------------------------
Green Day No one knows
--------------------------------------------------------------------------------------
Tuning standard

Long bass intro - not tabbed

Verse (palm mute throughout)
e|--------------------------------|--------------------------------|
B|--------------------------------|--------------------------------|
G|------------7-------------------|------------7-------------------|
D|-5----------7--(x16)---7--------|-5----------7--(x16)---7--------|
A|-5--(x16)---5----------7--(x16)-|-5--(x16)---5----------7--(x16)-|
E|-3---------------------5--------|-3---------------------5--------|

Chorus
e|-------------------------|-------------------------|--------------|
B|-------------------------|-------------------------|--------------|
G|---------7---------------|---------7---------------|--------7-----|
D|-5-------7-(x8)--7-------|-5-------7-(x8)--7-------|-5------7-(x8)|
A|-5-(x8)--5-------7-(x16)-|-5-(x8)--5-------7-(x16)-|-5-(x8)-5-----|
E|-3---------------5-------|-3---------------5-------|-3------------|

e|---------------|---------------|-------|
B|---------------|---------------|-------|
G|--------7------|--------7------|-------|
D|-5------7-(x8)-|-5------7-(x16)|-7-----|
A|-5-(x8)-5------|-5-(x8)-5------|-7-(x8)|
E|-3-------------|-3-------------|-5-----|

Order

Verse
Chorus
Verse
Chorus
Verse (no lyrics)
Chorus


Lyrics

(Verse)
Why should my fun have to end?
For me it's only the beginning
See my friends begin to age
A short countdown to their end

(Chorus)
Call me irresponsible
Call me habitual
But when you think of me 
Do you fill your head with schemes?
Better think again cos no one knows

(Verse)
I don't want to cause no harm
But sometimes my actions hurt
Is they're something I should find
To make plans for forever

(Chorus)
Call me irresponsible
Call me habitual
But when you think of me 
Do you fill your head with schemes?
Better think again cos no one knows

(Verse no -lyrics)

(Chorus)
Call me irresponsible
Call me habitual
But when you think of me 
Do you fill your head with schemes?
Better think again cos no one knows

(Backing vocals)
Does it seem like all your memories fade
You soak up knowledge to fill the space
And still my answer remains...


I don't


--------------------------------------------------------------------------------------
Green Day Who wrote haulden Caulfield?
--------------------------------------------------------------------------------------
Tuning Standard

Verse
e|-----------------------------------------------------------------------|
B|-----------------------------------------------------------------------|
G|-9-9-9--9-9-9--9-9-9--9-9-9--7-7-7--7-7-7--7-7-7--7-7-7--6-6-6--6-6-6--|
D|-9-9-9--9-9-9--9-9-9--9-9-9--7-7-7--7-7-7--7-7-7--7-7-7--6-6-6--6-6-6--|
A|-7-7-7--7-7-7--7-7-7--7-7-7--5-5-5--5-5-5--5-5-5--5-5-5--4-4-4--4-4-4--|
E|-----------------------------------------------------------------------|
PM ***    ***    ***    ***    ***    ***    ***    ***    ***    ***

e|-----------------------------------------------------------------------|
B|-----------------------------------------------------------------------|
G|-6-6-6--6-6-6----------------------------------------------------------|
D|-6-6-6--6-6-6--9-9-9-9-9-9-9-9--9-9-9-9-9-9-9-9------------------------|
A|-4-4-4--4-4-4--9-9-9-9-9-9-9-9--9-9-9-9-9-9-9-9------------------------|
E|---------------7-7-7-7-7-7-7-7--7-7-7-7-7-7-7-7------------------------|
PM ***    ***

Pre Chorus
e|-----------------------------------|-----------------------------------|
B|-----------------------------------|-----------------------------------|
G|------------------2-2-2-2-2-2-2-2--|------------------2-2-2-2-2-2-2-2--|
D|-4-4-4-4-4-4-4-4--2-2-2-2-2-2-2-2--|-4-4-4-4-4-4-4-4--2-2-2-2-2-2-2-2--|
A|-4-4-4-4-4-4-4-4--0-0-0-0-0-0-0-0--|-4-4-4-4-4-4-4-4--0-0-0-0-0-0-0-0--|
E|-2-2-2-2-2-2-2-2-------------------|-2-2-2-2-2-2-2-2-------------------|

Chorus
e|-------------------------------------|------------------------------------|
B|-------------------------------------|------------------------------------|
G|9-9-9-9---------7-7-7-7--2-2-2-2-2-2-|9-9-9-9---------7-7-7-7--2-2-2-2-2-2|
D|9-9-9-9-9-9-9-9-7-7-7-7--2-2-2-2-2-2-|9-9-9-9-9-9-9-9-7-7-7-7--2-2-2-2-2-2|
A|7-7-7-7-9-9-9-9-5-5-5-5--0-0-0-0-0-0-|7-7-7-7-9-9-9-9-5-5-5-5--0-0-0-0-0-0|
E|--------7-7-7-7----------------------|--------7-7-7-7---------------------|

Interlude
e|--------------------------------------|--------------------------------------|
B|--------------------------------------|4--4-4-4--2--2-2-2--------------------|
G|9--9-9-9--7--7-7-7--6--6-6-6--4--4-4-4|4--4-4-4--2--2-2-2--6--6-6-6--4--4-4-4|
D|9--9-9-9--7--7-7-7--6--6-6-6--4--4-4-4|2--2-2-2--0--0-0-0--6--6-6-6--4--4-4-4|
A|7--7-7-7--5--5-5-5--4--4-4-4--2--2-2-2|--------------------4--4-4-4--2--2-2-2|
E|--------------------------------------|--------------------------------------|


Order

Verse 
Pre Chorus
Chorus x2
Verse (x2 don't play last chord first time)
Pre Chorus
Chorus x2
Interlude x2
Pre Chorus
Chorus (but a bit weirder)
Chorus x 1 and a half


Lyrics

(Verse 1)
I thought goes in my head
And I need to tell you
Its news that I for fought
Why it's just a dream that happened long ago
I think I just forgot

(Pre Chorus)
Well it doesn't fit my mistake
Let my sure to stop me here

(Chorus)
Cos when I say there's a boy who fought his world and now he's getting lazy
Lives with no motivation and frustration makes him crazy
And makes a plan to take a stand
But always ends up sitting
Someone help him up
Or he's gonna end up quitting


(Verse 2)
I shuffler through my mind to see if I can find the words I left behind
Why it's just a dream that happened long ago
I think I just forgot

(Chorus)
Well it doesn't fit my mistake
Let my sure to stop me here
Cos when I say there's a boy who fought his world and now he's getting lazy
Lives with no motivation and frustration makes him crazy
And makes a plan to take a stand
But always ends up sitting
Someone help him up
Or he's gonna end up quitting


Cos when I say there's a boy who fought his world and now he's getting lazy
Lives with no motivation and frustration makes him crazy
And makes a plan to take a stand
But always ends up sitting
Someone help him up
Or he's gonna end up quitting

Cos when I say there's a boy who fought his world and now he's getting lazy
Lives with no motivation and frustration makes him crazy
And makes a plan to take a stand
But always ends up sitting
Someone help him up
Or he's gonna end up quitting


--------------------------------------------------------------------------------------
Green Day Words I might have ate
--------------------------------------------------------------------------------------
Tuning Standard

Intro (all PM I think)
e|--------------------------|
B|------------3-3-3-2-3-3-3-|
G|-2-2-2-2-2--0-0-0-0-0-0-0-|
D|-2-2-2-2-2--0-0-0-0-0-0-0-|
A|-0-0-0-0-0--x-x-x-x-x-x-x-|
E|------------3-3-3-2-3-3-3-|

Verse
e|----------------------------------------------------------|
B|------------3-3-3-3-3-3------------3-----2---2------------|
G|-2-2-2-2-2--0-0-0-0-0-0--2-2-2-2-2-3-2-2-2-2-2--2-2-2-2-2-|
D|-2-2-2-2-2--0-0-0-0-0-0--2-2-2-2-2-3-2-2-2-2-2--2-2-2-2-2-|
A|-0-0-0-0-0--x-x-x-x-x-x--0-0-0-0-0-0-0-0-0-0-0--0-0-0-0-0-|
E|------------3-3-3-3-3-3-----------------------------------|

e|-------------------------------------|
B|-3-3-3-3-3---------------------------|
G|-0-0-0-0-0--1-1-1-1-1-1-1-1-1-1-1-1--|
D|-0-0-0-0-0--2-2-2-2-2-2-2-2-2-2-2-2--|
A|-x-x-x-x-x--2-2-2-2-2-2-2-2-2-2-2-2--|
E|-3-3-3-3-3--0-0-0-0-0-0-0-0-0-0-0-0--|

Chorus
e|-2-2-2-2-2-----------------------------------2-2-2-2-2--------------|
B|-3-3-3-3-3-------------3-3-3-2---------------3-3-3-3-3--------------|
G|-2-2-2-2-2--2-2-2-2-2--0-0-0-0--1-1-1-1-1-1--2-2-2-2-2--1-1-1-1-1-1-|
D|-0-0-0-0-0--2-2-2-2-2--0-0-0-0--2-2-2-2-2-2--0-0-0-0-0--2-2-2-2-2-2-|
A|------------0-0-0-0-0--0-0-0-0--2-2-2-2-2-2-------------2-2-2-2-2-2-|
E|-----------------------3-3-3-2--0-0-0-0-0-0-------------0-0-0-0-0-0-|

e|------------------|
B|-2-2-2-2-2-2-2-2--|
G|-2-2-2-2-2-2-2-2--|
D|-2-2-2-2-2-2-2-2--|
A|-0-0-0-0-0-0-0-0--|
E|------------------|

Bridge
e|----------------------------0-0-0-0-0--------------|
B|----------------------------3-3-3-3-3--0-0-0-0-0-0-|
G|----------------------------0-0-0-0-0--1-1-1-1-1-1-|
D|-2-2-2-2-2-2-2-2-2-2-2-2-2--0-0-0-0-0--2-2-2-2-2-2-|
A|-0-0-0-0-0-0-0-0-0-0-0-0-0--x-x-x-x-x--2-2-2-2-2-2-|
E|----------------------------3-3-3-3-3--0-0-0-0-0-0-|
  Alternative picking used here


Order

Intro x4
Verse x2
Chorus
Intro x2
Verse x2
Chorus 
Intro x4
Bridge x4 (repeat last chords a few times also)
Intro x 4
Chorus
Intro x10 (to fade)



Lyrics

(Verse 1)
Now it seems I cant keep my mind up of you 
My brain drifts back to better days we've been through
Like sitting on the top of the school clowns
The love of what it's about ive finally found

(Chorus 1)
But now it's gone and I take the blame
And there's nothing I can do but take the blame... why?

(Verse 2)
Now I dwell of what you remind me of
Sweet girl to sacrifice the love
Small me I get by with out a cause
And now I realise what I have lost


It's was not that real, but I could have had
Now I play the fool who's stable soul gone bad ... why


Tell me of the words I might have said
Its pumping pressure deep inside my head
Was it bad enough to be to late?
Just tell me the words I might have ate
The words I might have ate
The words I might have ate

(Chorus 1)
But now it's gone and I take the blame
And there's nothing I can do but take the blame... why?

Why?
Why?
Why?
Ohm why?
Why?



--------------------------------------------------------------------------------------
Green Day Sweet Children
--------------------------------------------------------------------------------------
Sorry I couldn't work this out, but keep an eye out on this tab I might just update it
with this song o it



--------------------------------------------------------------------------------------
Green Day Best thing in town
--------------------------------------------------------------------------------------
Sorry I couldn't work this one out, mainly because that I don't think there was much
consideration in the tuning of the guitars during the recording of this song. But anyway
here are the lyrics

Lyrics

(verse 1)
Come with me and lets go for a ride
Follow me too the other side
As I sit around and watch you round
Cos I know you're the best thing in town
The best thing around
the best thing in town
The best thing around

Running wild and always
Running free
Exploring things that I have never seen
Here we go and all I see is out
Now I know you're the best thing in town
The best thing around
the best thing in town
The best thing around

Im seeing faces
Of 


--------------------------------------------------------------------------------------
Green Day Strangeland
--------------------------------------------------------------------------------------
Tuning Standard

Verse part 1
e|-------------------------------|-------------------------------|
B|-------------------------------|-------------------------------|
G|-6-6-6-6-6-6-6-6-6-6-6-6-6-6-6-|-6-6-6-6-6-6-6-6-6-6-6-6-6-6-6-|
D|-6-6-6-6-6-6-6-6-6-6-6-6-6-6-6-|-6-6-6-6-6-6-6-6-6-6-6-6-6-6-6-|
A|-4-4-4-4-4-4-4-4-4-4-4-4-4-4-4-|-4-4-4-4-4-4-4-4-4-4-4-4-4-4-4-|
E|-------------------------------|-------------------------------|

Verse part 2
e|---------------------------------|
B|---------------------------------|
G|---------------------------------|
D|-6-6-6-6-6-6-6--x--6-6-6-6-6-6-6-|
A|-6-6-6-6-6-6-6--x--6-6-6-6-6-6-6-|
E|-4-4-4-4-4-4-4--x--4-4-4-4-4-4-4-|

Chorus
e|-----------------------------------------|-----------------------------------------|
B|-----------------------------------------|-----------------------------------------|
G|-----------6-6-6-6-6---------------------|-----------6-6-6-6-6---------------------|
D|-4-4-4-4-4-6-6-6-6-6-4-4-4-4-4-6-6-6-6-6-|-4-4-4-4-4-6-6-6-6-6-4-4-4-4-4x6-6-6-6-6-|
A|-4-4-4-4-4-4-4-4-4-4-4-4-4-4-4-6-6-6-6-6-|-4-4-4-4-4-4-4-4-4-4-4-4-4-4-4x6-6-6-6-6-|
E|-2-2-2-2-2-----------2-2-2-2-2-4-4-4-4-4-|-2-2-2-2-2-----------2-2-2-2-2x4-4-4-4-4-|

Order

Verse part 1 x2
Verse part 2 
Verse part 1 x2
Verse part 2
Chorus
Verse part 2 
Verse part 1 x2
Verse part 2
Verse part 1 x2
Verse part 2
Chorus
Verse part 2
Verse part 1 x2 (with note solo in background)
Verse part 2
Verse part 1 x2 (with note solo in background)
Verse part 2
Chorus
Verse part 2
Verse part 1 x2 (with note solo in background)




--------------------------------------------------------------------------------------
Green Day My Generation
--------------------------------------------------------------------------------------
Tuning half a step down

This is a cover of the classic song, by the classic artist 'the who'

Rhythm (no lead sorry)

Intro
e|--------------------------|--------------------------------|
B|--------------------------|--------------------------------|
G|--------------------------|--------------------------------|
D|-5--5--5--5---3--3--3--3--|--5--5--5--5---3--3--3--3---5---|
A|-5--5--5--5---3--3--3--3--|--5--5--5--5---3--3--3--3---5---|
E|-3--3--3--3---1--1--1--1--|--3--3--3--3---1--1--1--1---3---|

Verse
e|--------------------------|-------------|
B|--------------------------|-------------|
G|--------------------------|-(pause for)-|
D|-5--5--5--5--3--3--3--3--5|---(lyrics)--| x4
A|-5--5--5--5--3--3--3--3--5|-------------|
E|-3--3--3--3--1--1--1--1--3|-------------|

Post Verse
e|--------------------------------|
B|--------------------------------|
G|--------------------------------|
D|--5--5--5--5---3--3--3--3---5---|
A|--5--5--5--5---3--3--3--3---5---|
E|--3--3--3--3---1--1--1--1---3---|

Mini Solo
e|--------------------------------------------------------------------------|
B|------------------------5-6-5--3----5-6-5--3-3----------------------------|
G|----------------------0-5-7-5--3--0-5-7-5--3-0----------------------(bass-|
D|-5-5-5-5--3-3-3-3--5----------------------------5-5-5-5--3-3-3-3--5--riff)|
A|-5-5-5-5--3-3-3-3--5----------------------------5-5-5-5--3-3-3-3--5-------|
E|-3-3-3-3--1-1-1-1--3----------------------------3-3-3-3--1-1-1-1--3-------|

Order

Intro
Verse
Intro
Verse
Mini Solo
Post verse x4
Verse
Post verse x25


(Then end on a few chords that start on the a string)

Ohh come on there is another Green Day album tab, I looked everywhere for this tab but
couldn't find it anywhere, so I tabbed it but just know I gathered that that means there
cant be much demand for these songs or this album tab but could you still rate this well
cos it took me roughly 6 months to tab this album tab. Also I tabbed this the 'old skool'
way I sat im bedroom with Kerplunk in my personal CD player, with some nice big headphones,
a notepad and a pen, and then  I put it on to computer for every one to enjoy so please rate
this and/or leave a comment.
24 comments total. Showing first comments.
0 reply
specky s+w wrote on July 31 2005, 12:00 am

SWEET CHILDREN IS THE EASIEST TO PLAY AND TAB WHY DON'T YOU HAVE IT

0 reply
wattzername wrote on September 1 2005, 12:00 am

what dose the star * mean?

0 reply
FrenchyFungus wrote on October 17 2005, 02:42 am

Thanks dude, been looking for this everywhere
* means palm mute.

I want to post or [tab]
guest
You may want to rate the tab now too:
select rating
Please do not post tabs as comments. Select "correction" instead!