Oops, an error
Loading. Please wait.

Lazy Bones Tab

ver1
ver1

Whole song

Interactive

More versions @911Tabs.com
28,990 views 72 this week
4 commentsread comments
1 2 3 4 5
excellent!
x 17
Autoscroll
+/-
esc
set tempo
stop
Contributor
Difficulty
intermediate
Hey! There's an official Ultimate Guitar app which is ideal
for learning songs when you're away from computer. Get the app
WARNING: You are trying to view
                                    content from Ultimate-Guitar.com
                                    in an unauthorized application,
                                    which is prohibited.

                                    Please use an official Ultimate
                                    Guitar Tabs application for iPhone,
                                    iPad or Android to access legitimate
                                    chords, guitar, bass, and drum tabs
                                    from Ultimate-Guitar.com database.

                                    Type "ultimate guitar tabs" in Apple
                                    App Store's or Android Market's
                                    search to find the application.
GREEN DAY
Lazy Bones
Standard


*Drums*

Intro/Verse 1 0:05 (half clean)
e|--9---------x----------11---------x--------------|
B|--10--------14---------12---------9--------------|
G|--9--(x16)--14--(x16)--11--(x16)--9--(x16)-------|
D|--11--------14---------13---------9--------------| x3
A|--9---------12---------11---------7--------------|
E|-------------------------------------------------|
   F#m7      Amaj       Abm7       Emaj




Chorus 0:40
e|-------------------------------------|
B|-------------------------------------|
G|-------------------------------------|
D|---7-------4-------7-------4---------|
A|---7-(x16)-4-(x16)-7-(x16)-4-(x16)---|
E|---5-------2-------5-------2---------|...

0:52
e|------------------------------------------|---------------------------------|
B|------------9--9-9-9--5--5-5-5----(elevens|------------9--9-9-9--2----------|
G|--7--7-7-7--9--9-9-9--6--6-6-6--11-111111-|--7--7-7-7--9--9-9-9--2----------|
D|--7--7-7-7--9--9-9-9--6--6-6-6--11-111111-|--7--7-7-7--9--9-9-9--2-(x16)----|
A|--5--5-5-5--7--7-7-7--4--4-4-4--9--9-9-9--|--5--5-5-5--7--7-7-7--0----------|
E|------------------------------------------|---------------------------------|...

1:03
e|------------------------------------------------------------------------------------------|
B|---------------9--9-9-9-9-9--5--5-5-5-5-5-----------------7--7-7-7-7-7--9--9-9-9-9-9------|
G|-7--7-7-7-7-7--9--9-9-9-9-9--6--6-6-6-6-6--11-1111111111--7--7-7-7-7-7--9--9-9-9-9-9------|
D|-7--7-7-7-7-7--9--9-9-9-9-9--6--6-6-6-6-6--11-1111111111--7--7-7-7-7-7--9--9-9-9-9-9------|
A|-5--5-5-5-5-5--7--7-7-7-7-7--4--4-4-4-4-4--9--9-9-9-9-9---5--5-5-5-5-5--7--7-7-7-7-7------|
E|------------------------------------------------------------------------------------------|


    _________________________
  | BACK TO INTRO/1ST VERSE!! |
  | __________________________|



VERSE 2 1:24 (REPEAT EACH CHORD PATTERN TWICE)
e|--9--9---9-----x--x---x-----11-11--11----x-x--x-----------|
B|--10-10--10----14-14--14----12-12--12----9-9--9-----------|
G|--9--9---9-----14-14--14----11-11--11----9-9--9-----------|
D|--11-11--11----14-14--14----13-13--13----9-9--9-----------|
A|--9--9---9-----12-12--12----11-11--11----7-7--7-----------|
E|----------------------------------------------------------|

         x4      x4            x2                x2
e|-----9---|---x--|---11-11--11-|---x-x--x--------|
B|-----10--|--14--|---12-12--12-|---9-9--9--------|
G|-----9---|--14--|---11-11--11-|---9-9--9--------|
D|-----11--|--14--|---13-13--13-|---9-9--9--------|
A|-----9---|--12--|---11-11--11-|---7-7--7--------|
E|---------|------|-------------|-----------------|
GUITAR 2 ARPEGIO PART (1:36 - 1:46)
e|--2~--2------5~-----------7~----------------9~---7-7-7-7-7-----|
B|--2~----2----5~-----------7~--------7-------9~---7-7-7-7-7-----|
G|--x-------2--x-----6------x-----------------x----x-x-x-x-x-----|
D|--4~---------7~------7----9~--7-9-7----9-7--11~--9-9-9-9-9-----|
A|-----------------7---------------------------------------------|
E|---------------------------------------------------------------|


    _________________________
  | BACK TO CHORUS!!          |
  | __________________________|



    _________________________________________________________
  | BACK TO INTRO/1ST VERSE!! 2X (QUIETER FOR DISTANT EFFECT)|
  | SECOND TIME IS PLAYED WITH GTR 2 ARPEGIO PART            |
   __________________________________________________________




SOLO 2:44
(GUITAR 1 PLAYS NORMAL CHORUS SOON TO BE 
JOINED IN WITH GUITAR 2 AT 2:55 WITH VOCALS)
GTR 1
e|-------------------------------------|
B|-------------------------------------|
G|-------------------------------------|
D|---7-------4-------7-------4---------|
A|---7-(x16)-4-(x16)-7-(x16)-4-(x16)---|
E|---5-------2-------5-------2---------|
GTR 2
e|----------------------------------------------------------------------|
B|----------------------------------------------------------------------|
G|-9-9-9-9-9-9-9-9-9-9-9-9-11-11-11-11-6-6-6-6-6-6-6-6-6-6-6-6-6-6-6-6--|
D|----------------------------------------------------------------------|
A|----------------------------------------------------------------------|
E|----------------------------------------------------------------------|
CONTINUED                                                              ||
e|--------------------------------------------------------------------------------------|
B|--------------------------------------------------------------------------------------|
G|-9-9-9-9-9-9-9-9-9-9-9-9-14-14-14-14-11-11-11-11-11-11-11-11-11-11-11-11-11-11-11-11--|
D|--------------------------------------------------------------------------------------|
A|--------------------------------------------------------------------------------------|
E|--------------------------------------------------------------------------------------|


    ______________________________________
  | BACK TO CHORUS!! (2ND PART )          |
  | BUT DO NOT END ON THE 7999 CHORD..    |
  | AND CONTINUE ON WITH THE 5776 + 9111111
  | ______________________________________|



    __________________________________
  | BACK TO INTRO/1ST VERSE!!         |
  | AND END WITH ONE SINGLE F#m7 CHORD|
  _____________________________________

DONE!!!! CHEERS.
PLZ RATE AND COMMENT! :P 
UPDATED ON APPROVAL QUEUE)
comments
print report bad tab
4 comments total. Showing first comments.
0 reply
oscarjgd wrote on January 26 2013, 02:37 am

The solo, instead of fret 6 its actually fret 5.

0 reply
oscarjgd wrote on January 26 2013, 02:38 am

http://tabs.ultimate-guitar.com/g/green_day/lazy_bones_ver3_tab.htm

0 reply
deathfromala wrote on January 31 2013, 12:37 am

Nah i still stand by 6. i tried it with 5 and it sounds horrible.
and the 6th fret is C# and the rhythm plays F#. both those notes/chords go together too well.

I want to post or [tab]
guest
You may want to rate the tab now too:
select rating
Please do not post tabs as comments. Select "correction" instead!