Oops, an error
Loading. Please wait.

Lazy Bones Tab

ver3
ver3

Whole song

More versions @911Tabs.com
2,088 views 12 this week
2 commentsread comments
1 2 3 4 5
excellent!
x 8
Autoscroll
+/-
esc
set tempo
stop
Contributor
Difficulty
intermediate
WARNING: You are trying to view
                                    content from Ultimate-Guitar.com
                                    in an unauthorized application,
                                    which is prohibited.

                                    Please use an official Ultimate
                                    Guitar Tabs application for iPhone,
                                    iPad or Android to access legitimate
                                    chords, guitar, bass, and drum tabs
                                    from Ultimate-Guitar.com database.

                                    Type "ultimate guitar tabs" in Apple
                                    App Store's or Android Market's
                                    search to find the application.

Green Day
¬°Dos! (2012)
04-Lazy Bones

I tabbed this whole song out by ear, if there are any parts of it that sound a bit
off please let me know on a comment so that I can change it.

Intro

E|-------------------------------------------------------------------------|
B|-------------------------------------------------------------------------|
G|-11-11-11-11-11-11-11-11-11-11-11-11-11-11-11-11-14-14-14-14-14-14-14-14-|
D|-11-11-11-11-11-11-11-11-11-11-11-11-11-11-11-11-14-14-14-14-14-14-14-14-|
A|--9--9--9--9--9--9--9--9--9--9--9--9--9--9--9--9-12-12-12-12-12-12-12-12-|
E|-------------------------------------------------------------------------|

E|-------------------------------------------------------------------------|
B|-------------------------------------------------------------------------|
G|-14-14-14-14-14-14-14-14---------------------------------9-9-9-9-9-9-9-9-|
D|-14-14-14-14-14-14-14-14-9-9-9-9-9-9-9-9-9-9-9-9-9-9-9-9-9-9-9-9-9-9-9-9-|
A|-12-12-12-12-12-12-12-12-9-9-9-9-9-9-9-9-9-9-9-9-9-9-9-9-7-7-7-7-7-7-7-7-|
E|-------------------------7-7-7-7-7-7-7-7-7-7-7-7-7-7-7-7-----------------|

E|----------------|
B|----------------|
G|-9-9-9-9-9-9-9-9|
D|-9-9-9-9-9-9-9-9|
A|-7-7-7-7-7-7-7-7|
E|----------------|

Verse (x2)

E|-------------------------------------------------------------------------|
B|-------------------------------------------------------------------------|
G|-11-11-11-11-11-11-11-11-11-11-11-11-11-11-11-11-14-14-14-14-14-14-14-14-|
D|-11-11-11-11-11-11-11-11-11-11-11-11-11-11-11-11-14-14-14-14-14-14-14-14-|
A|--9--9--9--9--9--9--9--9--9--9--9--9--9--9--9--9-12-12-12-12-12-12-12-12-|
E|-------------------------------------------------------------------------|

E|-------------------------------------------------------------------------|
B|-------------------------------------------------------------------------|
G|-14-14-14-14-14-14-14-14---------------------------------9-9-9-9-9-9-9-9-|
D|-14-14-14-14-14-14-14-14-9-9-9-9-9-9-9-9-9-9-9-9-9-9-9-9-9-9-9-9-9-9-9-9-|
A|-12-12-12-12-12-12-12-12-9-9-9-9-9-9-9-9-9-9-9-9-9-9-9-9-7-7-7-7-7-7-7-7-|
E|-------------------------7-7-7-7-7-7-7-7-7-7-7-7-7-7-7-7-----------------|

E|----------------|
B|----------------|
G|-9-9-9-9-9-9-9-9|
D|-9-9-9-9-9-9-9-9|
A|-7-7-7-7-7-7-7-7|
E|----------------|

Chorus

E|------------------------------------------------------------------------------|
B|------------------------------------------------------------------------------|
G|------------------------------------------------------------------------------|
D|-7-7-7-7-7-7-7-7-7-7-7-7-7-7-7-7-4-4-4-4-4-4-4-4-4-4-4-4-4-4-4-4-7-7-7-7-7-7--|
A|-7-7-7-7-7-7-7-7-7-7-7-7-7-7-7-7-4-4-4-4-4-4-4-4-4-4-4-4-4-4-4-4-7-7-7-7-7-7--|
E|-5-5-5-5-5-5-5-5-5-5-5-5-5-5-5-5-2-2-2-2-2-2-2-2-2-2-2-2-2-2-2-2--5-5-5-5-5-5-|

E|-----------------------------------------------------------------------------|
B|-----------------------------------------------------------------------------|
G|------------------------------------------------------7--7-7-7--9--9-9-9--6--|
D|-7-7-7-7-7-7-7-7-7-7-4-4-4-4-4-4-4-4-4-4-4-4-4-4-4-4--7--7-7-7--9--9-9-9--6--|
A|-7-7-7-7-7-7-7-7-7-7-4-4-4-4-4-4-4-4-4-4-4-4-4-4-4-4--5--5-5-5--7--7-7-7--4--|
E|-5-5-5-5-5-5-5-5-5-5-2-2-2-2-2-2-2-2-2-2-2-2-2-2-2-2-------------------------|


E|------------------------------------------------------------------------------|
B|------------------------------------------------------------------------------|
G|-6-6-6------------7--7-7-7--9--9-9-9----------------------------------7--7-7--|
D|-6-6-6--4--4-4-4--7--7-7-7--9--9-9-9-7-7-7-7-7-7-7-7-7-7-7-7-7-7-7-7--7--7-7--|
A|-4-4-4--4--4-4-4--5--5-5-5--7--7-7-7-7-7-7-7-7-7-7-7-7-7-7-7-7-7-7-7--5--5-5--|
E|--------2--2-2-2---------------------5-5-5-5-5-5-5-5-5-5-5-5-5-5-5-5----------|


E|----------------------------------------------------|
B|----------------------------------------------------|
G|-7--9--9-9-9--6--6-6-6------------7--7-7-7--9--9-9-9|
D|-7--9--9-9-9--6--6-6-6--4--4-4-4--7--7-7-7--9--9-9-9|
A|-5--7--7-7-7--4--4-4-4--4--4-4-4--5--5-5-5--7--7-7-7|
E|------------------------2--2-2-2--------------------|

Interlude


E|-------------------------------------------------------------------------|
B|-------------------------------------------------------------------------|
G|-11-11-11-11-11-11-11-11-11-11-11-11-11-11-11-11-14-14-14-14-14-14-14-14-|
D|-11-11-11-11-11-11-11-11-11-11-11-11-11-11-11-11-14-14-14-14-14-14-14-14-|
A|--9--9--9--9--9--9--9--9--9--9--9--9--9--9--9--9-12-12-12-12-12-12-12-12-|
E|-------------------------------------------------------------------------|

E|-------------------------------------------------------------------------|
B|-------------------------------------------------------------------------|
G|-14-14-14-14-14-14-14-14---------------------------------9-9-9-9-9-9-9-9-|
D|-14-14-14-14-14-14-14-14-9-9-9-9-9-9-9-9-9-9-9-9-9-9-9-9-9-9-9-9-9-9-9-9-|
A|-12-12-12-12-12-12-12-12-9-9-9-9-9-9-9-9-9-9-9-9-9-9-9-9-7-7-7-7-7-7-7-7-|
E|-------------------------7-7-7-7-7-7-7-7-7-7-7-7-7-7-7-7-----------------|

E|----------------|
B|----------------|
G|-9-9-9-9-9-9-9-9|
D|-9-9-9-9-9-9-9-9|
A|-7-7-7-7-7-7-7-7|
E|----------------|

Verse (Reggae like sound)

E|-----------------------------------------------------------------------------|
B|-----------------------------------------------------------------------------|
G|-11-11---11---11-11---11---14-14---14---14-14---14-----------------------9-9-|
D|-11-11---11---11-11---11---14-14---14---14-14---14---9-9---9---9-9---9---9-9-|
A|--9--9----9----9--9----9---12-12---12---12-12---12---9-9---9---9-9---9---7-7-|
E|-----------------------------------------------------7-7---7---7-7---7-------|

E|-------------|
B|-------------|
G|--9---9-9---9|
D|--9---9-9---9|
A|--7---7-7---7|
E|-------------|

E|-----------------------------------------------------------------------------|
B|-----------------------------------------------------------------------------|
G|-11-11---11---11-11---11---14-14---14---14-14---14-----------------------9-9-|
D|-11-11---11---11-11---11---14-14---14---14-14---14---9-9---9---9-9---9---9-9-|
A|--9--9----9----9--9----9---12-12---12---12-12---12---9-9---9---9-9---9---7-7-|
E|-----------------------------------------------------7-7---7---7-7---7-------|

E|---------|
B|---------|
G|--9---9-9|
D|--9---9-9|
A|--7---7-7|
E|---------|

Chorus

E|------------------------------------------------------------------------------|
B|------------------------------------------------------------------------------|
G|------------------------------------------------------------------------------|
D|-7-7-7-7-7-7-7-7-7-7-7-7-7-7-7-7-4-4-4-4-4-4-4-4-4-4-4-4-4-4-4-4-7-7-7-7-7-7--|
A|-7-7-7-7-7-7-7-7-7-7-7-7-7-7-7-7-4-4-4-4-4-4-4-4-4-4-4-4-4-4-4-4-7-7-7-7-7-7--|
E|-5-5-5-5-5-5-5-5-5-5-5-5-5-5-5-5-2-2-2-2-2-2-2-2-2-2-2-2-2-2-2-2--5-5-5-5-5-5-|

E|-----------------------------------------------------------------------------|
B|-----------------------------------------------------------------------------|
G|------------------------------------------------------7--7-7-7--9--9-9-9--6--|
D|-7-7-7-7-7-7-7-7-7-7-4-4-4-4-4-4-4-4-4-4-4-4-4-4-4-4--7--7-7-7--9--9-9-9--6--|
A|-7-7-7-7-7-7-7-7-7-7-4-4-4-4-4-4-4-4-4-4-4-4-4-4-4-4--5--5-5-5--7--7-7-7--4--|
E|-5-5-5-5-5-5-5-5-5-5-2-2-2-2-2-2-2-2-2-2-2-2-2-2-2-2-------------------------|


E|------------------------------------------------------------------------------|
B|------------------------------------------------------------------------------|
G|-6-6-6------------7--7-7-7--9--9-9-9----------------------------------7--7-7--|
D|-6-6-6--4--4-4-4--7--7-7-7--9--9-9-9-7-7-7-7-7-7-7-7-7-7-7-7-7-7-7-7--7--7-7--|
A|-4-4-4--4--4-4-4--5--5-5-5--7--7-7-7-7-7-7-7-7-7-7-7-7-7-7-7-7-7-7-7--5--5-5--|
E|--------2--2-2-2---------------------5-5-5-5-5-5-5-5-5-5-5-5-5-5-5-5----------|


E|----------------------------------------------------|
B|----------------------------------------------------|
G|-7--9--9-9-9--6--6-6-6------------7--7-7-7--9--9-9-9|
D|-7--9--9-9-9--6--6-6-6--4--4-4-4--7--7-7-7--9--9-9-9|
A|-5--7--7-7-7--4--4-4-4--4--4-4-4--5--5-5-5--7--7-7-7|
E|------------------------2--2-2-2--------------------|

Interlude


E|-------------------------------------------------------------------------|
B|-------------------------------------------------------------------------|
G|-11-11-11-11-11-11-11-11-11-11-11-11-11-11-11-11-14-14-14-14-14-14-14-14-|
D|-11-11-11-11-11-11-11-11-11-11-11-11-11-11-11-11-14-14-14-14-14-14-14-14-|
A|--9--9--9--9--9--9--9--9--9--9--9--9--9--9--9--9-12-12-12-12-12-12-12-12-|
E|-------------------------------------------------------------------------|

E|-------------------------------------------------------------------------|
B|-------------------------------------------------------------------------|
G|-14-14-14-14-14-14-14-14---------------------------------9-9-9-9-9-9-9-9-|
D|-14-14-14-14-14-14-14-14-9-9-9-9-9-9-9-9-9-9-9-9-9-9-9-9-9-9-9-9-9-9-9-9-|
A|-12-12-12-12-12-12-12-12-9-9-9-9-9-9-9-9-9-9-9-9-9-9-9-9-7-7-7-7-7-7-7-7-|
E|-------------------------7-7-7-7-7-7-7-7-7-7-7-7-7-7-7-7-----------------|

E|----------------|
B|----------------|
G|-9-9-9-9-9-9-9-9|
D|-9-9-9-9-9-9-9-9|
A|-7-7-7-7-7-7-7-7|
E|----------------|

Solo


(Rhythmic Guitar)

E|-------------------------------------------------------------------------|
B|-------------------------------------------------------------------------|
G|-11-11-11-11-11-11-11-11-11-11-11-11-11-11-11-11-14-14-14-14-14-14-14-14-|
D|-11-11-11-11-11-11-11-11-11-11-11-11-11-11-11-11-14-14-14-14-14-14-14-14-|
A|--9--9--9--9--9--9--9--9--9--9--9--9--9--9--9--9-12-12-12-12-12-12-12-12-|
E|-------------------------------------------------------------------------|

E|-------------------------------------------------------------------------|
B|-------------------------------------------------------------------------|
G|-14-14-14-14-14-14-14-14---------------------------------9-9-9-9-9-9-9-9-|
D|-14-14-14-14-14-14-14-14-9-9-9-9-9-9-9-9-9-9-9-9-9-9-9-9-9-9-9-9-9-9-9-9-|
A|-12-12-12-12-12-12-12-12-9-9-9-9-9-9-9-9-9-9-9-9-9-9-9-9-7-7-7-7-7-7-7-7-|
E|-------------------------7-7-7-7-7-7-7-7-7-7-7-7-7-7-7-7-----------------|

E|----------------|
B|----------------|
G|-9-9-9-9-9-9-9-9|
D|-9-9-9-9-9-9-9-9|   2 second pause then play the following two together
A|-7-7-7-7-7-7-7-7|
E|----------------|

(Rhythmic Guitar)

E|------------------------------------------------------------------------------|
B|------------------------------------------------------------------------------|
G|------------------------------------------------------------------------------|
D|-7-7-7-7-7-7-7-7-7-7-7-7-7-7-7-7-4-4-4-4-4-4-4-4-4-4-4-4-4-4-4-4-7-7-7-7-7-7--|
A|-7-7-7-7-7-7-7-7-7-7-7-7-7-7-7-7-4-4-4-4-4-4-4-4-4-4-4-4-4-4-4-4-7-7-7-7-7-7--|
E|-5-5-5-5-5-5-5-5-5-5-5-5-5-5-5-5-2-2-2-2-2-2-2-2-2-2-2-2-2-2-2-2--5-5-5-5-5-5-|

E|----------------------------------------------------|
B|----------------------------------------------------|
G|----------------------------------------------------|
D|-7-7-7-7-7-7-7-7-7-7-4-4-4-4-4-4-4-4-4-4-4-4-4-4-4-4|
A|-7-7-7-7-7-7-7-7-7-7-4-4-4-4-4-4-4-4-4-4-4-4-4-4-4-4|
E|-5-5-5-5-5-5-5-5-5-5-2-2-2-2-2-2-2-2-2-2-2-2-2-2-2-2|


(Lead Guitar)

E|---------------------------------------------------------------------------------|
B|---------------------------------------------------------------------------------|
G|-9-9-9-9-9-9-9-9-9-9-9-9-11-11-11-11-5-5-5-5-5-5-5-5-5-5-5-5-9-9-9-9-9-9-9-9-9-9-|
D|---------------------------------------------------------------------------------|
A|---------------------------------------------------------------------------------|
E|---------------------------------------------------------------------------------|

E|----------------------------------------------------|
B|----------------------------------------------------|
G|-9-9-14-14-14-14-11-11-11-11-11-11-11-11-11-11-11-11|
D|----------------------------------------------------|
A|----------------------------------------------------|
E|----------------------------------------------------|

Chorus


E|----------------------------------------------------------------------------------|
B|----------------------------------------------------------------------------------|
G|-7--7-7-7--9--9-9-9--6---6-6-6-------------7--7-7-7--9--9-9-9---------------------|
D|-7--7-7-7--9--9-9-9--6---6-6-6--4---4-4-4--7--7-7-7--9--9-9-9-7-7-7-7-7-7-7-7-7-7-|
A|-5--5-5-5--7--7-7-7--4---4-4-4--4---4-4-4--5--5-5-5--7--7-7-7-7-7-7-7-7-7-7-7-7-7-|
E|--------------------------------2---2-2-2---------------------5-5-5-5-5-5-5-5-5-5-|

E|------------|
B|------------|
G|------------|
D|-7-7-7-7-7-7|
A|-7-7-7-7-7-7|
E|-5-5-5-5-5-5|

E|---------------------------------------------------------------------------------|
B|---------------------------------------------------------------------------------|
G|-7--7-7-7--9--9-9-9--6---6-6-6-------------7--7-7-7--9--9-9-9--6-6-6-6-6-6-6-6---|
D|-7--7-7-7--9--9-9-9--6---6-6-6--4---4-4-4--7--7-7-7--9--9-9-9--6-6-6-6-6-6-6-6-4-|
A|-5--5-5-5--7--7-7-7--4---4-4-4--4---4-4-4--5--5-5-5--7--7-7-7--4-4-4-4-4-4-4-4-4-|
E|--------------------------------2---2-2-2--------------------------------------2-|

E|------------------------------------------------|
B|------------------------------------------------|
G|-----------------7-7-7-7-7-7-7-7-9-9-9-9-9-9-9-9|
D|-4-4-4-4-4-4-4-4-7-7-7-7-7-7-7-7-9-9-9-9-9-9-9-9|
A|-4-4-4-4-4-4-4-4-5-5-5-5-5-5-5-5-7-7-7-7-7-7-7-7|
E|-2-2-2-2-2-2-2-2--------------------------------|

Outro

E|-------------------------------------------------------------------------|
B|-------------------------------------------------------------------------|
G|-11-11-11-11-11-11-11-11-11-11-11-11-11-11-11-11-14-14-14-14-14-14-14-14-|
D|-11-11-11-11-11-11-11-11-11-11-11-11-11-11-11-11-14-14-14-14-14-14-14-14-|
A|--9--9--9--9--9--9--9--9--9--9--9--9--9--9--9--9-12-12-12-12-12-12-12-12-|
E|-------------------------------------------------------------------------|

E|-------------------------------------------------------------------------|
B|-------------------------------------------------------------------------|
G|-14-14-14-14-14-14-14-14---------------------------------9-9-9-9-9-9-9-9-|
D|-14-14-14-14-14-14-14-14-9-9-9-9-9-9-9-9-9-9-9-9-9-9-9-9-9-9-9-9-9-9-9-9-|
A|-12-12-12-12-12-12-12-12-9-9-9-9-9-9-9-9-9-9-9-9-9-9-9-9-7-7-7-7-7-7-7-7-|
E|-------------------------7-7-7-7-7-7-7-7-7-7-7-7-7-7-7-7-----------------|

E|---------------------|
B|---------------------|
G|-9-9-9-9-9-9-9-9-/11~|
D|-9-9-9-9-9-9-9-9-/11~|
A|-7-7-7-7-7-7-7-7-/-9~|
E|---------------------|
comments
print report bad tab
2 comments total.
0 reply
khawk94 wrote on May 6 2014, 01:26 pm

You're way off. The intro and interlude aren't power chords, and the solo involves 2 strings.

0 reply
xnimrodx1 wrote on May 8 2014, 05:51 pm

Sounds great!

I want to post or [tab]
guest
You may want to rate the tab now too:
select rating
Please do not post tabs as comments. Select "correction" instead!