Oops, an error
Loading. Please wait.

Letterbomb Tab

ver2
ver2

Whole song

More versions @911Tabs.com
103,292 views 346 this week
37 commentsread comments
1 2 3 4 5
excellent!
x 90
Autoscroll
+/-
esc
set tempo
stop
Contributor
WARNING: You are trying to view
                                    content from Ultimate-Guitar.com
                                    in an unauthorized application,
                                    which is prohibited.

                                    Please use an official Ultimate
                                    Guitar Tabs application for iPhone,
                                    iPad or Android to access legitimate
                                    chords, guitar, bass, and drum tabs
                                    from Ultimate-Guitar.com database.

                                    Type "ultimate guitar tabs" in Apple
                                    App Store's or Android Market's
                                    search to find the application.
Green Day Letterbomb
From the album American Idiot
Track 10
Tabbed by Liam 
Email: guitar_rocker_47@hotmail.com 
Tuning standard

update 1 -corrected what was wrong basically, have fun, please re-rate and comment accordingly, thanks

Intro                                           
e|-----------------|-----------------|-----------------|-----------------|
B|-----------------|-----------------|-----------------|-----------------|
G|-9-9-9-9-9-9-9-9-|-9-9-9-9-9-9-9-9-|-9-9-9-9-9-9-9-9-|-9-9-9-9-9-9-9-9-|
D|-x-x-x-x-x-x-x-x-|-x-x-x-x-x-x-x-x-|-x-x-x-x-x-x-x-x-|-x-x-x-x-x-x-x-x-|
A|-7-7-7-7-7-7-7-7-|-7-7-7-7-7-7-7-7-|-7-7-7-7-7-7-7-7-|-7-7-7-7-7-7-7-7-|
E|-----------------|-----------------|-----------------|-----------------|

e|-----------------|-----------------|-----------------|-----------------|
B|-----------------|-----------------|-----------------|-----------------|
G|-9-9-9-9-9-9-9-9-|-9-9-9-9-9-9-9-9-|-8-8-8-8-8-8-8-8-|-8-8-8-8-8-8-8-8-|
D|-x-x-x-x-x-x-x-x-|-x-x-x-x-x-x-x-x-|-x-x-x-x-x-x-x-x-|-x-x-x-x-x-x-x-x-|
A|-7-7-7-7-7-7-7-7-|-7-7-7-7-7-7-7-7-|-6-6-6-6-6-6-6-6-|-6-6-6-6-6-6-6-6-|
E|-----------------|-----------------|-----------------|-----------------|

e|-----------------|-----------------|-----------------|-----------------|
B|-----------------|-----------------|-----------------|-----------------|
G|-9-9-9-9-9-9-9-9-|-9-9-9-9-9-9-9-9-|-9-9-9-9-9-9-9-9-|-9-9-9-9-9-9-9-9-|
D|-x-x-x-x-x-x-x-x-|-x-x-x-x-x-x-x-x-|-x-x-x-x-x-x-x-x-|-x-x-x-x-x-x-x-x-|
A|-7-7-7-7-7-7-7-7-|-7-7-7-7-7-7-7-7-|-7-7-7-7-7-7-7-7-|-7-7-7-7-7-7-7-7-|
E|-----------------|-----------------|-----------------|-----------------|

e|------------------------------------------------------------------------|
B|------------------------------------------------------------------------|
G|--------------------------------------------------6-6-6-6-6-6-6-6-6-6-6-| 
D|----2-2-2-2-2-2-2-2-2-2-6-6-6-6-6-6-6-6-6-6-6-6-6-6-6-6-6-6-6-6-6-6-6-6-|
A|----2-2-2-2-2-2-2-2-2-2-6-6-6-6-6-6-6-6-6-6-6-6-6-4-4-4-4-4-4-4-4-4-4-4-|
E|12\-0-0-0-0-0-0-0-0-0-0-4-4-4-4-4-4-4-4-4-4-4-4-4-----------------------|

e|-------------------------------|
B|-------------------------------|
G|-------------------------------|
D|-x--7-7-7-7-7-7-7-7-7-7-7-7----|
A|-x--7-7-7-7-7-7-7-7-7-7-7-7----|
E|-x--5-5-5-5-5-5-5-5-5-5-5-5--0-|

Verse
e|-----------------------------------------------------------------------|
B|-----------------------------------------------------------------------|
G|-----------------------------------------------------------------------|
D|-2-2-2-2-2-2-2-2-2-2-2-2-2-2-2--7-7-7-7-7-7-7-7-7-7-7-7-7---4-4-4-4-4-4|
A|-2-2-2-2-2-2-2-2-2-2-2-2-2-2-2--7-7-7-7-7-7-7-7-7-7-7-7-7---4-4-4-4-4-4|
E|-0-0-0-0-0-0-0-0-0-0-0-0-0-0-0--5-5-5-5-5-5-5-5-5-5-5-5-5-0-2-2-2-2-2-2|
PM   ***************

e|--------------0-0------------------------------------------------------|
B|--------------0-0-------------------------------5-5-5-5-5-5-x----------|
G|---------------------------------------------6--6-6-6-6-6-6-x----------|
D|7-7-7-7-7-7----------------------6-6-6-6--6--6--6-6-6-6-6-6-x-6-6-6-6-6|
A|7-7-7-7-7-7-------2-2-2-2-2-2----6-6-6-6--6--4--4-4-4-4-4-4-x-6-6-6-6-6|
E|5-5-5-5-5-5-0-----0-0-0-0-0-0-0--4-4-4-4--4-------------------4-4-4-4-4|

e|-----------------------------------------------------------------------|
B|----5-5-5-5-5-x--------------------------------------------------------|
G|-6--6-6-6-6-6-x--------------------------4-4-4-2---4-4-4-4-4-4-4-x-----|
D|-6--6-6-6-6-6-x--7-7-7-7-7---4-4-4-4-4---4-4-4-2---4-4-4-4-4-4-4-x-----|
A|-4--4-4-4-4-4-x--7-7-7-7-7---4-4-4-4-4---2-2-2-0---2-2-2-2-2-2-2-x-----|
E|-----------------5-5-5-5-5-0-2-2-2-2-2-0---------0---------------------|

Verse 2
e|-----------------------------------------------------------------------|
B|-----------------------------------------------------------------------|
G|-----------------------------------------------------------------------|
D|-2-2-2-2-2-2-2-2-2-2-2-2-2-2-2--7-7-7-7-7-7-7-7-7-7-7-7-7---4-4-4-4-4-4|
A|-2-2-2-2-2-2-2-2-2-2-2-2-2-2-2--7-7-7-7-7-7-7-7-7-7-7-7-7---4-4-4-4-4-4|
E|-0-0-0-0-0-0-0-0-0-0-0-0-0-0-0--5-5-5-5-5-5-5-5-5-5-5-5-5-0-2-2-2-2-2-2|
PM   ***************

e|--------------0-0------------------------------------------------------|
B|--------------0-0-------------------------------5-5-5-5-5-5-x----------|
G|---------------------------------------------6--6-6-6-6-6-6-x----------|
D|7-7-7-7-7-7----------------------6-6-6-6--6--6--6-6-6-6-6-6-x-6-6-6-6-6|
A|7-7-7-7-7-7-------2-2-2-2-2-2----6-6-6-6--6--4--4-4-4-4-4-4-x-6-6-6-6-6|
E|5-5-5-5-5-5-0-----0-0-0-0-0-0-0--4-4-4-4--4-------------------4-4-4-4-4|

e|-----------------------------------------------------|------------|
B|----5-5-5-5-5-x--------------------------------------|------------|
G|-6--6-6-6-6-6-x--------------------------4-4-4-2---4-|4-4-4-2---4-|
D|-6--6-6-6-6-6-x--7-7-7-7-7---4-4-4-4-4---4-4-4-2---4-|4-4-4-2---4-|
A|-4--4-4-4-4-4-x--7-7-7-7-7---4-4-4-4-4---2-2-2-0---2-|2-2-2-0---2-|
E|-----------------5-5-5-5-5-0-2-2-2-2-2-0---------0---|-------0----|

e|-------------|------------|------------|
B|-------------|------------|------------|
G|-4-4-4-2---4-|4-4-4-2---4-|4-4-4-2---2-|
D|-4-4-4-2---4-|4-4-4-2---4-|4-4-4-2---2-|
A|-2-2-2-0---2-|2-2-2-0---2-|2-2-2-0---0-|
E|---------0---|-------0----|-------0----|
 
Pre chorus 
e|---------------------------------|---------------------------|
B|---------------------------------|---------------------------|
G|---------------------------------|-------------------------4-|
D|-7-7-7-7-7-7-7-7-7-7-7-7-------7-|-7-7-7-7-7-7-7-7-7-------4-|
A|-7-7-7-7-7-7-7-7-7-7-7-7-------7-|-7-7-7-7-7-7-7-7-7-------2-|
E|-5-5-5-5-5-5-5-5-5-5-5-5--0-0--5-|-5-5-5-5-5-5-5-5-5--0-0----|
                         
e|------------------------------------------------------|
B|------------------------------------------------------|
G|-4-4-4-4-4-4-4-4-4-4-4-4-----4-4-4-4-4-----4---4------|
D|-4-4-4-4-4-4-4-4-4-4-4-4-----4-4-4-4-4-----4---4------|
A|-2-2-2-2-2-2-2-2-2-2-2-2-----2-2-2-2-2-----2---2------|
E|-------------------------0-0-----------0-0---0----12\-|

Chorus
e|---------------------------------------|---------------------------------------|
B|---------------------------------------|---------------------------------------|
G|-9-9-9-9-------------------------------|-9-9-9-9-------------------------------|
D|-9-9-9-9--9-9-9-9--7-7-7-7-7-7-7-7-7-7-|-9-9-9-9--9-9-9-9--7-7-7-7-7-7-7-7-7-7-|
A|-7-7-7-7--9-9-9-9--7-7-7-7-7-7-7-7-7-7-|-7-7-7-7--9-9-9-9--7-7-7-7-7-7-7-7-7-7-|
E|----------7-7-7-7--5-5-5-5-5-5-5-5-5-5-|----------7-7-7-7--5-5-5-5-5-5-5-5-5-5-|

e|-------------------------------------------------------------------------------|
B|-------------------------------------------------------------------------------|
G|-9-9-9-9----------------------5-5--9-9-9-9-------------------------------------|
D|-9-9-9-9--9-9-9-9-9--7-7-7-7\-5-5--9-9-9-9--9-9-9-9-9--7-7-7-7-7-7-7-7-7--4~-7#|
A|-7-7-7-7--9-9-9-9-9--7-7-7-7\-3-3--7-7-7-7--9-9-9-9-9--7-7-7-7-7-7-7-7-7--4~-7#|
E|----------7-7-7-7-7--5-5-5-5\---------------7-7-7-7-7--5-5-5-5-5-5-5-5-5--2~-5#|

Midtro
Guitar 1
e|-----------------|-----------------|-----------------|-----------------|
B|-----------------|-----------------|-----------------|-----------------|
G|-9-9-9-9-9-9-9-9-|-9-9-9-9-9-9-9-9-|-9-9-9-9-9-9-9-9-|-9-9-9-9-9-9-9-9-|
D|-x-x-x-x-x-x-x-x-|-x-x-x-x-x-x-x-x-|-x-x-x-x-x-x-x-x-|-x-x-x-x-x-x-x-x-|
A|-7-7-7-7-7-7-7-7-|-7-7-7-7-7-7-7-7-|-7-7-7-7-7-7-7-7-|-7-7-7-7-7-7-7-7-|
E|-----------------|-----------------|-----------------|-----------------|

Guitar 2
e|-----------------------------------------------------------------------|
B|-----------------------------------------------------------------------|
G|-----------------------------------------------------------------------|
D|----------------(plays nothing)----------------------------------------|
A|-----------------------------------------------------------------------|
E|-----------------------------------------------------------------------|

Guitar 1
e|-----------------|-----------------|-----------------|-----------------|
B|-----------------|-----------------|-----------------|-----------------|
G|-9-9-9-9-9-9-9-9-|-9-9-9-9-9-9-9-9-|-8-8-8-8-8-8-8-8-|-8-8-8-8-8-8-8-8-|
D|-x-x-x-x-x-x-x-x-|-x-x-x-x-x-x-x-x-|-x-x-x-x-x-x-x-x-|-x-x-x-x-x-x-x-x-|
A|-7-7-7-7-7-7-7-7-|-7-7-7-7-7-7-7-7-|-6-6-6-6-6-6-6-6-|-6-6-6-6-6-6-6-6-|
E|-----------------|-----------------|-----------------|-----------------|

Guitar 2
e|-4-4-4--------4-4|-4-------4-4-----|--------4-4-4----|---4-4-4------4-4|
B|-------5-5-5-----|---5-5-5-----5-5-|-4-4-4--------4-4|-4--------4-4----|
G|-----------------|-----------------|-----------------|-----------------|
D|-----------------|-----------------|-----------------|-----------------|
A|-----------------|-----------------|-----------------|-----------------|
E|-----------------|-----------------|-----------------|-----------------|

Guitar 1
e|-----------------|-----------------|-----------------|-----------------|
B|-----------------|-----------------|-----------------|-----------------|
G|-9-9-9-9-8-8-8-8-|-4-4-4-4-8-8-8-8-|-9-9-9-9-8-8-8-8-|-4---------------|
D|-x-x-x-x-x-x-x-x-|-x-x-x-x-x-x-x-x-|-x-x-x-x-x-x-x-x-|-x---------------|
A|-7-7-7-7-6-6-6-6-|-2-2-2-2-6-6-6-6-|-7-7-7-7-6-6-6-6-|-2---------------|
E|-----------------|-----------------|-----------------|-----------------|

Guitar 2
e|-4-4-4--------4-4|-4-------4-4-----|-5-5-5-------5-5-|-5---------------|
B|-------5-5-5-----|---5-5-5-----5-5-|-------5-5-5-----|-----------------|
G|-----------------|-----------------|-----------------|-----------------|
D|-----------------|-----------------|-----------------|-----------------|
A|-----------------|-----------------|-----------------|-----------------|
E|-----------------|-----------------|-----------------|----(pick slide)-|

Interlude
Guitar 1
e|------------------------------------------------------------------------|
B|------------------------------------------------------------------------|
G|--------------------------------------------------6-6-6-6-6-6-6-6-6-6-6-| 
D|----2-2-2-2-2-2-2-2-2-2-6-6-6-6-6-6-6-6-6-6-6-6-6-6-6-6-6-6-6-6-6-6-6-6-|
A|----2-2-2-2-2-2-2-2-2-2-6-6-6-6-6-6-6-6-6-6-6-6-6-4-4-4-4-4-4-4-4-4-4-4-|
E|12\-0-0-0-0-0-0-0-0-0-0-4-4-4-4-4-4-4-4-4-4-4-4-4-----------------------|

e|-------------------------------|-----------------------------------------|
B|-------------------------------|-----------------------------------------|
G|-------------------------------|-----------------------------------------|
D|-x--7-7-7-7-7-7-7-7-7-7-7-7----|--2-2-2-2-2-2-2-2-2---6-6-6-6-6-6-6-6-6--|
A|-x--7-7-7-7-7-7-7-7-7-7-7-7----|--2-2-2-2-2-2-2-2-2---6-6-6-6-6-6-6-6-6--|
E|-x--5-5-5-5-5-5-5-5-5-5-5-5--0-|--0-0-0-0-0-0-0-0-0---4-4-4-4-4-4-4-4-4--|

Guitar 2
e|-------------------------------|-------------------------------------------|
B|-------------------------------|-5---5---5---5---5---4-4-4-5-5-5-4-2-------|
G|-------------------------------|---4---4---4---4---4-----------------5-5-5-|
D|-------------------------------|-------------------------------------------|
A|-------------------------------|-------------------------------------------|
E|-------------------------------|-------------------------------------------|

Guitar 1
e|------------------------------------|------------------------------------|
B|------------------------------------|------------------------------------|
G|-9-9-9-9--8-8-8-8--4-4-4-4--8-8-8-8-|-9-9-9-9--8-8-8-8--4-4-4-4--8-8-8-8-|
D|-x-x-x-x--x-x-x-x--x-x-x-x--x-x-x-x-|-x-x-x-x--x-x-x-x--x-x-x-x--x-x-x-x-|
A|-7-7-7-7--6-6-6-6--2-2-2-2--6-6-6-6-|-7-7-7-7--6-6-6-6--2-2-2-2--6-6-6-6-|
E|------------------------------------|------------------------------------|

Bridge
 (You're not the Jesus of Suburbia...)
e|-----------------------------------------------------------------------------|
B|-----------------------------------------------------------------------------|
G|-----------------------------------------------------------------------------|
D|------9-9-9-9-9-9-9-9-9-9-9-9-9-----9-9-9-9-9-9-9-9-9-9-9-9-9-----7-7-7-7-7-7|
A|------9-9-9-9-9-9-9-9-9-9-9-9-9-----9-9-9-9-9-9-9-9-9-9-9-9-9-----7-7-7-7-7-7|
E|-0-0--7-7-7-7-7-7-7-7-7-7-7-7-7-0-0-7-7-7-7-7-7-7-7-7-7-7-7-7-0-0-5-5-5-5-5-5|

e|---------------------------------------------|
B|---------------------------------------------|
G|---------------------------------------------|
D|-7-7-7-7-7-7-7-----9-9-9-9-9-----9---9-----x-|
A|-7-7-7-7-7-7-7-----9-9-9-9-9-----9---9-----x-|
E|-5-5-5-5-5-5-5-0-0-7-7-7-7-7-0-0-7-0-7-0-0-x-|

Outro
e|-------------------------------|-----------------------------------------------|
B|-------------------------------|-----------------------------------------------|
G|9-9-9-9-9-9-9-9-9-9-9-9-9-9-9-9|13-13-13-13-13-13-13-13-13-13-13-13-13-13-13-13|
D|x-x-x-x-x-x-x-x-x-x-x-x-x-x-x-x|-x--x--x--x--x--x--x--x--x--x--x--x--x--x--x--x|
A|7-7-7-7-7-7-7-7-7-7-7-7-7-7-7-7|11-11-11-11-11-11-11-11-11-11-11-11-11-11-11-11|
E|-------------------------------|-----------------------------------------------|

E|-----------------------------------------------|--------------------------------|
B|-----------------------------------------------|--------------------------------|
G|13-13-13-13-13-13-13-13-13-13-13-13-13-13-13-13|14-14-14-14-14-14-14-14-14-14-14|
D|-x--x--x--x--x--x--x--x--x--x--x--x--x--x--x--x|-x--x--x--x--x--x--x--x--x--x--x|
A|11-11-11-11-11-11-11-11-11-11-11-11-11-11-11-11|12-12-12-12-12-12-12-12-12-12-12|
E|-----------------------------------------------|--------------------------------|

End
Guitar 1
e|----------------------------------------------------------------------------------|
B|----------------------------------------------------------------------------------|
G|----------------------------------------------------------------------------------|
D|-2~~----------2-2----------2~~----------2-2----------2~~----------2-2----------2~-|
A|-2~~----------2-2----------2~~----------2-2----------2~~----------2-2----------2~-|
E|-0~~----------0-0----------0~~----------0-0----------0~~----------0-0----------0~-|

Guitar 2
e|--------------------------------------------------------------------------------|
B|--------------------------------------------------------------------------------|
G|-----9-9-9-9-9----9-9-9-9-9----9-9-9-9-9----9-9-9-9-9----9-9-9-9-9----9-9-9-9-9-|
D|-----x-x-x-x-x----x-x-x-x-x----x-x-x-x-x----x-x-x-x-x----x-x-x-x-x----x-x-x-x-x-|
A|-----7-7-7-7-7----7-7-7-7-7----7-7-7-7-7----7-7-7-7-7----7-7-7-7-7----7-7-7-7-7-|
E|--------------------------------------------------------------------------------|

Order

Intro
Verse
Verse 2
Pre Chorus
Chorus
Midtro
Interlude
Bridge
Chorus
Outro x2
End
37 comments total. Showing first comments.
0 reply
Baza14 wrote on November 21 2004, 12:00 am

this tabs really good!

0 reply
Lola wrote on January 12 2005, 12:00 am

the lyrics are off. but the tab is great. :0)

+2 reply
Clare wrote on March 10 2005, 12:00 am

yeah, great tab! well done, im giving you 5stars coz im nice like that.


some of the time.

I want to post or [tab]
guest
You may want to rate the tab now too:
select rating
Please do not post tabs as comments. Select "correction" instead!