Oops, an error
Loading. Please wait.

Letterbomb Tab

ver3
ver3
More versions @911Tabs.com
4,896 views 31 this week
1 commentread comment
1 2 3 4 5
excellent!
x 4
Autoscroll
+/-
esc
set tempo
stop
Contributor
Difficulty
intermediate
Hey! There's an official Ultimate Guitar app which is ideal
for learning songs when you're away from computer. Get the app
WARNING: You are trying to view
                                    content from Ultimate-Guitar.com
                                    in an unauthorized application,
                                    which is prohibited.

                                    Please use an official Ultimate
                                    Guitar Tabs application for iPhone,
                                    iPad or Android to access legitimate
                                    chords, guitar, bass, and drum tabs
                                    from Ultimate-Guitar.com database.

                                    Type "ultimate guitar tabs" in Apple
                                    App Store's or Android Market's
                                    search to find the application.
Intro

e|---------------------------------------------------------------------------|
B|---------------------------------------------------------------------------|
G|--9-9-9-9-9-9-9-9-9-9-9-9-9-9-9-9------------------------------------------|
D|-----------------------------------------(x3)------------------------------|
A|--7-7-7-7-7-7-7-7-7-7-7-7-7-7-7-7------------------------------------------|
E|---------------------------------------------------------------------------|


e|---------------------------------------------------------------------------|
B|---------------------------------------------------------------------------|
G|--8-8-8-8-8-8-8-8-8-8-8-8-8-8-8-8------------------------------------------|
D|---------------------------------------------------------------------------|
A|--6-6-6-6-6-6-6-6-6-6-6-6-6-6-6-6------------------------------------------|
E|---------------------------------------------------------------------------|


e|---------------------------------------------------------------------------|
B|---------------------------------------------------------------------------|
G|--9-9-9-9-9-9-9-9-9-9-9-9-9-9-9-9------------------------------------------|
D|-----------------------------------------(x2)------------------------------|
A|--7-7-7-7-7-7-7-7-7-7-7-7-7-7-7-7------------------------------------------|
E|---------------------------------------------------------------------------|


(Gtr 1)

e|------0----0---------------------------------------------------------------|
B|----0-0----0---------------------------------------------------------------|
G|---------------------------------------------------------------------------|
D|--2---2--2-2-2-2--2-2-2-2-2-2-2--6--6-6-6-6-6-6--6-6--6-6-6-6--------------|
A|--2---2--2-2-2-2--2-2-2-2-2-2-2--6--6-6-6-6-6-6--6-6--6-6-6-6--------------|
E|--0---0--0-0-0-0--0-0-0-0-0-0-0--4--4-4-4-4-4-4--4-4--4-4-4-4--------------|



e|--4--4-4-4-4-4-4--4-4--4-4-4-4---------------------------------------------|
B|--5--5-5-5-5-5-5--5-5--5-5-5-5---------------------------------------------|
G|--6--6-6-6-6-6-6--6-6--6-6-6-6---------------------------------------------|
D|--6--6-6-6-6-6-6--6-6--6-6-6-6--7--7--7-7-7-7--7-7--7-7-7-7----------------|
A|--4--4-4-4-4-4-4--4-4--4-4-4-4--7--7--7-7-7-7--7-7--7-7-7-7----------------|
E|--------------------------------5--5--5-5-5-5--5-5--5-5-5-5----------------|


(Gtr 2)

e|---------------------------------------------------------------------------|
B|---------------------------------------------------------------------------|
G|---------------------------------------------------------------------------|
D|--2--2--2-2-2-2--2-2-2-2-2-2-2--6--6-6-6-6-6-6--6-6--6-6-6-6---------------|
A|--2--2--2-2-2-2--2-2-2-2-2-2-2--6--6-6-6-6-6-6--6-6--6-6-6-6---------------|
E|--0--0--0-0-0-0--0-0-0-0-0-0-0--4--4-4-4-4-4-4--4-4--4-4-4-4---------------|


e|---------------------------------------------------------------------------|
B|---------------------------------------------------------------------------|
G|--6--6-6-6-6-6-6--6-6--6-6-6-6---------------------------------------------|
D|--6--6-6-6-6-6-6--6-6--6-6-6-6--7--7--7-7-7-7--7-7--7-7-7-7----------------|
A|--4--4-4-4-4-4-4--4-4--4-4-4-4--7--7--7-7-7-7--7-7--7-7-7-7----------------|
E|--------------------------------5--5--5-5-5-5--5-5--5-5-5-5----------------|





Verse 1

(Gtr 1)

     PM.................
e|---------------------------------------------------------------------------|
B|---------------------------------------------------------------------------|
G|---------------------------------2--2--2-2-2-2--2-2--2-2-2-2---------------|
D|--2--2-2-2-2-2-2-2-2-2-2-2-2-2-2-2--2--2-2-2-2--2-2--2-2-2-2---------------|
A|--2--2-2-2-2-2-2-2-2-2-2-2-2-2-2-0--0--0-0-0-0--0-0--0-0-0-0---------------|
E|--0--0-0-0-0-0-0-0-0-0-0-0-0-0-0-------------------------------------------|


e|------------------------------------0--0-0---------------------------------|
B|---------------------------------0--0--0-0---------------------------------|
G|---------------2--2-2--2-2-2-2---1--2--2-1---------------------------------|
D|--4--4--4-4-4--2--2-2--2-2-2-2-2------------2--2-2-2-2-2-------------------|
A|--4--4--4-4-4--0--0-0--0-0-0-0-2------------2--2-2-2-2-2-------------------|
E|--2--2--2-2-2------------------0------------0--0-0-0-0-0-------------------|


e|----------------4--4-4-4-4-4-4-4----------------4--4-4-4-4-4-4-4-----------|
B|----------------5--5-5-5-5-5-5-5----------------5--5-5-5-5-5-5-5-----------|
G|----------------6--6-6-6-6-6-6-6----------------6--6-6-6-6-6-6-6-----------|
D|--6--6-6-6-6-6--6--6-6-6-6-6-6-6--6--6-6-6-6-6--6--6-6-6-6-6-6-6-----------|
A|--6--6-6-6-6-6--4--4-4-4-4-4-4-4--6--6-6-6-6-6--4--4-4-4-4-4-4-4-----------|
E|--4--4-4-4-4-4--------------------4--4-4-4-4-4-----------------------------|


e|---------------------------------------------------------------------------|
B|---------------------------------------------------------------------------|
G|--2--2-2-2-2-2--------------------4--4-4-------4--4-4-4-4-4-4-4------------|
D|--2--2-2-2-2-2--4--4-4-4-4-4-4-4--4--4-4-2-2-2-4--4-4-4-4-4-4-4------------|
A|--0--0-0-0-0-0--4--4-4-4-4-4-4-4--2--2-2-2-2-2-2--2-2-2-2-2-2-2------------|
E|----------------2--2-2-2-2-2-2-2---------0-0-0-----------------------------|

     PM.................
e|---------------------------------------------------------------------------|
B|---------------------------------------------------------------------------|
G|---------------------------------2--2--2-2-2-2--2-2--2-2-2-2---------------|
D|--2--2-2-2-2-2-2-2-2-2-2-2-2-2-2-2--2--2-2-2-2--2-2--2-2-2-2---------------|
A|--2--2-2-2-2-2-2-2-2-2-2-2-2-2-2-0--0--0-0-0-0--0-0--0-0-0-0---------------|
E|--0--0-0-0-0-0-0-0-0-0-0-0-0-0-0-------------------------------------------|


e|------------------------------------0--0-0---------------------------------|
B|---------------------------------0--0--0-0---------------------------------|
G|---------------2--2-2--2-2-2-2---1--2--2-1---------------------------------|
D|--4--4--4-4-4--2--2-2--2-2-2-2-2------------2--2-2-2-2-2-------------------|
A|--4--4--4-4-4--0--0-0--0-0-0-0-2------------2--2-2-2-2-2-------------------|
E|--2--2--2-2-2------------------0------------0--0-0-0-0-0-------------------|


e|----------------4--4-4-4-4-4-4-4----------------4--4-4-4-4-4-4-4-----------|
B|----------------5--5-5-5-5-5-5-5----------------5--5-5-5-5-5-5-5-----------|
G|----------------6--6-6-6-6-6-6-6----------------6--6-6-6-6-6-6-6-----------|
D|--6--6-6-6-6-6--6--6-6-6-6-6-6-6--6--6-6-6-6-6--6--6-6-6-6-6-6-6-----------|
A|--6--6-6-6-6-6--4--4-4-4-4-4-4-4--6--6-6-6-6-6--4--4-4-4-4-4-4-4-----------|
E|--4--4-4-4-4-4--------------------4--4-4-4-4-4-----------------------------|


e|---------------------------------------------------------------------------|
B|---------------------------------------------------------------------------|
G|--2--2-2-2-2-2--------------------4--4-4-------4--4-4-4--------------------|
D|--2--2-2-2-2-2--4--4-4-4-4-4-4-4--4--4-4-2-2-2-4--4-4-4-2-2-2--------------|
A|--0--0-0-0-0-0--4--4-4-4-4-4-4-4--2--2-2-2-2-2-2--2-2-2-2-2-2--------------|
E|----------------2--2-2-2-2-2-2-2---------0-0-0----------0-0-0--------------|


e|---------------------------------------------------------------------------|
B|---------------------------------------------------------------------------|
G|--4--4-4-4-------4--4-4-4-4-4-4--------------------------------------------|
D|--4--4-4-4-2-2-2-4--4-4-4-4-4-4--------------------------------------------|
A|--2--2-2-2-2-2-2-2--2-2-2-2-2-2--------------------------------------------|
E|-----------0-0-0-----------------------------------------------------------|


(Gtr 2)

     PM.................
e|---------------------------------------------------------------------------|
B|---------------------------------------------------------------------------|
G|---------------------------------2--2--2-2-2-2--2-2--2-2-2-2---------------|
D|--2--2-2-2-2-2-2-2-2-2-2-2-2-2-2-2--2--2-2-2-2--2-2--2-2-2-2---------------|
A|--2--2-2-2-2-2-2-2-2-2-2-2-2-2-2-0--0--0-0-0-0--0-0--0-0-0-0---------------|
E|--0--0-0-0-0-0-0-0-0-0-0-0-0-0-0-------------------------------------------|


e|---------------------------------------------------------------------------|
B|---------------------------------------------------------------------------|
G|---------------2--2-2--2-2-2-2---------------------------------------------|
D|--4--4--4-4-4--2--2-2--2-2-2-2-2---2--2-2-2-2--2-2--2-2-2-2----------------|
A|--4--4--4-4-4--0--0-0--0-0-0-0-2---2--2-2-2-2--2-2--2-2-2-2----------------|
E|--2--2--2-2-2------------------0---0--0-0-0-0--0-0--0-0-0-0----------------|


e|---------------------------------------------------------------------------|
B|---------------------------------------------------------------------------|
G|----------------6--6-6-6-6-6-6-6----------------6--6-6-6-6-6-6-6-----------|
D|--6--6-6-6-6-6--6--6-6-6-6-6-6-6--6--6-6-6-6-6--6--6-6-6-6-6-6-6-----------|
A|--6--6-6-6-6-6--4--4-4-4-4-4-4-4--6--6-6-6-6-6--4--4-4-4-4-4-4-4-----------|
E|--4--4-4-4-4-4--------------------4--4-4-4-4-4-----------------------------|


e|---------------------------------------------------------------------------|
B|---------------------------------------------------------------------------|
G|--2--2-2-2-2-2--------------------4--4-4-------4--4-4-4-4-4-4-4------------|
D|--2--2-2-2-2-2--4--4-4-4-4-4-4-4--4--4-4-2-2-2-4--4-4-4-4-4-4-4------------|
A|--0--0-0-0-0-0--4--4-4-4-4-4-4-4--2--2-2-2-2-2-2--2-2-2-2-2-2-2------------|
E|----------------2--2-2-2-2-2-2-2---------0-0-0-----------------------------|

     PM.................
e|---------------------------------------------------------------------------|
B|---------------------------------------------------------------------------|
G|---------------------------------2--2--2-2-2-2--2-2--2-2-2-2---------------|
D|--2--2-2-2-2-2-2-2-2-2-2-2-2-2-2-2--2--2-2-2-2--2-2--2-2-2-2---------------|
A|--2--2-2-2-2-2-2-2-2-2-2-2-2-2-2-0--0--0-0-0-0--0-0--0-0-0-0---------------|
E|--0--0-0-0-0-0-0-0-0-0-0-0-0-0-0-------------------------------------------|


e|---------------------------------------------------------------------------|
B|---------------------------------------------------------------------------|
G|---------------2--2-2--2-2-2-2---------------------------------------------|
D|--4--4--4-4-4--2--2-2--2-2-2-2-2---2--2-2-2-2--2-2--2-2-2-2----------------|
A|--4--4--4-4-4--0--0-0--0-0-0-0-2---2--2-2-2-2--2-2--2-2-2-2----------------|
E|--2--2--2-2-2------------------0---0--0-0-0-0--0-0--0-0-0-0----------------|


e|---------------------------------------------------------------------------|
B|---------------------------------------------------------------------------|
G|----------------6--6-6-6-6-6-6-6----------------6--6-6-6-6-6-6-6-----------|
D|--6--6-6-6-6-6--6--6-6-6-6-6-6-6--6--6-6-6-6-6--6--6-6-6-6-6-6-6-----------|
A|--6--6-6-6-6-6--4--4-4-4-4-4-4-4--6--6-6-6-6-6--4--4-4-4-4-4-4-4-----------|
E|--4--4-4-4-4-4--------------------4--4-4-4-4-4-----------------------------|


e|---------------------------------------------------------------------------|
B|---------------------------------------------------------------------------|
G|--2--2-2-2-2-2--------------------4--4-4-------4--4-4-4--------------------|
D|--2--2-2-2-2-2--4--4-4-4-4-4-4-4--4--4-4-2-2-2-4--4-4-4-2-2-2--------------|
A|--0--0-0-0-0-0--4--4-4-4-4-4-4-4--2--2-2-2-2-2-2--2-2-2-2-2-2--------------|
E|----------------2--2-2-2-2-2-2-2---------0-0-0----------0-0-0--------------|


e|---------------------------------------------------------------------------|
B|---------------------------------------------------------------------------|
G|--4--4-4-4-------4--4-4-4-4-4-4--------------------------------------------|
D|--4--4-4-4-2-2-2-4--4-4-4-4-4-4--------------------------------------------|
A|--2--2-2-2-2-2-2-2--2-2-2-2-2-2--------------------------------------------|
E|-----------0-0-0-----------------------------------------------------------|





Pre-Chorus

(Gtr 1 and Gtr 2)

e|---------------------------------------------------------------------------|
B|---------------------------------------------------------------------------|
G|---------------------------------------------------------------------------|
D|--7--7-7-7-7-7-7-7-7-7-7-7-7----7--7-7-7-7-7-7-7-7-7-7-7-7-----------------|
A|--7--7-7-7-7-7-7-7-7-7-7-7-7----7--7-7-7-7-7-7-7-7-7-7-7-7-----------------|
E|--5--5-5-5-5-5-5-5-5-5-5-5-5-0--5--5-5-5-5-5-5-5-5-5-5-5-5-0---------------|


e|---------------------------------------------------------------------------|
B|---------------------------------------------------------------------------|
G|---------------------------------------------------------------------------|
D|--9--9-9-9-9-9-9-9-9-9-9-9-9----9--9-9-9-9-9----9----9--9-9-9--------------|
A|--9--9-9-9-9-9-9-9-9-9-9-9-9----9--9-9-9-9-9----9----9--9-9-9--------------|
E|--7--7-7-7-7-7-7-7-7-7-7-7-7-0--7--7-7-7-7-7-0--7-0--7--7-7-7--------------|





Chorus

e|---------------------------------------------------------------------------|
B|---------------------------------------------------------------------------|
G|--9--9-9-9-9-9-------------------------------------------------------------|
D|--9--9-9-9-9-9-9--9-9-9--9-9-9--7--7-7-7-7--7-7-7--7-7-7------(x2)---------|
A|--7--7-7-7-7-7-9--9-9-9--9-9-9--7--7-7-7-7--7-7-7--7-7-7-------------------|
E|---------------7--7-7-7--7-7-7--5--5-5-5-5--5-5-5--5-5-5-------------------|


e|---------------------------------------------------------------------------|
B|---------------------------------------------------------------------------|
G|--9--9-9-9-9-9-------------------------------------------------------------|
D|--9--9-9-9-9-9-9--9-9-9--9-9-9--7--7-7-7-7-7-7--7-7-10--10-10-10-----------|
A|--7--7-7-7-7-7-9--9-9-9--9-9-9--7--7-7-7-7-7-7--7-7-10--10-10-10-----------|
E|---------------7--7-7-7--7-7-7--5--5-5-5-5-5-5--5-5--8---8--8--8-----------|


e|---------------------------------------------------------------------------|
B|---------------------------------------------------------------------------|
G|--9--9-9-9-9-9-------------------------------------------------------------|
D|--9--9-9-9-9-9-9--9-9-9--9-9-9--7--7-7-7-7-7-7--7-7-7--7-7--4--7-----------|
A|--7--7-7-7-7-7-9--9-9-9--9-9-9--7--7-7-7-7-7-7--7-7-7--7-7--4--7-----------|
E|---------------7--7-7-7--7-7-7--5--5-5-5-5-5-5--5-5-5--5-5--2--5-----------|







(Gtr 1)

e|---------------------------------------------------------------------------|
B|---------------------------------------------------------------------------|
G|--9-9-9-9-9-9-9-9-9-9-9-9-9-9-9-9------------------------------------------|
D|-----------------------------------------(x2)------------------------------|
A|--7-7-7-7-7-7-7-7-7-7-7-7-7-7-7-7------------------------------------------|
E|---------------------------------------------------------------------------|





Verse 2

(Gtr 1)

e|---------------------------------------------------------------------------|
B|---------------------------------------------------------------------------|
G|--9-9-9-9-9-9-9-9-9-9-9-9-9-9-9-9------------------------------------------|
D|---------------------------------------------------------------------------|
A|--7-7-7-7-7-7-7-7-7-7-7-7-7-7-7-7------------------------------------------|
E|---------------------------------------------------------------------------|


e|---------------------------------------------------------------------------|
B|---------------------------------------------------------------------------|
G|--8-8-8-8-8-8-8-8-8-8-8-8-8-8-8-8------------------------------------------|
D|---------------------------------------------------------------------------|
A|--6-6-6-6-6-6-6-6-6-6-6-6-6-6-6-6------------------------------------------|
E|---------------------------------------------------------------------------|


e|---------------------------------------------------------------------------|
B|---------------------------------------------------------------------------|
G|--9-9-9-9-9-9-9-9-9-9-9-9-9-9-9-9------------------------------------------|
D|-----------------------------------------(x2)------------------------------|
A|--7-7-7-7-7-7-7-7-7-7-7-7-7-7-7-7------------------------------------------|
E|---------------------------------------------------------------------------|


(Gtr 2)

e|---------------------------------------------------------------------------|
B|--9-9-9-------9-9-9-------9-9-----------9-9-9-------9-9-9-----9-9----------|
G|--------9-9-9-------9-9-9-----9-9-8-8-8-------8-8-8-------8-8--------------|
D|---------------------------------------------------------------------------|
A|---------------------------------------------------------------------------|
E|---------------------------------------------------------------------------|


e|---------------------------------------------------------------------------|
B|--9-9-9-------9-9-9-------9-9-----10-10-10----------10-10------------------|
G|--------9-9-9-------9-9-9-----9-9----------10-10-10------------------------|
D|---------------------------------------------------------------------------|
A|---------------------------------------------------------------------------|
E|---------------------------------------------------------------------------|





Interlude

(Gtr 1)

e|------0----0---------------------------------------------------------------|
B|----0-0----0---------------------------------------------------------------|
G|---------------------------------------------------------------------------|
D|--2---2--2-2-2-2--2-2-2-2-2-2-2--6--6-6-6-6-6-6--6-6--6-6-6-6--------------|
A|--2---2--2-2-2-2--2-2-2-2-2-2-2--6--6-6-6-6-6-6--6-6--6-6-6-6--------------|
E|--0---0--0-0-0-0--0-0-0-0-0-0-0--4--4-4-4-4-4-4--4-4--4-4-4-4--------------|


e|--4--4-4-4-4-4-4--4-4--4-4-4-4---------------------------------------------|
B|--5--5-5-5-5-5-5--5-5--5-5-5-5---------------------------------------------|
G|--6--6-6-6-6-6-6--6-6--6-6-6-6---------------------------------------------|
D|--6--6-6-6-6-6-6--6-6--6-6-6-6--7--7--7-7-7-7--7-7--7-7-7-7----------------|
A|--4--4-4-4-4-4-4--4-4--4-4-4-4--7--7--7-7-7-7--7-7--7-7-7-7----------------|
E|--------------------------------5--5--5-5-5-5--5-5--5-5-5-5----------------|


e|------0----0---------------------------------------------------------------|
B|----0-0----0---------------------------------------------------------------|
G|---------------------------------------------------------------------------|
D|--2---2--2-2-2-2--2-2-2-2-2-2-2--6--6-6-6-6-6-6--6-6--6-6-6-6--------------|
A|--2---2--2-2-2-2--2-2-2-2-2-2-2--6--6-6-6-6-6-6--6-6--6-6-6-6--------------|
E|--0---0--0-0-0-0--0-0-0-0-0-0-0--4--4-4-4-4-4-4--4-4--4-4-4-4--------------|


e|--4--4-4-4-4-4-4--4-4--4-4-4-4---------------------------------------------|
B|--5--5-5-5-5-5-5--5-5--5-5-5-5---------------------------------------------|
G|--6--6-6-6-6-6-6--6-6--6-6-6-6---------------------------------------------|
D|--6--6-6-6-6-6-6--6-6--6-6-6-6--7--7--7-7-7-7--7-7--7-7--------------------|
A|--4--4-4-4-4-4-4--4-4--4-4-4-4--7--7--7-7-7-7--7-7--7-7--------------------|
E|--------------------------------5--5--5-5-5-5--5-5--5-5--------------------|


(Gtr 2)

e|---------------------------------------------------------------------------|
B|---------------------------------------------------------------------------|
G|---------------------------------------------------------------------------|
D|--2--2--2-2-2-2--2-2-2-2-2-2-2--6--6-6-6-6-6-6--6-6--6-6-6-6---------------|
A|--2--2--2-2-2-2--2-2-2-2-2-2-2--6--6-6-6-6-6-6--6-6--6-6-6-6---------------|
E|--0--0--0-0-0-0--0-0-0-0-0-0-0--4--4-4-4-4-4-4--4-4--4-4-4-4---------------|


e|---------------------------------------------------------------------------|
B|---------------------------------------------------------------------------|
G|--6--6-6-6-6-6-6--6-6--6-6-6-6---------------------------------------------|
D|--6--6-6-6-6-6-6--6-6--6-6-6-6--7--7--7-7-7-7--7-7--7-7-7-7----------------|
A|--4--4-4-4-4-4-4--4-4--4-4-4-4--7--7--7-7-7-7--7-7--7-7-7-7----------------|
E|--------------------------------5--5--5-5-5-5--5-5--5-5-5-5----------------|


e|---------------------------------------------------------------------------|
B|--5---5--5---5--5---4--4-4-5-5-5-4--2--0--0-0------------------------------|
G|----4---4--4---4--4--------------------------------------------------------|
D|---------------------------------------------------------------------------|
A|---------------------------------------------------------------------------|
E|---------------------------------------------------------------------------|


e|---------------------------------------------------------------------------|
B|--9-9-9-9-8-8-8-8-4-4-4-4-8-8-8-8-9-9-9-9-8-8-8-8-4-4-4-4-4----------------|
G|---------------------------------------------------------------------------|
D|---------------------------------------------------------------------------|
A|--7-7-7-7-6-6-6-6-2-2-2-2-6-6-6-6-7-7-7-7-6-6-6-6-2-2-2-2-2----------------|
E|---------------------------------------------------------------------------|





Pre-Chorus

(Gtr 1 and Gtr 2)

e|---------------------------------------------------------------------------|
B|---------------------------------------------------------------------------|
G|---------------------------------------------------------------------------|
D|-----9--9-9-9-9-9-9-9-9-9-9-9-9----9--9-9-9-9-9-9-9-9-9-9-9-9--------------|
A|-----9--9-9-9-9-9-9-9-9-9-9-9-9----9--9-9-9-9-9-9-9-9-9-9-9-9--------------|
E|--0--7--7-7-7-7-7-7-7-7-7-7-7-7-0--7--7-7-7-7-7-7-7-7-7-7-7-7-0------------|


e|---------------------------------------------------------------------------|
B|---------------------------------------------------------------------------|
G|---------------------------------------------------------------------------|
D|--7--7-7-7-7-7-7-7-7-7-7-7-7----9--9-9-9-9-9----9----9--9-9-9--------------|
A|--7--7-7-7-7-7-7-7-7-7-7-7-7----9--9-9-9-9-9----9----9--9-9-9--------------|
E|--5--5-5-5-5-5-5-5-5-5-5-5-5-0--7--7-7-7-7-7-0--7-0--7--7-7-7--------------|





Chorus

e|---------------------------------------------------------------------------|
B|---------------------------------------------------------------------------|
G|--9--9-9-9-9-9-------------------------------------------------------------|
D|--9--9-9-9-9-9-9--9-9-9--9-9-9--7--7-7-7-7--7-7-7--7-7-7------(x2)---------|
A|--7--7-7-7-7-7-9--9-9-9--9-9-9--7--7-7-7-7--7-7-7--7-7-7-------------------|
E|---------------7--7-7-7--7-7-7--5--5-5-5-5--5-5-5--5-5-5-------------------|


e|---------------------------------------------------------------------------|
B|---------------------------------------------------------------------------|
G|--9--9-9-9-9-9-------------------------------------------------------------|
D|--9--9-9-9-9-9-9--9-9-9--9-9-9--7--7-7-7-7-7-7--7-7-10--10-10-10-----------|
A|--7--7-7-7-7-7-9--9-9-9--9-9-9--7--7-7-7-7-7-7--7-7-10--10-10-10-----------|
E|---------------7--7-7-7--7-7-7--5--5-5-5-5-5-5--5-5--8---8--8--8-----------|


e|---------------------------------------------------------------------------|
B|---------------------------------------------------------------------------|
G|--9--9-9-9-9-9-------------------------------------------------------------|
D|--9--9-9-9-9-9-9--9-9-9--9-9-9--7--7-7-7-7-7-7--7-7-7-7-7-7-7--------------|
A|--7--7-7-7-7-7-9--9-9-9--9-9-9--7--7-7-7-7-7-7--7-7-7-7-7-7-7--------------|
E|---------------7--7-7-7--7-7-7--5--5-5-5-5-5-5--5-5-5-5-5-5-5--------------|





Outro


(Gtr 1)

e|---------------------------------------------------------------------------|
B|---------------------------------------------------------------------------|
G|--9-9-9-9-9-9-9-9-9-9-9-9-9-9-9-9------------------------------------------|
D|--9-9-9-9-9-9-9-9-9-9-9-9-9-9-9-9-6-6-6-6-6-6-6-6-6-6-6-6-6-6-6-6----------|
A|--7-7-7-7-7-7-7-7-7-7-7-7-7-7-7-7-6-6-6-6-6-6-6-6-6-6-6-6-6-6-6-6----------|
E|----------------------------------4-4-4-4-4-4-4-4-4-4-4-4-4-4-4-4----------|


e|---------------------------------------------------------------------------|
B|---------------------------------------------------------------------------|
G|--6-6-6-6-6-6-6-6-6-6-6-6-6-6-6-6------------------------------------------|
D|--6-6-6-6-6-6-6-6-6-6-6-6-6-6-6-6-7--7--7-7-7-7--7-7--7-7-7-7--------------|
A|--4-4-4-4-4-4-4-4-4-4-4-4-4-4-4-4-7--7--7-7-7-7--7-7--7-7-7-7--------------|
E|----------------------------------5--5--5-5-5-5--5-5--5-5-5-5--------------|


e|---------------------------------------------------------------------------|
B|---------------------------------------------------------------------------|
G|--9-9-9-9-9-9-9-9-9-9-9-9-9-9-9-9------------------------------------------|
D|--9-9-9-9-9-9-9-9-9-9-9-9-9-9-9-9-6-6-6-6-6-6-6-6-6-6-6-6-6-6-6-6----------|
A|--7-7-7-7-7-7-7-7-7-7-7-7-7-7-7-7-6-6-6-6-6-6-6-6-6-6-6-6-6-6-6-6----------|
E|----------------------------------4-4-4-4-4-4-4-4-4-4-4-4-4-4-4-4----------|



e|---------------------------------------------------------------------------|
B|---------------------------------------------------------------------------|
G|--6-6-6-6-6-6-6-6-6-6-6-6-6-6-6-6------------------------------------------|
D|--6-6-6-6-6-6-6-6-6-6-6-6-6-6-6-6-7--7--7-7-7-7--7-7--7-7------------------|
A|--4-4-4-4-4-4-4-4-4-4-4-4-4-4-4-4-7--7--7-7-7-7--7-7--7-7------------------|
E|----------------------------------5--5--5-5-5-5--5-5--5-5------------------|


e|---------------------------------------------------------------------------|
B|---------------------------------------------------------------------------|
G|---------------------------------------------------------------------------|
D|--2--2-2----------------2--2-2----------------2--2-2----------------2------|
A|--2--2-2----------------2--2-2----------------2--2-2----------------2------|
E|--0--0-0----------------0--0-0----------------0--0-0----------------0------|


(Gtr 2)

e|---------------------------------------------------------------------------|
B|---------------------------------------------------------------------------|
G|--9-9-9-9-9-9-9-9-9-9-9-9-9-9-9-9-13-13-13-13-13-13-13-13-13-13-13-13-13-13|
D|--9-9-9-9-9-9-9-9-9-9-9-9-9-9-9-9-13-13-13-13-13-13-13-13-13-13-13-13-13-13|
A|--7-7-7-7-7-7-7-7-7-7-7-7-7-7-7-7-11-11-11-11-11-11-11-11-11-11-11-11-11-11|
E|---------------------------------------------------------------------------|


e|-------------------------------------------------------------------------------|
B|-------------------------------------------------------------------------------|
G|--13-13-6-6-6-6-6-6-6-6-6-6-6-6-6-6-6-6-14--14--14-14-14-14--14-14--14-14-14-14|
D|--13-13-6-6-6-6-6-6-6-6-6-6-6-6-6-6-6-6-14--14--14-14-14-14--14-14--14-14-14-14|
A|--11-11-4-4-4-4-4-4-4-4-4-4-4-4-4-4-4-4-12--12--12-12-12-12--12-12--12-12-12-12|
E|-------------------------------------------------------------------------------|


e|---------------------------------------------------------------------------|
B|---------------------------------------------------------------------------|
G|--9-9-9-9-9-9-9-9-9-9-9-9-9-9-9-9-13-13-13-13-13-13-13-13-13-13-13-13-13-13|
D|--9-9-9-9-9-9-9-9-9-9-9-9-9-9-9-9-13-13-13-13-13-13-13-13-13-13-13-13-13-13|
A|--7-7-7-7-7-7-7-7-7-7-7-7-7-7-7-7-11-11-11-11-11-11-11-11-11-11-11-11-11-11|
E|--------------------------------------------------------------------------


e|--------------------------------------------------------------------------
B|--------------------------------------------------------------------------
G|--13-13-6-6-6-6-6-6-6-6-6-6-6-6-6-6-6-6-14--14--14-14-14-14--14-14--14-14-
D|--13-13-6-6-6-6-6-6-6-6-6-6-6-6-6-6-6-6-14--14--14-14-14-14--14-14--14-14-
A|--11-11-4-4-4-4-4-4-4-4-4-4-4-4-4-4-4-4-12--12--12-12-12-12--12-12--12-12-
E|--------------------------------------------------------------------------


e|--------------------------------------------------------------------------
B|--------------------------------------------------------------------------
G|--9-9-9-9-9-9-9-9-9-9-9-9-9-9-9-9-9-9-9-9-9-9-9-9-9-9-9-9-9-9-9-9-9-9-----
D|--------------------------------------------------------------------------
A|--7-7-7-7-7-7-7-7-7-7-7-7-7-7-7-7-7-7-7-7-7-7-7-7-7-7-7-7-7-7-7-7-7-7-----
E|--------------------------------------------------------------------------


comments
print report bad tab
1 comment total.
0 reply
offbeat wrote on November 27 2006, 03:13 pm

dont see anything wrong, so i guess pretty good job.
dosnt look like much more than any of the other tabs.

I want to post or [tab]
guest
You may want to rate the tab now too:
select rating
Please do not post tabs as comments. Select "correction" instead!