Oops, an error
Loading. Please wait.

Misery Tab

ver3
ver3

Whole song

Interactive

More versions @911Tabs.com
4,370 views 21 this week
1 commentread comment
1 2 3 4 5
accurate
x 3
Autoscroll
+/-
esc
set tempo
stop
Contributor
Tabbers playing skills
intermediate ++
Hey! There's an official Ultimate Guitar app which is ideal
for learning songs when you're away from computer. Get the app
WARNING: You are trying to view
                                    content from Ultimate-Guitar.com
                                    in an unauthorized application,
                                    which is prohibited.

                                    Please use an official Ultimate
                                    Guitar Tabs application for iPhone,
                                    iPad or Android to access legitimate
                                    chords, guitar, bass, and drum tabs
                                    from Ultimate-Guitar.com database.

                                    Type "ultimate guitar tabs" in Apple
                                    App Store's or Android Market's
                                    search to find the application.
                                     MISERY
                            As recorded by Green Day
                          (From the 2000 Album WARNING)

Like My 'WELCOME TO PARADISE' Tab , I've Done This On Power Tab Editor v1.7.
So it's Really Accurate , If You Want The  Midi E-mail me. (thedonkeyfly@hotmail.com)
or if you wnat me to do you more tabs on PTE E-mail me. Enjoy


Words and Music by Green Day
Transcribed by Donkey Fly

         Bm7                   Em                   Bm                   F#
      7 9 9 7 7 7          0 2 2 0 0 0          x 2 4 4 3 2          2 4 4 3 2 2

           G                   E5                   G5                   F#5
      3 2 0 0 3 3          0 2 2 x x x          3 5 5 x x x          2 4 4 x x x

         G3
      3 5 5 4 3 3

 Intro
  Slowly Q=70
  N.C.
 4/4
  Gtr IV
|--------------------------------|------------------9-10----------------------|
|-11h12-11-12-(12)---------------|-11h12-11-12-(12)------11-12--(12)----------|
|------------------11-12-9-11----|-----------------------------------11-11-10-|
|--------------------------------|--------------------------------------------|
|--------------------------------|--------------------------------------------|
|--------------------------------|--------------------------------------------|


                                                    N.C.(B°)
|-------------------------|--------10-------------|---------||
|--------------12---------|-----------12----------|-(12)----||
|-9--(9)-11-12----11---11-|-12--11----------------|--10-----||
|-------------------------|-------------------12--|-(12)----||
|-------------------------|---------------14-(14)-|-(14)----||
|-------------------------|-----------------------|---------||


  Slightly Faster Q=80
  Bm
  Gtr II
|------------------|-----------------|---2---2---2---2-|---2---2---2---2--||
|-^3-3-3-3-3-3-3-3-|-3-3-3-3-3-3-3-3-|---3---3---3---3-|---3---3---3---3--||
|-^4-4-4-4-4-4-4-4-|-4-4-4-4-4-4-4-4-|---4---4---4---4-|---4---4---4---4--||
|-^4-4-4-4-4-4-4-4-|-4-4-4-4-4-4-4-4-|---4---4---4---4-|---4---4---4---4--||
|-^2-2-2-2-2-2-2-2-|-2-2-2-2-2-2-2-2-|-2-------2-------|-2-------2--------||
|------------------|-----------------|-----2-------2---|-----2-------2----||


   First Verse
    Bm                                                    F#
||----2---2---2---2-|---2---2---2---2-|---2---2---2---2-|---2---2---2---2-|
||o---3---3---3---3-|---3---3---3---3-|---3---3---3---3-|---2---2---2---2-|
||----4---4---4---4-|---4---4---4---4-|---4---4---4---4-|---3---3---3---3-|
||----4---4---4---4-|---4---4---4---4-|---4---4---4---4-|---4---4---4---4-|
||o-2-------2-------|-2-------2-------|-2-------2-------|-----4-------4---|
||------2-------2---|-----2-------2---|-----2-------2---|-2-------2-------|


                   1.
  Bm                Em    G       F#                Bm
|---2---2---2-----|-^0----^3----|---2---2---2---2-|---2---2---2---2---||
|---3---3---3-----|-^0----^3----|---2---2---2---2-|---3---3---3---3--o||
|---4---4---4-----|-^0----^0----|---3---3---3---3-|---4---4---4---4---||
|---4---4---4-----|-^2----^0----|---4---4---4---4-|---4---4---4---4---||
|-2-------2-------|-^2----^2----|-----4-------4---|-2-------2--------o||
|-----2-------2-1-|-^0----^3----|-2-------2-------|-----2-------2-----||


  2.
  Em       G          F#                Bm          N.C.
|-^0-------^3-------|---2---2---2---2-|---2---2-2---x-||
|-^0-------^3-------|---2---2---2---2-|---3---3-3---x-||
|-^0-------^0-------|---3---3---3---3-|---4---4-4---x-||
|-^2-------^0-------|---4---4---4---4-|---4---4-4---x-||
|-^2-------^2-------|-----4-------4---|-2-------2---x-||
|-^0-0-0-0-^3-3-3-3-|-2-------2-------|-----2---------||


 Chorus
  F#                  Bm                F#                  Bm
  Gtr I
    |   |    |    |     |   |   |   |     |   |    |    |     |   |   |   |
    x   x    x    x     x   x   x   x     x   x    x    x     x   x   x   x

  Gtr II
|---2---2----2----2-|---2---2---2---2-|---2---2----2----2-|---2---2---2---2--|
|---2---2----2----2-|---3---3---3---3-|---2---2----2----2-|---3---3---3---3--|
|---3---3----3----3-|---4---4---4---4-|---3---3----3----3-|---4---4---4---4--|
|---4---4----4----4-|---4---4---4---4-|---4---4----4----4-|---4---4---4---4--|
|-----4--------4----|-2-------2-------|-----4--------4----|-2-------2--------|
|-2-------2---------|-----2-------2---|-2-------2---------|-----2-------2----|
|
| Gtr IV
|-----------12---12-|-----------------|-----------12---12-|------------------|
|-----------14---14-|-----------------|-----------14---14-|------------------|
|-----------15---15-|-----------------|-----------15---15-|------------------|
|-------------------|-----------------|-------------------|------------------|
|-------------------|-----------------|-------------------|------------------|
|-------------------|-----------------|-------------------|------------------|


  F#                  Bm
    |   |    |    |      |     |    |     |
    x   x    x    x      x     x    x     x

|---2---2----2----2-|----2-----2----2-----2-|
|---2---2----2----2-|----3-----3----3-----3-|
|---3---3----3----3-|----4-----4----4-----4-|
|---4---4----4----4-|----4-----4----4-----4-|
|-----4--------4----|-2----------2----------|
|-2-------2---------|-------2----------2----|
|
|-----------12---12-|---10-10-10---10-14-10-|
|-----------14---14-|---12-12-12------12----|
|-----------15---15-|---11-11-11---11----11-|
|-------------------|-----------------------|
|-------------------|-----------------------|
|-------------------|-----------------------|


  E5       G5         F#5
   | | | |  | | | |   |  | |  | |
   / / / /  / / / /   /  / /  / /

|--0-0-0-0--3-3-3-3-|-2--2-2--2-2-----||
|--0-0-0-0--3-3-3-3-|-2--2-2--2-2-----||
|--0-0-0-0--0-0-0-0-|-3--3-3--3-3-----||
|--2-2-2-2--0-0-0-0-|-4--4-4--4-4-----||
|--2-2-2-2--2-2-2-2-|-4--4-4--4-4-----||
|--0-0-0-0--3-3-3-3-|-2--2-2--2-2-----||
|
|----------10-------|---12---12-------||
|-12----------------|---14---14-------||
|----------12-------|---15---15-------||
|-14----------------|-----------------||
|-------------------|-----------------||
|-------------------|-----------------||


  Bm
|---2---2---2---2-|---2---2---2---2-||
|---3---3---3---3-|---3---3---3---3-||
|---4---4---4---4-|---4---4---4---4-||
|---4---4---4---4-|---4---4---4---4-||
|-2-------2-------|-2-------2-------||
|-----2-------2---|-----2-------2---||


 Second Verse
  BmVII
  Gtr I
  | |   |   |   |     |   |    |     |
  / x   x   x   x     x   x    x     x

  Gtr II
|---2---2---2---2-|---2---2----2-----2-|
|---3---3---3---3-|---3---3----3-----3-|
|---4---4---4---4-|---4---4----4-----4-|
|---4---4---4---4-|---4---4----4-----4-|
|-2-------2-------|-2-------2----------|
|-----2-------2---|-----2---------2----|
|
| Gtr IV
|-----------------|-----------------10-|
|-----------------|--------------12----|
|-----------------|-----------11-------|
|-----------------|--------------------|
|-----------------|--------------------|
|-----------------|--------------------|


                        F#
     |    |    |    |      |
     x    x    x    x      x

|----2----2----2----2-|----2---2---2---2--|
|----3----3----3----3-|----2---2---2---2--|
|----4----4----4----4-|----3---3---3---3--|
|----4----4----4----4-|----4---4---4---4--|
|--2---------2--------|------4-------4----|
|------2---------2----|--2-------2--------|
|
|-10-----12-14--------|-------------------|
|------------------15-|-14----------------|
|---------------------|-------------------|
|---------------------|-------------------|
|---------------------|-------------------|
|---------------------|-------------------|


  Bm                E5    G5          F#                   Bm
    |   |   |   |    |     |             |   |    |    |      |    |    |   |
    x   x   x   x    /     /             x   x    x    x      x    x    x   x

|---2---2---2-----|-^0----^3--------|----2---2----2----2-|----2----2----2---2--|
|---3---3---3-----|-^0----^3--------|----2---2----2----2-|----3----3----3---3--|
|---4---4---4-----|-^0----^0--------|----3---3----3----3-|----4----4----4---4--|
|---4---4---4-----|-^2----^0--------|----4---4----4----4-|----4----4----4---4--|
|-2-------2-------|-^2----^2--------|------4---------4---|--2---------2--------|
|-----2-------2-1-|-^0----^3--------|--2--------2--------|------2---------2----|
|
|-----------------|----------12-----|---------------12---|---------------------|
|-----------------|-------------12--|-11-------14--------|-15-----14-12--------|
|-----------------|-----------------|--------------------|---------------------|
|-----------------|-----------------|--------------------|---------------------|
|-----------------|-----------------|--------------------|---------------------|
|-----------------|-----------------|--------------------|---------------------|


  Bm
    |   |   |   |     |   |   |   |
    x   x   x   x     x   x   x   x

|---2---2---2---2-|---2---2---2---2-|
|---3---3---3---3-|---3---3---3---3-|
|---4---4---4---4-|---4---4---4---4-|
|---4---4---4---4-|---4---4---4---4-|
|-2-------2-------|-2-------2-------|
|-----2-------2---|-----2-------2---|
|
|-----------------|-----------------|
|-----------------|-----------------|
|-----------------|-----------------|
|-----------------|-----------------|
|-----------------|-----------------|
|-----------------|-----------------|


                          F#
    |    |       |    |      |   |   |    |
    x    x       x    x      x   x   x    x

|---2----2-------2----2-|----2---2---2----2-|
|---3----3-------3----3-|----2---2---2----2-|
|---4----4-------4----4-|----3---3---3----3-|
|---4----4-------4----4-|----4---4---4----4-|
|-2------------2--------|------4--------4---|
|------2-----------2----|--2-------2--------|
|
|----------12-14--------|-------------------|
|-----15-------------15-|-14----------------|
|-----------------------|--------------15---|
|-----------------------|-------------------|
|-----------------------|-------------------|
|-----------------------|-------------------|


  Bm                E5     G5        F#                  Bm          N.C.
    |   |   |   |    |      |          |   |    |    |     |   | |   |
    x   x   x   x    /      /          x   x    x    x     x   x x   x

|---2---2---2-----|-^0-----^3------|---2---2----2----2-|---2---2-2---x--||
|---3---3---3-----|-^0-----^3------|---2---2----2----2-|---3---3-3---x--||
|---4---4---4-----|-^0-----^0------|---3---3----3----3-|---4---4-4---x--||
|---4---4---4-----|-^2-----^0------|---4---4----4----4-|---4---4-4---x--||
|-2-------2-------|-^2-----^2------|-----4---------4---|-2-------2---x--||
|-----2-------2-1-|-^0-----^3------|-2--------2--------|-----2----------||
|
|-----------------|------------12--|-9-----------------|----------------||
|-----------------|--------12------|--------------11---|----------------||
|-----------------|-----9----------|---------11--------|----------------||
|-----------------|----------------|-------------------|----------------||
|-----------------|----------------|-------------------|----------------||
|-----------------|----------------|-------------------|----------------||


 Chorus
  F#                    Bm
     |    |    |    |      |    |    |    |
     x    x    x    x      x    x    x    x

  Gtr II
|----2----2----2----2-|----2----2----2----2-|
|----2----2----2----2-|----3----3----3----3-|
|----3----3----3----3-|----4----4----4----4-|
|----4----4----4----4-|----4----4----4----4-|
|------4---------4----|-2---------2---------|
|-2---------2---------|------2---------2----|
|
| Gtr IV
|---12---12---12---12-|---10---10---10---10-|
|---14---14---14---14-|---12---12---12---12-|
|---15---15---15---15-|---11---11---11---11-|
|---------------------|---------------------|
|---------------------|---------------------|
|---------------------|---------------------|


  F#                         Bm
     |        |    |     |      |        |    |    |
     x        x    x     x      x        x    x    x

|----2--------2----2-----2-|----2--------2----2----2--|
|----2--------2----2-----2-|----3--------3----3----3--|
|----3--------3----3-----3-|----4--------4----4----4--|
|----4--------4----4-----4-|----4--------4----4----4--|
|----------4----------4----|-2-------------2----------|
|-2-------------2----------|----------2---------2-----|
|
|---12-12-12-12---12-12-12-|---10-10-10-10---10---10--|
|---14-14-14-14---14-14-14-|---12-12-12-12---12---12--|
|---15-15-15-15---15-15-15-|---11-11-11-11---11---11--|
|--------------------------|--------------------------|
|--------------------------|--------------------------|
|--------------------------|--------------------------|


  F#                    Bm
     |    |    |    |      |    |    |    |
     x    x    x    x      x    x    x    x

|----2----2----2----2-|----2----2----2----2-|
|----2----2----2----2-|----3----3----3----3-|
|----3----3----3----3-|----4----4----4----4-|
|----4----4----4----4-|----4----4----4----4-|
|------4---------4----|-2---------2---------|
|-2---------2---------|------2---------2----|
|
|---12---12---12---12-|---10---10---10---10-|
|---14---14---14---14-|---12---12---12---12-|
|---15---15---15---15-|---11---11---11---11-|
|---------------------|---------------------|
|---------------------|---------------------|
|---------------------|---------------------|


  E5      G5          F#5
  | | | | |  | |  |   |  | |  | |
  / / / / /  / /  /   /  / /  / /

|-0-0-0-0-3--3-3--3-|-2--2-2--2-2-----||
|-0-0-0-0-3--3-3--3-|-2--2-2--2-2-----||
|-0-0-0-0-0--0-0--0-|-3--3-3--3-3-----||
|-2-2-2-2-0--0-0--0-|-4--4-4--4-4-----||
|-2-2-2-2-2--2-2--2-|-4--4-4--4-4-----||
|-0-0-0-0-3--3-3--3-|-2--2-2--2-2-----||
|
|---7---7---10---10-|----9----9-------||
|---8---8---12---12-|---11---11-------||
|---9---9---12---12-|---11---11-------||
|-------------------|-----------------||
|-------------------|-----------------||
|-------------------|-----------------||


  Bm
  Gtr II
|----2-------2----2----2-|----2-------2----2-2--2-||
|----3-------3----3----3-|----3-------3----3-3--3-||
|----4-------4----4----4-|----4-------4----4-4--4-||
|----4-------4----4----4-|----4-------4----4-4--4-||
|-2------------2---------|-2------------2--2-2--2-||
|---------2---------2----|---------2--------------||
|
| Gtr IV
|---10-10---10---10---10-|---10-10---10---10---10-||
|---12-12---12---12---12-|---12-12---12---12---12-||
|---11-11---11---11---11-|---11-11---11---11---11-||
|------------------------|------------------------||
|------------------------|------------------------||
|------------------------|------------------------||


 Bridge
  E5       F#5        Bm
  Gtr I
  | |  | |  | | | |      |   |   |   |
  / /  / /  / / / /      x   x   x   x

  Gtr II
|-0-0--0-0--2-2-2-2-|----2---2---2---2-|
|-0-0--0-0--2-2-2-2-|----3---3---3---3-|
|-0-0--0-0--3-3-3-3-|----4---4---4---4-|
|-2-2--2-2--4-4-4-4-|----4---4---4---4-|
|-2-2--2-2--4-4-4-4-|--2-------2-------|
|-0-0--0-0--2-2-2-2-|------2-------2---|
|
| Gtr IV
|-----12---14-------|------------------|
|-------------------|-15---------------|
|-------------------|------------------|
|-------------------|------------------|
|-------------------|------------------|
|-------------------|------------------|


  E5       F#5         Bm
   | | | |  | |  | |      |    |    |   |
   / / / /  / /  / /      x    x    x   x

|--0-0-0-0--2-2--2-2-|----2----2----2---2--|
|--0-0-0-0--2-2--2-2-|----3----3----3---3--|
|--0-0-0-0--3-3--3-3-|----4----4----4---4--|
|--2-2-2-2--4-4--4-4-|----4----4----4---4--|
|--2-2-2-2--4-4--4-4-|--2---------2--------|
|--0-0-0-0--2-2--2-2-|-------2--------2----|
|
|---------------12---|---------------------|
|-15-------14--------|-15------------------|
|--------------------|---------------------|
|--------------------|------14---16--------|
|--------------------|---------------------|
|--------------------|---------------------|


  E5       F#5         Bm
  | |  | |  | |  | |      |   |    |          |
  / /  / /  / /  / /      x   x    x          x

|-0-0--0-0--2-2--2-2-|----2---2----2----------2-|
|-0-0--0-0--2-2--2-2-|----3---3----3----------3-|
|-0-0--0-0--3-3--3-3-|----4---4----4----------4-|
|-2-2--2-2--4-4--4-4-|----4---4----4----------4-|
|-2-2--2-2--4-4--4-4-|--2--------2--------------|
|-0-0--0-0--2-2--2-2-|------2---------------2---|
|
|--------------------|---------------12-13-14---|
|--------------------|----------15--------------|
|--------------------|--------------------------|
|----------16---14---|-16-----------------------|
|-----15-------------|--------------------------|
|--------------------|--------------------------|


  G5                 F#5
   | | | | | | | |    | |   |      |  |
   / / / / / / / /    / /   /      /  /

|--3-3-3-3-3-3-3-3-|--2-2---2------2--2----||
|--3-3-3-3-3-3-3-3-|--2-2---2------2--2----||
|--0-0-0-0-0-0-0-0-|--3-3---3------3--3----||
|--0-0-0-0-0-0-0-0-|--4-4---4------4--4----||
|--2-2-2-2-2-2-2-2-|--4-4---4------4--4----||
|--3-3-3-3-3-3-3-3-|--2-2---2------2--2----||
|
|------------------|-----------------12----||
|-15---------------|-14---(14)-14----14----||
|-12---------------|-11---(11)----11-15----||
|------------------|-----------------16----||
|------------------|-----------------------||
|------------------|-----------------------||


  Bm
  Gtrs I, II
|----2-----2----2-------2-|----2-----2----2-------2-||
|----3-----3----3-------3-|----3-----3----3-------3-||
|----4-----4----4-------4-|----4-----4----4-------4-||
|----4-----4----4-------4-|----4-----4----4-------4-||
|-2-----------2-----------|-2-----------2-----------||
|-------2-------------2---|-------2-------------2---||
|
| Gtr IV
|-------------------------|-------------------------||
|---15----14--------------|-------------------------||
|------------16---14------|---14----13--------------||
|------16------------16---|------16----12---14-16---||
|-------------------------|-------------------------||
|-------------------------|-------------------------||


 Mandolin Solo
  BmVII
  Gtr I
   |  |     |           |     |       |     |    |   |
   /  x     x           x     x       x     x    x   x

  Gtr III
                                   TP    TP
|-------------------------------|----------------------|
|-15-14-12-14-15-15-15-14-12-14-|-15-------------------|
|-------------------------------|-------11-------------|
|-------------------------------|----------------------|
|-------------------------------|----------------------|
|-------------------------------|----------------------|
|
| Gtr II
|-----2-----2-----------2-----2-|-----2-----2----2---2-|
|-----3-----3-----------3-----3-|-----3-----3----3---3-|
|-----4-----4-----------4-----4-|-----4-----4----4---4-|
|-----4-----4-----------4-----4-|-----4-----4----4---4-|
|--2-----------2----------------|--2-----------2-------|
|--------2-----------------2----|--------2---------2---|
|
| Gtr IV
|-------------------------------|----14----12-10-------|
|-------------------------------|----15----14-12-------|
|-------------------------------|----------------------|
|-------------------------------|----------------------|
|-------------------------------|----------------------|
|-------------------------------|----------------------|


                          F#
      |     |    |    |    | |    |    |   |
      x     x    x    x    / x    x    x   x

               TP   TP     TP     TP TP
|-----------------------|---------------------|
|-15-15-15-15-17---14---|-----------14--------|
|-----------------------|-11-----15-----------|
|-----------------------|---------------------|
|-----------------------|---------------------|
|-----------------------|---------------------|
|
|-----2-----2----2----2-|----2----2----2---2--|
|-----3-----3----3----3-|----2----2----2---2--|
|-----4-----4----4----4-|----3----3----3---3--|
|-----4-----4----4----4-|----4----4----4---4--|
|--2-----------2--------|------4---------4----|
|--------2----------2---|--2---------2--------|
|
|-----------------------|---------------------|
|-----------------------|---------------------|
|-----------------------|---------------------|
|-----------------------|---------------------|
|-----------------------|---------------------|
|-----------------------|---------------------|


  Bm                             Em E5   GIIG5
      |     |           |    |    | || |  |  |  | |
      x     x           x    x    / // /  /  /  / /

                                  TP   TP TP TP TP
|------------------------------|-------------------|
|-15-14-12-14-15-15-15-14-12---|-12---14-15-14-12--|
|------------------------------|-------------------|
|------------------------------|-------------------|
|------------------------------|-------------------|
|------------------------------|-------------------|
|
|-----2-----2-----------2------|-^0------^3--------|
|-----3-----3-----------3------|-^0------^3--------|
|-----4-----4-----------4------|-^0------^0--------|
|-----4-----4-----------4------|-^2------^0--------|
|--2-----------2---------------|-^2------^2--------|
|--------2-----------------2-1-|-^0------^3--------|
|
|------------------------------|--7------10--------|
|------------------------------|--8------12--------|
|------------------------------|--9------12--------|
|------------------------------|-------------------|
|------------------------------|-------------------|
|------------------------------|-------------------|


  Bm                     BmVII
     |    |    |     |    | |        |    |   |
     x    x    x     x    / x        x    x   o

   TP   TP   TP
|----------------------|------------------------||
|-14-------------15-14-|-12---12-12----12-------||
|------15---11---------|------------11----------||
|----------------------|------------------------||
|----------------------|------------------------||
|----------------------|------------------------||
|
|----2----2----2-----2-|----2--------2----2---2-||
|----2----2----2-----2-|----3--------3----3---3-||
|----3----3----3-----3-|----4--------4----4---4-||
|----4----4----4-----4-|----4--------4----4---4-||
|-------4---------4----|--2-------------2-------||
|--2---------2---------|----------2---------2---||
|
|--9-------------------|------------------------||
|-11-------------------|------------------------||
|-11-------------------|------------------------||
|----------------------|------------------------||
|----------------------|------------------------||
|----------------------|------------------------||


 Guitar Solo
  BmVII
  Gtr II
  | |||||| || |||||||  ||  | || || |  | || || || |
  / ////// // ///////  //  / // // /  / // // // /

  Gtr I
|--------------------|-----------------------------|
|--------------------|-----------------------------|
|--------------------|-----------------------------|
|--------------------|-----------------------------|
|-2------5--5--------|---4h5--4--5--5s7--5--4--5---|
|--------------------|-----------------------------|


  F#
  | |||||| || |||||||  ||| || || || || || || |
  / ////// // ///////  /// // // // // // // /

  ~
|--------------------|------------------------|
|--------------------|------------------------|
|--------------------|------------------------|
|--------------------|------------------------|
|-4------------------|---4--4--2--4--5--4-----|
|--------6--2--------|---------------------6--|


  BmVII                Em        G
  | |||||| || |||||||   | |||||||  | |||||||
  / ////// // ///////   / ///////  / ///////

                        ~~~~~~~~~~~~~
|--------------------|-^7--------^-7--------|
|--------------------|-^8--------^-8--------|
|--------------------|-^9--------^-7--------|
|--------------------|-^9--------^-9--------|
|-2---------2--------|-^7--------^10--------|
|--------2-----------|----------------------|


  F#                            BmVII
  | |||| ||||     |||   | || |  | |||||||  |    |
  / //// ////     ///   / // /  / ///////  /    x

  ~~~~~~~~~~~~~~~~
|-----------------------------|----------^-7----x-||
|-----------------------------|----------^-7----x-||
|-----------------------------|----------^-7----x-||
|-----------------------------|----------^-9----x-||
|-4---------------------------|----------^-9----x-||
|------6----2b2.5----9h10--9--|-7--------^(7)---x-||


 Chorus
  F#                       Bm
  Gtr I
     |    |    |       |      |    |    |       |
     x    x    x       x      x    x    x       x

  Gtr II
|----2----2----2-------2-|----2----2----2-------2-|
|----2----2----2-------2-|----3----3----3-------3-|
|----3----3----3-------3-|----4----4----4-------4-|
|----4----4----4-------4-|----4----4----4-------4-|
|------4------------4----|-2---------2------------|
|-2---------2------------|------2------------2----|
|
| Gtr IV
|---12---12---12-12---12-|---10---10---10-10---10-|
|---14---14---14-14---14-|---12---12---12-12---12-|
|---15---15---15-15---15-|---11---11---11-11---11-|
|------------------------|------------------------|
|------------------------|------------------------|
|------------------------|------------------------|


  F#                          Bm
     |       |    |       |      |       |    |    |
     x       x    x       x      x       x    x    x

|----2-------2----2-------2-|----2-------2----2----2--|
|----2-------2----2-------2-|----3-------3----3----3--|
|----3-------3----3-------3-|----4-------4----4----4--|
|----4-------4----4-------4-|----4-------4----4----4--|
|---------4------------4----|-2------------2----------|
|-2------------2------------|---------2---------2-----|
|
|---12-12---12---12-12---12-|---10-10---10---10---10--|
|---14-14---14---14-14---14-|---12-12---12---12---12--|
|---15-15---15---15-15---15-|---11-11---11---11---11--|
|---------------------------|-------------------------|
|---------------------------|-------------------------|
|---------------------------|-------------------------|


  F#                          Bm                  E5      G5
     |       |    |       |      |   |    |   |   | | | |  | | | |
     x       x    x       x      x   x    x   x   / / / /  / / / /

|----2-------2----2-------2-|----2---2----2---2-|-0-0-0-0--3-3-3-3-|
|----2-------2----2-------2-|----3---3----3---3-|-0-0-0-0--3-3-3-3-|
|----3-------3----3-------3-|----4---4----4---4-|-0-0-0-0--0-0-0-0-|
|----4-------4----4-------4-|----4---4----4---4-|-2-2-2-2--0-0-0-0-|
|---------4------------4----|--2--------2-------|-2-2-2-2--2-2-2-2-|
|-2------------2------------|------2--------2---|-0-0-0-0--3-3-3-3-|
|
|                              <        <
|---12-12---12---12-12---12-|-10-------10-------|-7-------10-------|
|---14-14---14---14-14---14-|-12-------12-------|-8-------12-------|
|---15-15---15---15-15---15-|-11-------11-------|-9-------12-------|
|---------------------------|-------------------|------------------|
|---------------------------|-------------------|------------------|
|---------------------------|-------------------|------------------|


  F#5
   |  |  |  |  |  |  |  |     |  |  | |  |
   /  /  /  /  /  /  /  /     /  /  / /  /

|--2--2--2--2--2--2--2--2-|---2--2--2-2--2----||
|--2--2--2--2--2--2--2--2-|---2--2--2-2--2----||
|--3--3--3--3--3--3--3--3-|---3--3--3-3--3----||
|--4--4--4--4--4--4--4--4-|---4--4--4-4--4----||
|--4--4--4--4--4--4--4--4-|---4--4--4-4--4----||
|--2--2--2--2--2--2--2--2-|---2--2--2-2--2----||
|
|-14----------------------|-(14)--------14----||
|----17-15-14-------------|-------------17----||
|-------------16-15----13-|--14----15---18----||
|-------------------16----|-------------20----||
|-------------------------|-------------------||
|-------------------------|-------------------||


 Outro
  Bm
  Gtr III
|-------------------------------|
|-15-14-12-14-15-15-15-14-12-14-|
|-------------------------------|
|-------------------------------|
|-------------------------------|
|-------------------------------|
|
| Gtr II
|-----2-----2-----------2-----2-|
|-----3-----3-----------3-----3-|
|-----4-----4-----------4-----4-|
|-----4-----4-----------4-----4-|
|--2-----------2----------------|
|--------2-----------------2----|
|
| Gtr IV
|  <
|-10----------------------------|
|-12----------------------------|
|-11----------------------------|
|-------------------------------|
|-------------------------------|
|-------------------------------|


   TP   TP
|-------------------|---------------------------|
|-15----------------|-15-14-12-14--15--14-12----|
|------11-----------|------------------------11-|
|-------------------|---------------------------|
|-------------------|---------------------------|
|-------------------|---------------------------|
|
|----2----2---2---2-|-----2-----2-------2-----2-|
|----3----3---3---3-|-----3-----3-------3-----3-|
|----4----4---4---4-|-----4-----4-------4-----4-|
|----4----4---4---4-|-----4-----4-------4-----4-|
|--2--------2-------|--2------------2-----------|
|-------2-------2---|--------2-------------2----|
|
|-14----------------|---------------------------|
|-15----------------|--------------12-----------|
|-------------------|-11----------(11)----------|
|-------------------|-12----------(12)----------|
|-------------------|---------------------------|
|-------------------|---------------------------|


 2/4        4/4
|----------|-----------|--------*|
|-12-------|-12--------|--------*|
|----------|-----------|--------*|
|----------|-----------|--------*|
|----------|-----------|--------*|
|----------|-----------|--------*|
|
|----2---2-|--2--------|-(2)----*|
|----3---3-|--3--------|-(3)----*|
|----4---4-|--4--------|-(4)----*|
|----4---4-|--4--------|-(4)----*|
|--2-------|--2--------|-(2)----*|
|------2---|-----------|--------*|



thats all :)

Thanks
comments
We did not receive enough feedback on this tab! Please rate:
print report bad tab
1 2 3 4 5
1 comment total.
0 reply
jjrawson wrote on August 13 2005, 12:00 am

You've got problems

I want to post or [tab]
guest
You may want to rate the tab now too:
select rating
Please do not post tabs as comments. Select "correction" instead!