Oops, an error
Loading. Please wait.

Nimrod Tab

ver2
ver2

Album

More versions @911Tabs.com
30,183 views 63 this week
12 commentsread comments
1 2 3 4 5
accurate
x 29
add to favorites launch autoscroll
font size
0
reset
Autoscroll
+/-
esc
set tempo
stop
Contributor
WARNING: You are trying to view
                                    content from Ultimate-Guitar.com
                                    in an unauthorized application,
                                    which is prohibited.

                                    Please use an official Ultimate
                                    Guitar Tabs application for iPhone,
                                    iPad or Android to access legitimate
                                    chords, guitar, bass, and drum tabs
                                    from Ultimate-Guitar.com database.

                                    Type "ultimate guitar tabs" in Apple
                                    App Store's or Android Market's
                                    search to find the application.
Green Day Nimrod album tab
Tabbed by Liam
Email: guitar_rocker_47@hotmail.com
Most of the tuning is standard unless otherwise stated

Here is another Green Day album tab from me Liam, more to come your way.

 1. Nice Guys Finish Last 
 2. Hitchin' A Ride    
 3. The Grouch 
 4. Redundant 
 5. Scattered 
 6. All The Time 
 7. Worry Rock 
 8. Platypus (I Hate You 
 9. Uptight
10. Last Ride In
11. Jinx
12. Haushinka
13. Walking Alone
14. Reject
15. Take Back
16. King For A Day
17. Good Riddance (Time Of Your Life)
18. Prosthetic Head


--------------------------------------------------------------------------------------
Green Day Nice guys finish last
--------------------------------------------------------------------------------------

Intro
e|--------------|--------------|--------------|--------------|----------------|
B|--------------|--------------|--------------|--------------|----------------|
G|----9-9-9-9-9-|--------------|----9-9-9-9-9-|--------------|----9-9-9-9-9---|
D|-7--9-9-9-9-9-|-7--9-9-9-9-9-|-7--9-9-9-9-9-|-7--9-9-9-9-9-|-7--9-9-9-9-9---|
A|-7--7-7-7-7-7-|-7--9-9-9-9-9-|-7--7-7-7-7-7-|-7--9-9-9-9-9-|-7--7-7-7-7-7---|
E|-5------------|-5--7-7-7-7-7-|-5------------|-5--7-7-7-7-7-|-5--------------|

e|--------------|--------------|--------------|-------------------------------|
B|--------------|--------------|--------------|-------------------------------|
G|--------------|----9-9-9-9-9-|--------------|---------------9---------------|
D|-7--9-9-9-9-9-|-7--9-9-9-9-9-|-7--9-9-9-9-9-|-7---2-----7---9---------------|
A|-7--9-9-9-9-9-|-7--7-7-7-7-7-|-7--9-9-9-9-9-|-7---2-----7---7---------------|
E|-5--7-7-7-7-7-|-5------------|-5--7-7-7-7-7-|-5---0-----5-------------------|

Verse part 1 (no guitar - just bass)

Verse part 2
e|-------|---------------------------------|----------------------------------|
B|-------|---------------------------------|----------------------------------|
G|----9--|-9-9-9-9-9-9-9-9-9-9-9-9-9-9-9-9-|-9-9-9-9-9-9-9-9-9-9-9-9-9-9-9-9--|
D|-7--9--|-9-9-9-9-9-9-9-9-9-9-9-9-9-9-9-9-|-9-9-9-9-9-9-9-9-9-9-9-9-9-9-9-9--|
A|-7--7--|-7-7-7-7-7-7-7-7-7-7-7-7-7-7-7-7-|-7-7-7-7-7-7-7-7-7-7-7-7-7-7-7-7--|
E|-5-----|---------------------------------|----------------------------------|
PM         *****************************************************************

e|-------------|---------------------------------|----------------------------|
B|-------------|---------------------------------|----------------------------|
G|-9-9-9-9-9-9-|---------------------------------|-9-9-9-9-9-9-9-9-9-9--------|
D|-9-9-9-9-9-9-|-9-9-9-9-9-9-9-9-9-9-9-9-9-9-9-9-|-9-9-9-9-9-9-9-9-9-9--------|
A|-7-7-7-7-7-7-|-9-9-9-9-9-9-9-9-9-9-9-9-9-9-9-9-|-7-7-7-7-7-7-7-7-7-7--------|
E|-------------|-7-7-7-7-7-7-7-7-7-7-7-7-7-7-7-7-|----------------------------|
PM *********************************************

Pre Chorus
e|-----------------|---------------------|-----------------|---------------------|
B|-----------------|---------------------|-----------------|---------------------|
G|-----------------|-9-9-9-9-9-9-9-9-9-9-|-----------------|-9-9-9-9-9-9-9-9-9-9-|
D|-7-7-7-7-7-7-7-7-|-9-9-9-9-9-9-9-9-9-9-|-7-7-7-7-7-7-7-7-|-9-9-9-9-9-9-9-9-9-9-|
A|-7-7-7-7-7-7-7-7-|-7-7-7-7-7-7-7-7-7-7-|-7-7-7-7-7-7-7-7-|-7-7-7-7-7-7-7-7-7-7-|
E|-5-5-5-5-5-5-5-5-|---------------------|-5-5-5-5-5-5-5-5-|---------------------|

e|-----------------|---------------------|-----------------|---------------------|
B|-----------------|---------------------|-----------------|---------------------|
G|-----------------|-9-9-9-9-9-9-9-9-9-9-|-----------------|-9-9-9-9-9-9-9-9-9-9-|
D|-7-7-7-7-7-7-7-7-|-9-9-9-9-9-9-9-9-9-9-|-7-7-7-7-7-7-7-7-|-9-9-9-9-9-9-9-9-9-9-|
A|-7-7-7-7-7-7-7-7-|-7-7-7-7-7-7-7-7-7-7-|-7-7-7-7-7-7-7-7-|-7-7-7-7-7-7-7-7-7-7-|
E|-5-5-5-5-5-5-5-5-|---------------------|-5-5-5-5-5-5-5-5-|---------------------|

Chorus
e|--------------------------|--------------------------|--------------------------|
B|--------------------------|--------------------------|--------------------------|
G|----------2-2-2-2-2-2-2-2-|----------2-2-2-2-2-2-2-2-|----------2-2-2-2-2-2-2-2-|
D|-2-2-2-2--2-2-2-2-2-2-2-2-|-2-2-2-2--2-2-2-2-2-2-2-2-|-2-2-2-2--2-2-2-2-2-2-2-2-|
A|-2-2-2-2--0-0-0-0-0-0-0-0-|-2-2-2-2--0-0-0-0-0-0-0-0-|-2-2-2-2--0-0-0-0-0-0-0-0-|
E|-0-0-0-0------------------|-0-0-0-0------------------|-0-0-0-0------------------|

e|----------------------------------------------------------------------------|
B|----------------------------------------------------------------------------|
G|-4-4-4-4-4-4-4-4-4-4-4-4-4-4-4-4--------------------------------------------|
D|-4-4-4-4-4-4-4-4-4-4-4-4-4-4-4-4--------------------------------------------|
A|-2-2-2-2-2-2-2-2-2-2-2-2-2-2-2-2--------------------------------------------|
E|----------------------------------------------------------------------------|

Bridge
e|--------------|--------------|--------------|--------------|----------------|
B|--------------|--------------|--------------|--------------|----------------|
G|----9-9-9-9-9-|--------------|----9-9-9-9-9-|--------------|----9-9-9-9-9---|
D|-7--9-9-9-9-9-|-7--9-9-9-9-9-|-7--9-9-9-9-9-|-7--9-9-9-9-9-|-7--9-9-9-9-9---|
A|-7--7-7-7-7-7-|-7--9-9-9-9-9-|-7--7-7-7-7-7-|-7--9-9-9-9-9-|-7--7-7-7-7-7---|
E|-5------------|-5--7-7-7-7-7-|-5------------|-5--7-7-7-7-7-|-5--------------|

e|--------------|--------------|---------------------------------------------|
B|--------------|--------------|---------------------------------------------|
G|--------------|----9-9-9-9-9-|---------------------------------------------|
D|-7--9-9-9-9-9-|-7--9-9-9-9-9-|-7-7-7-7-7--6--4-4-4-4-4--7--9-9-9-9-9-9-9-9-|
A|-7--9-9-9-9-9-|-7--7-7-7-7-7-|-7-7-7-7-7--6--4-4-4-4-4--7--9-9-9-9-9-9-9-9-|
E|-5--7-7-7-7-7-|-5------------|-5-5-5-5-5--4--2-2-2-2-2--5--7-7-7-7-7-7-7-7-|

e|----------------------------------------------------------------------------|
B|----------------------------------------------------------------------------|
G|----------------------------------------------------------------------------|
D|-9-9-9-9-9-9-9--------------------------------------------------------------|
A|-9-9-9-9-9-9-9--------------------------------------------------------------|
E|-7-7-7-7-7-7-7--------------------------------------------------------------|

Outro
e|----------------------------------------------------------------------------|
B|----------------------------------------------------------------------------|
G|-----------9----------------------------------------------------------------|
D|-7--2---7--9----------------------------------------------------------------|
A|-7--2---7--7----------------------------------------------------------------|
E|-5--0---5-------------------------------------------------------------------|

Order

Intro
Verse part 1 (no guitar - just bass)
Verse part 2
Pre Chorus
Chorus 
Verse part 2 x2
Pre Chorus
Chorus x2
Bridge
Chorus x2
Outro

Lyrics

(Verse part 1)
Nice guys finish last.
You're running out of gas.
Your sympathy will get you left behind.

(Verse part 2)
Sometimes you're at your best, when you look the worst.
Do you feel washed up, like piss going down the drain?

(Pre-Chorus)
Pressure cooker pick my brain and tell me I'm insane.
I'm so fucking happy I could cry.
Every joke can have its truth and now the jokes on you.
I never know you were such a funny guy.

(Chorus)
Oh nice guys finish last, when you are the outcast.
Don't pat yourself on the back; you might break your spine.

(Verse part 2)
Living on command.
You're shaking lots of hands
Kissing up and bleeding all your trust 
Taking what you need
Bit the hand that feeds
You'll lose your memory
And you go no shame

(Pre-Chorus)
Pressure cooker pick my brain and tell me I'm insane.
I'm so fucking happy I could cry.
Every joke can have its truth and now the joke's on you.
I never know you were such a funny guy.

(Chorus)
Oh nice guys finish last, when you are the outcast.
Don't pat yourself on the back; you might break your spine.
Oh nice guys finish last, when you are the outcast.
Don't pat yourself on the back; you might break your spine.


Interlude

(Chorus)
Oh nice guys finish last, when you are the outcast.
Don't pat yourself on the back; you might break your spine.
Oh nice guys finish last, when you are the outcast.
Don't pat yourself on the back; you might break your spine.

--------------------------------------------------------------------------------------
Green Day Hitchin' a Ride
--------------------------------------------------------------------------------------

In the Main Riff the first bar sounds the same as the 2nd bar even though it is a
different chord you play, this is the way Billie Joe plays it because it easier to
reach. And it sounds exactly the same. Give it a try if you're confused leave a comment

Violin Intro (transcribed For Guitar)
e|-----------------------------------------------------------|
B|------3/4--6b~~-----7--6—4--3b4----------------------------|
G|-4/5---------------------------5~~-------------------------|
D|-----------------------------------------------------------|
A|-----------------------------------------------------------|
E|-----------------------------------------------------------|

Main Riff 
E|------------------------|------------------------|
B|------------------------|------------------------|
G|------------------------|-4-4--2-2---------------|
D|-9-9--7-7--6-6--5-5-5-5-|-4-4--2-2--6-6--5-5-5-5-|
A|-9-9--7-7--6-6--5-5-5-5-|-2-2--0-0--6-6--5-5-5-5-|
E|-7-7--5-5--4-4--3-3-3-3-|-----------4-4--3-3-3-3-|
PM ***********************************************

Pre Chorus (a second guitar plays this when Guitar 1 is finishes the Main Riff)
E|------------------------------|
B|------------------------------|
G|------------------------------|
D|-2-2-2-2--4-4-4-4-------------|
A|-2-2-2-2--4-4-4-4-------------|
E|-0-0-0-0--2-2-2-2-------------|

Chorus
E|------------------------|------------------------|------------------------|
B|------------------------|------------------------|------------------------|
G|------------------------|------------------------|------------------------|
D|-9-9--7-7--6-6--5-5-5-5-|-9-9--7-7--6-6--5-5-5-5-|-9-9--7-7--6-6--5-5-5-5-|
A|-9-9--7-7--6-6--5-5-5-5-|-9-9--7-7--6-6--5-5-5-5-|-9-9--7-7--6-6--5-5-5-5-|
E|-7-7--5-5--4-4--3-3-3-3-|-7-7--5-5--4-4--3-3-3-3-|-7-7--5-5--4-4--3-3-3-3-|

E|-----------------------------|
B|-----------------------------|
G|----------------(drum fill)--|
D|-9-9--7-7--6-6---------------|
A|-9-9--7-7--6-6---------------|
E|-7-7--5-5--4-4---------------|

Chorus 2
E|------------------------|------------------------|------------------------|
B|------------------------|------------------------|------------------------|
G|------------------------|------------------------|------------------------|
D|-9-9--7-7--6-6--5-5-5-5-|-9-9--7-7--6-6--5-5-5-5-|-9-9--7-7--6-6--5-5-5-5-|
A|-9-9--7-7--6-6--5-5-5-5-|-9-9--7-7--6-6--5-5-5-5-|-9-9--7-7--6-6--5-5-5-5-|
E|-7-7--5-5--4-4--3-3-3-3-|-7-7--5-5--4-4--3-3-3-3-|-7-7--5-5--4-4--3-3-3-3-|

E|------------------------------------|------------------|------------------------|
B|------------------------------------|------------------|------------------------|
G|------------------------------------|------------------|------------------------|
D|-9-9-9-9--7-7-7-7--6-6-6-6--5-5-5-5-|-2-2-2-2--4-4-4-4-|-9-9--7-7--6-6--5-5-5-5-|
A|-9-9-9-9--7-7-7-7--6-6-6-6--5-5-5-5-|-2-2-2-2--4-4-4-4-|-9-9--7-7--6-6--5-5-5-5-|
E|-7-7-7-7--5-5-5-5--4-4-4-4--3-3-3-3-|-0-0-0-0--2-2-2-2-|-7-7--5-5--4-4--3-3-3-3-|

E|------------------------------|
B|------------------------------|
G|------------------------------|
D|-2-2-2-2--4-4-4-4-------------|
A|-2-2-2-2--4-4-4-4-------------|
E|-0-0-0-0--2-2-2-2-------------|

Pre Solo
E|------------------------|------------------------|------------------------|
B|------------------------|------------------------|------------------------|
G|------------------------|-4-4--2-2---------------|------------------------|
D|-9-9--7-7--6-6--5-5-5-5-|-4-4--2-2--6-6--5-5-5-5-|-9-9--7-7--6-6--5-5-5-5-|
A|-9-9--7-7--6-6--5-5-5-5-|-2-2--0-0--6-6--5-5-5-5-|-9-9--7-7--6-6--5-5-5-5-|
E|-7-7--5-5--4-4--3-3-3-3-|-----------4-4--3-3-3-3-|-7-7--5-5--4-4--3-3-3-3-|

E|------------------------|------------------------|
B|------------------------|------------------------|
G|------------------------|-4-4--2-2---------------|
D|-9-9--7-7--6-6--5-5-5-5-|-4-4--2-2--6-6--5-5-5-5-|
A|-9-9--7-7--6-6--5-5-5-5-|-2-2--0-0--6-6--5-5-5-5-|
E|-7-7--5-5--4-4--3-3-3-3-|-----------4-4--3-3-3-3-|

Solo (there are two guitar tracks in the solo (Billie Plays Guitar 1)

Guitar 2
E|-------------------------|-------------------------|-------------------------|
B|-------------------------|-------------------------|-------------------------|
G|-------7-7---------------|-------7-7---------------|-------7-7---------------|
D|--9-9--7-7--5-5--4-4-4---|--9-9--7-7--5-5--4-4-4---|--9-9--7-7--5-5--4-4-4---|
A|--9-9--5-5--5-5--4-4-4---|--9-9--5-5--5-5--4-4-4---|--9-9--5-5--5-5--4-4-4---|
E|--7-7-------3-3--2-2-2---|--7-7-------3-3--2-2-2---|--7-7-------3-3--2-2-2---|
   
Guitar 1                                                 
E|-------------------------|-------------------------|-------------------------|
B|-12-12-12-12-12-12-12-12-|-15-15-15-15-15-15-15-15-|-12-12-12-12-12-12-12-12-|
G|--x--x--x--x--x--x--x--x-|--x--x--x--x--x--x--x--x-|--x--x--x--x--x--x--x--x-|
D|--9--9--9--9--9--9--9--9-|-12-12-12-12-12-12-12-12-|--9--9--9--9--9--9--9--9-|
A|-------------------------|-------------------------|-------------------------|
E|-------------------------|-------------------------|-------------------------|

Guitar 2
E|-------------------------|-------------------------|-------------------------|
B|-------------------------|-------------------------|-------------------------|
G|-------7-7---------------|-------7-7---------------|-------7-7---------------|
D|--9-9--7-7--5-5--4-4-4---|--9-9--7-7--5-5--4-4-4---|--9-9--7-7--5-5--4-4-4---|
A|--9-9--5-5--5-5--4-4-4---|--9-9--5-5--5-5--4-4-4---|--9-9--5-5--5-5--4-4-4---|
E|--7-7-------3-3--2-2-2---|--7-7-------3-3--2-2-2---|--7-7-------3-3--2-2-2---|

Guitar 1
E|-------------------------|-------------------------|-------------------------|
B|-17-17-17-17-15-15-15-15-|-12-12-12-12-12-12-12-12-|-15-15-15-15-15-15-15-15-|
G|--x--x--x--x--x--x--x--x-|--x--x--x--x--x--x--x--x-|--x--x--x--x--x--x--x--x-|
D|-14-14-14-14-12-12-12-12-|--9--9--9--9--9--9--9--9-|-12-12-12-12-12-12-12-12-|
A|-------------------------|-------------------------|-------------------------|
E|-------------------------|-------------------------|-------------------------|

Guitar 2
E|-------------------------|-------------------------|-------------------------|
B|-------------------------|-------------------------|-------------------------|
G|-------7-7---------------|-------7-7---------------|-------7-7---------------|
D|--9-9--7-7--5-5--4-4-4---|--9-9--7-7--5-5--4-4-4---|--9-9--7-7--5-5--4-4-4---|
A|--9-9--5-5--5-5--4-4-4---|--9-9--5-5--5-5--4-4-4---|--9-9--5-5--5-5--4-4-4---|
E|--7-7-------3-3--2-2-2---|--7-7-------3-3--2-2-2---|--7-7-------3-3--2-2-2---|

Guitar 1
E|-------------------------|-------------------------|--------------------------|
B|-17-17-17-17-17-17-17-17-|-17-17-17-17-17-17-17-17-|-17-15-12-15--17-15-12-15-|
G|--x--x--x--x--x--x--x--x-|--x--x--x--x--x--x--x--x-|--x--x--x--x---x--x--x--x-|
D|-14-14-14-14-14-14-14-14-|-14-14-14-14-14-14-14-14-|-14-12--9-12--14-12--9-12-|
A|-------------------------|-------------------------|--------------------------|
E|-------------------------|-------------------------|--------------------------|
Bend upwards!

Guitar 2
E|--------------------------|--------------------------|--------------------------|
B|--------------------------|--------------------------|--------------------------|
G|-------7-7----------------|-------7-7----------------|-------7-7----------------|
D|--9-9--7-7--5-5--4-4-4----|--9-9--7-7--5-5--4-4-4----|--9-9--7-7--5-5--4-4-4----|
A|--9-9--5-5--5-5--4-4-4----|--9-9--5-5--5-5--4-4-4----|--9-9--5-5--5-5--4-4-4----|
E|--7-7-------3-3--2-2-2----|--7-7-------3-3--2-2-2----|--7-7-------3-3--2-2-2----|

Guitar 1
E|--------------------------|--------------------------|
B|-17-15-12-15--17-15-12-10-|-12-15-17-15--12-15-17-15-|
G|--x--x--x--x---x--x--x--x-|--x--x--x--x---x--x--x--x-|
D|-14-12--9-12--14-12--9--7-|--9-12-14-12---9-12-14-12-|
A|--------------------------|--------------------------|
E|--------------------------|--------------------------|

Guitar 2
E|------------------------------------------------|
B|------------------------------------------------|
G|------------7----7------------------------------|
D|--9----9----7----7----5----5-----4----4----4----|
A|--9----9----5----5----5----5-----4----4----4----|
E|--7----7--------------3----3-----2----2----2----|

Guitar 1
E|-------------------------|-------------------------|
B|-17-17-17-17-17-17-17-17-|-17-17-17-17-17-17-17-17-|
G|--x--x--x--x--x--x--x--x-|--x--x--x--x--x--x--x--x-|
D|-14-14-14-14-14-14-14-14-|-14-14-14-14-14-14-14-14-|
A|-------------------------|-------------------------|
E|-------------------------|-------------------------|
Bend upwards!

Post Solo
E|------------------|-------------------------|------------------|
B|------------------|-------------------------|------------------|
G|------------------|-------------------------|------------------|
D|-2-2-2-2--4-4-4-4-|--9-9--7-7--6-6--5-5-5-5-|-2-2-2-2--4-4-4-4-|
A|-2-2-2-2--4-4-4-4-|--7-7--5-5--4-4--3-3-3-3-|-2-2-2-2--4-4-4-4-|
E|-0-0-0-0--2-2-2-2-|--7-7--5-5--4-4--3-3-3-3-|-0-0-0-0--2-2-2-2-|

Outro

E|----------------------|----------------------|----------------------|
B|----------------------|----------------------|----------------------|
G|------7-7-------------|------7-7-------------|------7-7-------------|
D|-9-9--7-7--5-5--4-4-4-|-9-9--7-7--5-5--4-4-4-|-9-9--7-7--5-5--4-4-4-|
A|-9-9--5-5--5-5--4-4-4-|-9-9--5-5--5-5--4-4-4-|-9-9--5-5--5-5--4-4-4-|
E|-7-7-------3-3--2-2-2-|-7-7-------3-3--2-2-2-|-7-7-------3-3--2-2-2-|

E|----------------------|----------------------|----------------------|
B|----------------------|----------------------|----------------------|
G|------7-7-------------|------7-7-------------|------7-7-------------|
D|-9-9--7-7--5-5--4-4-4-|-9-9--7-7--5-5--4-4-4-|-9-9--7-7--5-5--4-4-4-|
A|-9-9--5-5--5-5--4-4-4-|-9-9--5-5--5-5--4-4-4-|-9-9--5-5--5-5--4-4-4-|
E|-7-7-------3-3--2-2-2-|-7-7-------3-3--2-2-2-|-7-7-------3-3--2-2-2-|

E|----------------------|-------------------------|-------------------------|
B|----------------------|-17-17-17-17-17-17-17-17-|-17-17-17-17-17-17-17-17-|
G|------7-7-------------|--x--x--x--x--x--x--x--x-|--x--x--x--x--x--x--x--x-|
D|-9-9--7-7--5-5--4-4-4-|-14-14-14-14-14-14-14-14-|-14-14-14-14-14-14-14-14-|
A|-9-9--5-5--5-5--4-4-4-|-------------------------|-------------------------|
E|-7-7-------3-3--2-2-2-|-------------------------|-------------------------|
		      Bend upwards!

Order

Violin Intro
Main Riff x 5
Pre chorus
Chorus
Main Riff x 4
Pre Chorus
Chorus 2
Pre Solo
Solo
Post Solo
Outro

(Verse) (With main riff)
Hey mister, where you headed?
Are you in a hurry?
I need a lift to happy hour.
Say oh no.
Do you brake for distilled spirits?
I need a break as well.
The well that inebriates the guilt.
1, 2...

(Pre Chorus)
1, 2, 3, 4.

	
(Verse) (With main riff)
Cold turkey's getting stale,
Tonight I'm eating crow.
Fermented salmonella poison oak no.
There's a drought at the fountain of youth 
And I'm dehydrated
My tongue is swelling up, 
A say 1, 2...

(Pre Chorus)
1, 2, 3, 4.

(Chorus)

(Chorus 2)
Troubled times, you know I cannot lie.
I'm off the wagon and I'm hitchin' a ride.

(Pre-Solo)
There's a drought at the fountain of youth 
And I'm dehydrated
My tongue is swelling up, 
A say, shite!

Solo

(Post solo)
Troubled times, you know I cannot lie.
I'm off the wagon and I'm hitchin' a ride.


(Outro)
(Don't know where im going) Hitchin' a ride
(Don't know where im going) Hitchin' a ride
(Don't know where im going) Hitchin' a ride
(Don't know where im going) Hitchin' a ride
(Don't know where im going) Hitchin' a ride
(Don't know where im going) Hitchin' a ride
(Don't know where im going) Hitchin' a ride

--------------------------------------------------------------------------------------
Green Day The Grouch
--------------------------------------------------------------------------------------

Verse
E|--------------------------------------------------------------------|
B|--------------------------------------------------------------------|
G|------------------------7-7-----------------------------------------|
D|-7-----2-2-----7--7-----7-7-----7--7-----2-2-----7--7-----2-2-------|
A|-7---X-2-2---X-7--7---X-5-5---X-7--7---X-2-2---X-7--7---X-2-2-------|
E|-5---X-0-0---X-5--5---X-------X-5--5---X-0-0---X-5--5---X-0-0-------|

E|--------------------------------------------------------------------|
B|--------------------------------------------------------------------|
G|------------------------7-7-----------------------------------------|
D|-7-----2-2-----7--7-----7-7-----7--7-----2-2-----7--7-----7-7-------|
A|-7---X-2-2---X-7--7---X-5-5---X-7--7---X-2-2---X-7--7---X-7-7-------|
E|-5---X-0-0---X-5--5---X-------X-5--5---X-0-0---X-5--5---X-5-5-------|

Chorus
E|--------------------------------------------------------------------|
B|--------------------------------------------------------------------|
G|-------7-7-------------------------------7-7-7-7----------9-9-9-9---|
D|-4-----7-7-----7-7-----2-2-----4-4-4-4-4-7-7-7-7--7-7-7-7-9-9-9-9---|
A|-4-----5-5-----7-7-----2-2-----4-4-4-4-4-5-5-5-5--7-7-7-7-7-7-7-7---|
E|-2---X-------X-5-5---X-0-0---X-2-2-2-2-2----------5-5-5-5-----------|

Solo
E|--------------------------------------------------------------------|
B|-5---5-5-5---5-5--7-----5-5---5-5--5---5-5-5---5-5--3-----5-5-------|
G|--------------------------------------------------------------------|
D|--------------------------------------------------------------------|
A|--------------------------------------------------------------------|
E|--------------------------------------------------------------------|

E|--------------------------------------------------------------------|
B|-0-2-2-2-2---0-2--2-3-3-3-3---2-/5---7---5-3-0----------------------|
G|--------------------------------------------------2-----------------|
D|--------------------------------------------------------------------|
A|--------------------------------------------------------------------|
E|--------------------------------------------------------------------|

E|-2-----3-3-----2--2-----0-0-----2--2-2-2-2-3-3-3-3--2-2-2-2-5-5-5\--|
B|-2-----3-3-----2--2-----0-0-----2--2-2-2-2-3-3-3-3--2-2-2-2-5-5-5\--|
G|--------------------------------------------------------------------|
D|--------------------------------------------------------------------|
A|--------------------------------------------------------------------|
E|--------------------------------------------------------------------|

                                                       Bend up^
E|-2-----3-3-----2--2-----0-0-----2--2-2-2-2-3-3-3-3-|-5-5-5-5-5-5-5\-|
B|-2-----3-3-----2--2-----0-0-----2--2-2-2-2-3-3-3-3-|-5-5-5-5-5-5-5\-|
G|---------------------------------------------------|----------------|
D|---------------------------------------------------|----------------|
A|---------------------------------------------------|----------------|
E|---------------------------------------------------|----------------|

End
E|-------------------------------------------------------------------------|
B|-------------------------------------------------------------------------|
G|-------------------------------------------------------------------------|
D|-7----2-2---7-7-7-7-7-7---7----2-2---7-7-7-7-7-7--7----2-2---7-7-7-7-7-7-|
A|-7-x--2-2---7-7-7-7-7-7---7-x--2-2---7-7-7-7-7-7--7-x--2-2---7-7-7-7-7-7-|
E|-5-x--0-0---5-5-5-5-5-5---5-x--0-0---5-5-5-5-5-5--5-x--0-0---5-5-5-5-5-5-|

E|-------------------------------------------------------------------------|
B|-------------------------------------------------------------------------|
G|------------7------------------------------------------------------------|
D|-7-7-7-7-7--7------------------------------------------------------------|
A|-7-7-7-7-7--5------------------------------------------------------------|
E|-5-5-5-5-5---------------------------------------------------------------|

Order

Verse  x2
Chorus x2
Verse  x2
Chorus x2
Solo
Verse  x2
Verse  x2
End

Lyrics

(Verse)
I was a young boy that had big plans,
Now I'm just another Shitty old man.
I don't have fun and I hate everything,
The world owes me so fuck you.
Glory days don't mean shit to me,
I drank a six-pack of apathy.
Life's a bitch and so am I,
The world owes me so fuck you.

(Chorus)
Wasted youth and a fistful of ideals,
I had a young and optimistic point of view
Wasted youth and a fistful of ideals,
I had a young and optimistic point of view

(Verse)
I've decomposed yet my guts getting fat,
Oh my god I'm turning out like my dad.
I'm always rude; I got a bad attitude,
The world owes me so fuck you
The wife's a nag, and the kid's fucking up,
I don't have sex 'cause I can't get it up
I'm just a grouch, sitting on the couch,
The world owes me so fuck you

Chorus
Wasted youth and a fistful of ideals,
I had a young and optimistic point of view
Wasted youth and a fistful of ideals,
I had a young and optimistic point of view

(Solo)

(Verse)
I was a young boy that had big plans,
Now I'm just another Shitty old man
I don't have fun and I hate everything,
The world owes me so fuck you
Glory days don't mean shit to me,
I drank a six-pack of apathy
Life's a bitch and so am I,
The world owes me so fuck you

(End)
The world owes me so fuck you.
The world owes me so fuck you.

--------------------------------------------------------------------------------------
Green Day Redundant
--------------------------------------------------------------------------------------
There are two guitar tracks in this song I am going to just tab the rhythm, which is
what Billie Joe plays on the video, and live

Intro
e|----------------------------------------------------------------------------|
B|-----2------------2------------2--------------------------------------------|
G|-------2------------2------------2--------------------------4-4-4-4-4-4-4-4-|
D|-------------------------------------------4-4-4-4-4-4-4-4--4-4-4-4-4-4-4-4-|
A|-------------------------------------------4-4-4-4-4-4-4-4--2-2-2-2-2-2-2-2-|
E|-5--------4h5--4-------3h4--2-------3-3-0--2-2-2-2-2-2-2-2------------------|

e|----------------------------------------------------------------------------|
B|----------------------------------------------------------------------------|
G|-7-7-7-7-7-7-7-7-------------------------9-9--------------------------------|
D|-7-7-7-7-7-7-7-7--7-7-7-7-7-7-7-7-7-7-7--9-9--------------------------------|
A|-5-5-5-5-5-5-5-5--7-7-7-7-7-7-7-7-7-7-7--7-7--------------------------------|
E|------------------5-5-5-5-5-5-5-5-5-5-5-------------------------------------|

Verse
e|--------------------------------------------------------------|-------------|
B|--------------------------------------------------------------|-------------|
G|------------------7-7-7-7-7-7-7-7--------------7--------------|-------------|
D|-7-7-7-7-7-7-7-7--7-7-7-7-7-7-7-7--7-7-7-7-7-7-7--7-7-7-7-7-7-|-7-7-7-7-7-7-|
A|-7-7-7-7-7-7-7-7--5-5-5-5-5-5-5-5--7-7-7-7-7-7-5--7-7-7-7-7-7-|-7-7-7-7-7-7-|
E|-5-5-5-5-5-5-5-5-------------------5-5-5-5-5-5----5-5-5-5-5-5-|-5-5-5-5-5-5-|

e|--------------------------------------------------|--------------------------|
B|--------------------------------------------------|--------------------------|
G|------7-7-7-7-7-7-7-7-----------------------------|------------------7-7-7---|
D|-7-7--7-7-7-7-7-7-7-7--2-2-2-2-2-2-2-2-2-2-2--5-5-|-7-7-7-7-7-7-7-7--7-7-7---|
A|-7-7--5-5-5-5-5-5-5-5--2-2-2-2-2-2-2-2-2-2-2--5-5-|-7-7-7-7-7-7-7-7--5-5-5---|
E|-5-5-------------------0-0-0-0-0-0-0-0-0-0-0--3-3-|-5-5-5-5-5-5-5-5----------|

e|--------------------------------------|--------------------------------------|
B|--------------------------------------|--------------------------------------|
G|-7-7-7-7-7--------------7-------------|------------------7-7-7-7-7-7-7-7-----|
D|-7-7-7-7-7--7-7-7-7-7-7-7-7-7-7-7-7-7-|-7-7-7-7-7-7-7-7--7-7-7-7-7-7-7-7--2--|
A|-5-5-5-5-5--7-7-7-7-7-7-5-7-7-7-7-7-7-|-7-7-7-7-7-7-7-7--5-5-5-5-5-5-5-5--2--|
E|------------5-5-5-5-5-5---5-5-5-5-5-5-|-5-5-5-5-5-5-5-5-------------------0--|

e|----------------------------------------------------------------------------|
B|----------------------------------------------------------------------------|
G|----------------------------------------------------------------------------|
D|-2-2-2-2-2-2-2-2-2-2-2-2-2--------------------------------------------------|
A|-2-2-2-2-2-2-2-2-2-2-2-2-2--------------------------------------------------|
E|-0-0-0-0-0-0-0-0-0-0-0-0-0--------------------------------------------------|

Chorus
e|----------------------------------------------------------------------------|
B|----------------------------------------------------------------------------|
G|----------------------------------------------------------------------------|
D|-7-7-7-7-7-7-7-7--6-6-6-6-6-6-6-6--5-5-5-5-5-5-5-5--4-4-4-4-4-4-4-4---------|
A|-7-7-7-7-7-7-7-7--6-6-6-6-6-6-6-6--5-5-5-5-5-5-5-5--4-4-4-4-4-4-4-4---------|
E|-5-5-5-5-5-5-5-5--4-4-4-4-4-4-4-4--3-3-3-3-3-3-3-3--2-2-2-2-2-2-2-2---------|


e|----------------------------------------------------------------------------|
B|----------------------------------------------------------------------------|
G|-4-4-4-4-4-4-4-4--7-7-7-7-7-7-7-7-------------------------9-9---------------|
D|-4-4-4-4-4-4-4-4--7-7-7-7-7-7-7-7--7-7-7-7-7-7-7-7-7-7-7--9-9---------------|
A|-2-2-2-2-2-2-2-2--5-5-5-5-5-5-5-5--7-7-7-7-7-7-7-7-7-7-7--7-7---------------|
E|-----------------------------------5-5-5-5-5-5-5-5-5-5-5--------------------|

Solo (even though I am tabbing rhythm for all of you out their who play on their
own here is the solo
e|---------2---------0---5---|----------2-------5-0---|----------2------------|
B|-----2---------------1---1-|-----2----3-----------1-|--------2---2-----3----|
G|-------2---2-----2---------|-------2--2-------------|-------------2---2--2--|
D|---0-----------2-----------|---0----------0-2-------|-----0----------2----2-|
A|--4----------2-------------|--4----------4----------|---4-----------2-------|
E|-5-------------------------|-5----------5-----------|-5---------------------|

e|----------------------------------------------------------------------------|
B|----------------------------------------------------------------------------|
G|----------------------------------------------------------------------------|
D|-2-2-2-2-2-2-2-2-2-2-2--5-5-------------------------------------------------|
A|-2-2-2-2-2-2-2-2-2-2-2--5-5-------------------------------------------------|
E|-0-0-0-0-0-0-0-0-0-0-0--3-3-------------------------------------------------|

Outro
e|----------------------------------------------------------------------------|
B|----2-----------2-----------2-----------------------------------------------|
G|------2-----------2-----------2---------------------------------------------|
D|----------------------------------------------------------------------------|
A|----------------------------------------------------------------------------|
E|-5-------4h5-4------3h4-2--------3p0-2--------------------------------------|

Order

Intro
Verse
Chorus
Verse
Chorus
Solo x2
Chorus
Outro

(Verse)
We're living in repetition
Content in the same old shtick again
Now the routine's turning to contention,
Like a production line going over 
And over and over, roller coaster

(Chorus)
Now I cannot speak, I've lost my voice
I'm speechless and redundant
Cos' I love you (is) not enough
I'm lost for words

(Verse)
Choreographed and lack of passion
Prototypes of what we were
Went full circle til' I'm nauseous
Taken for granted now I waste it, 
Faked it, ate it, now I hate it

(Chorus)
Now I cannot speak, I've lost my voice
I'm speechless and redundant
Cos' I love you (is) not enough
I'm lost for words

(Solo)

(Chorus)
Now I cannot speak, I've lost my voice
I'm speechless and redundant
Cos' I love you (is) not enough
I'm lost for words

Now I cannot speak, I've lost my voice
I'm speechless and redundant
Cos' I love you (is) not enough
I'm lost for words

(Outro)


--------------------------------------------------------------------------------------
Green Day Scattered
--------------------------------------------------------------------------------------

Intro
e|------------------------|------------------------|------------------------|
B|------------------------|------------------------|------------------------|
G|-4-4-4-4-2--------------|-4-4-4-4-2--------------|-4-4-4-4-2--------------|
D|-4-4-4-4-2-6--2-2-2-2-2-|-4-4-4-4-2-6--2-2-2-2-2-|-4-4-4-4-2-6--2-2-2-2-2-|
A|-2-2-2-2-0-6--2-2-2-2-2-|-2-2-2-2-0-6--2-2-2-2-2-|-2-2-2-2-0-6--2-2-2-2-2-|
E|-----------4--0-0-0-0-0-|-----------4--0-0-0-0-0-|-----------4--0-0-0-0-0-|

Intro Part 2
e|--------------------------------------------------------------------------|
B|--------------------------------------------------------------------------|
G|-4-4-4-4-4-4-4-4-4--------------------------------------------------------|
D|-4-4-4-4-4-4-4-4-4--------------------------------------------------------|
A|-2-2-2-2-2-2-2-2-2--------------------------------------------------------|
E|--------------------------------------------------------------------------|

Verse
e|----------------|------------------|------------------|-------------------|
B|----------------|------------------|------------------|-------------------|
G|----------------|------------------|-2-2-2-2-2-2-2-2-2|-4-4-4-4-4-4-4-4-4-|
D|-2-2-2-2-2-2-2-2|-6-6-6-6-6-6-6-6-6|-2-2-2-2-2-2-2-2-2|-4-4-4-4-4-4-4-4-4-|
A|-2-2-2-2-2-2-2-2|-6-6-6-6-6-6-6-6-6|-0-0-0-0-0-0-0-0-0|-2-2-2-2-2-2-2-2-2-|
E|-0-0-0-0-0-0-0-0|-4-4-4-4-4-4-4-4-4|------------------|-------------------|

e|----------------|------------------|------------------|-------------------|
B|----------------|------------------|------------------|-------------------|
G|----------------|------------------|-2-2-2-2-2-2-2-2-2|-4-4-4-4-4-4-4-4-4-|
D|-2-2-2-2-2-2-2-2|-6-6-6-6-6-6-6-6-6|-2-2-2-2-2-2-2-2-2|-4-4-4-4-4-4-4-4-4-|
A|-2-2-2-2-2-2-2-2|-6-6-6-6-6-6-6-6-6|-0-0-0-0-0-0-0-0-0|-2-2-2-2-2-2-2-2-2-|
E|-0-0-0-0-0-0-0-0|-4-4-4-4-4-4-4-4-4|------------------|-------------------|

Chorus
e|--------------------|--------------------------|--------------------------|
B|----------4-4-4-4-4-|--------------------------|--------------------------|
G|-6-6-6-6--4-4-4-4-4-|-4-4-4-4--2-2-2-2-2-2-2-2-|------------2-2-2-2-2-----|
D|-6-6-6-6--2-2-2-2-2-|-4-4-4-4--2-2-2-2-2-2-2-2-|-4-4-4-4-4--2-2-2-2-2-----|
A|-4-4-4-4------------|-2-2-2-2--0-0-0-0-0-0-0-0-|-4-4-4-4-4--0-0-0-0-0-----|
E|--------------------|--------------------------|-2-2-2-2-2----------------|

e|--------------------|--------------------|--------------------------------|
B|--------------------|----------4-4-4-4-4-|--------------------------------|
G|-9-9-9-9-9-9-9-9-9-9|-6-6-6-6--4-4-4-4-4-|-4-4-4-4--2-2-2-2-2-2-2-2-------|
D|-9-9-9-9-9-9-9-9-9-9|-6-6-6-6--2-2-2-2-2-|-4-4-4-4--2-2-2-2-2-2-2-2-------|
A|-7-7-7-7-7-7-7-7-7-7|-4-4-4-4------------|-2-2-2-2--0-0-0-0-0-0-0-0-------|
E|--------------------|--------------------|--------------------------------|

e|--------------------------------------------------------------------------|
B|--------------------------------------------------------------------------|
G|------------2-2-2-2-2-----------------------------------------------------|
D|-4-4-4-4-4--2-2-2-2-2--4-4-4-4-4-4-4-4-4-4--------------------------------|
A|-4-4-4-4-4--0-0-0-0-0--4-4-4-4-4-4-4-4-4-4--------------------------------|
E|-2-2-2-2-2-------------2-2-2-2-2-2-2-2-2-2--------------------------------|

Outro
e|--------------------------------------------------------------------------|
B|--------------------------------------------------------------------------|
G|-6/9-------------2-2-2-2-2------------------------------------------------|
D|-6/9--4-4-4-4-4--2-2-2-2-2--4-4-4-4-4-4-4-4-4-4---------------------------|
A|-4/7--4-4-4-4-4--0-0-0-0-0--4-4-4-4-4-4-4-4-4-4---------------------------|
E|------2-2-2-2-2-------------2-2-2-2-2-2-2-2-2-2---------------------------|

Order

Intro
Intro Part 2
Verse
Chorus
Verse
Chorus
Intro x2
Intro part 2
Bass bit
Verse
Chorus
Outro

Lyrics

(Verse)
Well I've got some scattered pictures lying on my bedroom floor
Reminds me of the times we shared
Makes me wish that you were here, cos'
Now it seems I've forgotten my purpose in this life
All the songs have been erased
Guess I've learned from my mistakes

(Chorus))
Open the past and present
Now and we are there.
Story to tell and I am listening
Open the past and present
And the future too
It's all I've got and I'm giving it to you

(Verse)
Loose ends tied in knots.
Leaving a lump down in my throat.
Gagging on a souvenir.
Lodged to fill another year.
Drag it on and on until my skin is ripped to shreds.
Leaving my self open wide
Living out a sacrifice.

(Chorus))
Open the past and present
Now and we are there.
Story to tell and I am listening
Open the past and present
And the future too
It's all I've got and I'm giving it to you
Open the past and present
And the future too
It's all I've got and I'm giving it to you

(Intro Riff)
If you got no one and I've got no place to go, would it be alright?
Could it be all right?

(Bass bit)
I've got some scattered pictures lying on my bedroom floor
Reminds me of the times we shared
Makes me wish that you were here
Now it seems I've forgotten my purpose in this life
All the songs have been erased
Guess I've learned from my mistakes

(Chorus)
Open the past and present
Now and we are there.
Story to tell and I am listening
Open the past and present
And the future too
It's all I've got and I'm giving it to you
Open the past and present
And the future too	
It's all I've got and I'm giving it to you
It's all I've got and I'm giving it to you

(Outro)



--------------------------------------------------------------------------------------
Green Day All the time
--------------------------------------------------------------------------------------

Intro
E|-------------|-------------|-------------|-------------|-------------|
B|-------------|-------------|-------------|-------------|-------------|
G|-9-9--7------|-9-9--7------|-9-9--7------|-9-9--7------|-9-9--7------|
D|-9-9--7--7-x-|-9-9--7--7-x-|-9-9--7--7-x-|-9-9--7--7-x-|-9-9--7--7-x-|
A|-7-7--5--7-x-|-7-7--5--7-x-|-7-7--5--7-x-|-7-7--5--7-x-|-7-7--5--7-x-|
E|---------5-x-|---------5-x-|---------5-x-|---------5-x-|---------5-x-|

E|-----------|-----------|-----------|-----------|---------------------|
B|-----------|-----------|-----------|-----------|---------------------|
G|-9-9-7-----|-9-9-7-----|-9-9-7-----|-9-9-7-----|-9-9-9-9-9-9-9-9-----|
D|-9-9-7-7-x-|-9-9-7-7-x-|-9-9-7-7-x-|-9-9-7-7-x-|-9-9-9-9-9-9-9-9-----|
A|-7-7-5-7-x-|-7-7-5-7-x-|-7-7-5-7-x-|-7-7-5-7-x-|-7-7-7-7-7-7-7-7-----|
E|-------5-x-|-------5-x-|-------5-x-|-------5-x-|---------------------|

Verse
E|----------------------------|----------------------------------------|
B|--------------------2-2-2---|--------------------2-2-2---------------|
G|------2-2-2---------2-2-2---|------2-2-2---------2-2-2---------------|
D|-6/7--2-2-2--5-5-5--0-0-0-x-|-6/7--2-2-2--5-5-5--0-0-0-x-------------|
A|-6/7--0-0-0--5-5-5--------x-|-6/7--0-0-0--5-5-5--------x-------------|
E|-4/5---------3-3-5--------x-|-4/5---------3-3-5--------x-------------|

Chorus
E|----------------------------|----------------------------------------|
B|----------------------------|----------------------------------------|
G|-2-2--6-7-6--------4-5-5-5--|-2-2--6-7-6--------4-5-5-5--------------|
D|-2-2--6-7-6-7--5-5-4-5-5-5--|-2-2--6-7-6-7--5-5-4-5-5-5--------------|
A|-0-0--4-5-4-7--5-5-2-3-3-3-x|-0-0--4-5-4-7--5-5-2-3-3-3-x------------|
E|------------5--3-3---------x|------------5--3-3---------x------------|

Outro
E|-------------|-------------|-------------|-------------|-------------|
B|-------------|-------------|-------------|-------------|-------------|
G|-9-9--7------|-9-9--7------|-9-9--7------|-9-9--7------|-9-9--7------|
D|-9-9--7--7-x-|-9-9--7--7-x-|-9-9--7--7-x-|-9-9--7--7-x-|-9-9--7--7-x-|
A|-7-7--5--7-x-|-7-7--5--7-x-|-7-7--5--7-x-|-7-7--5--7-x-|-7-7--5--7-x-|
E|---------5-x-|---------5-x-|---------5-x-|---------5-x-|---------5-x-|

E|-----------|-----------|---------------------|-----------------------|
B|-----------|-----------|---------------------|-----------------------|
G|-9-9-7-----|-9-9-7-----|-9-9-9-9-9-9-9-9-----|-----------------------|
D|-9-9-7-7-x-|-9-9-7-7-x-|-9-9-9-9-9-9-9-9-----|-6/7---7---------------|
A|-7-7-5-7-x-|-7-7-5-7-x-|-7-7-7-7-7-7-7-7-----|-6/7---7---------------|
E|-------5-x-|-------5-x-|---------------------|-4/5---5---------------|

Order

Intro
Verse x3
Intro
Verse x2
Intro
Verse x2
Chorus x2
Verse x2
Outro

Lyrics


(Verse)
All the time, every time I need it
What's the time?
I say the time is right
Here's to me
Let's find another reason
Down the hatch
And a bad attitude, it's all right

(Intro)
Wasting time, wasting time down a bum fuck road
And I don't know where the hell it'll go
Heirlooms and huffing fumes, and I'm picking up the pace
And I'm gonna smash straight into a wall

(Verse)
All the time.
New Years Resolution, how soon that we forget
Doing time
Loving every minute
Live it up on another let down its, all right

(Intro)
Promises, promises, it was all set in stone
Cross my heart and hope to die
Sugar fix
Dirty tricks and a trick question
Guess I should have read between the lines

(Verse)

(Chorus)
Having the time of my life,
Watch the clock tick
Having the time of my life,
Watch the clock tick

(Verse)
All the time, where did all the time go?
It's too late to say goodnight
Time flies when you're having fun, yeah
Times up when you work like a dog, its all right

(Outro)


--------------------------------------------------------------------------------------
Green Day Worry Rock
--------------------------------------------------------------------------------------

Intro
E|-----------------|-----------------|-----------------|-----------------|
B|-4-4-4-4-4-4-4-4-|-----------------|-----------------|-4-4-4-4-4-4-4-4-|
G|-4-4-4-4-4-4-4-4-|-4-4-4-4-4-4-4-4-|-2-2-2-2-2-2-2-2-|-4-4-4-4-4-4-4-4-|
D|-2-2-2-2-2-2-2-2-|-4-4-4-4-4-4-4-4-|-2-2-2-2-2-2-2-2-|-2-2-2-2-2-2-2-2-|
A|-----------------|-2-2-2-2-2-2-2-2-|-0-0-0-0-0-0-0-0-|-----------------|
E|-----------------|-----------------|-----------------|-----------------|

Verse
E|-----------------|-----------------|-----------------|-----------------|
B|-----------------|-----------------|-----------------|-----------------|
G|-2-2-2-2-2-2-2-2-|-----------------|-2-2-2-2-2-2-2-2-|-4-4-4-4-4-4-4-4-|
D|-2-2-2-2-2-2-2-2-|-2-2-2-2-2-2-2-2-|-2-2-2-2-2-2-2-2-|-4-4-4-4-4-4-4-4-|
A|-0-0-0-0-0-0-0-0-|-2-2-2-2-2-2-2-2-|-0-0-0-0-0-0-0-0-|-2-2-2-2-2-2-2-2-|
E|-----------------|-0-0-0-0-0-0-0-0-|-----------------|-----------------|

E|-----------------|-----------------|-----------------|-----------------|
B|-----------------|-----------------|-----------------|-----------------|
G|-----------------|-4-4-4-4-4-4-4-4-|-2-2-2-2-2-2-2-2-|-----------------|
D|-2-2-2-2-2-2-2-2-|-4-4-4-4-4-4-4-4-|-2-2-2-2-2-2-2-2-|-2-2-2-2-2-2-2-2-|
A|-2-2-2-2-2-2-2-2-|-2-2-2-2-2-2-2-2-|-0-0-0-0-0-0-0-0-|-2-2-2-2-2-2-2-2-|
E|-0-0-0-0-0-0-0-0-|-----------------|-----------------|-0-0-0-0-0-0-0-0-|

E|-----------------|-----------------|-----------------|-----------------|
B|-----------------|-----------------|-----------------|-----------------|
G|-2-2-2-2-2-2-2-2-|-----------------|-2-2-2-2-2-2-2-2-|-4-4-4-4-4-4-4-4-|
D|-2-2-2-2-2-2-2-2-|-2-2-2-2-2-2-2-2-|-2-2-2-2-2-2-2-2-|-4-4-4-4-4-4-4-4-|
A|-0-0-0-0-0-0-0-0-|-2-2-2-2-2-2-2-2-|-0-0-0-0-0-0-0-0-|-2-2-2-2-2-2-2-2-|
E|-----------------|-0-0-0-0-0-0-0-0-|-----------------|-----------------|

Chorus
Guitar 2
E|-----------------|-----------------|-----------------|-----------------|
B|-----------------|-----------------|-----------------|-----------------|
G|-6-6-6-6-6-6-6-6-|-----------------|-2-2-2-2-2-2-2-2-|-----------------|
D|-6-6-6-6-6-6-6-6-|-6-6-6-6-6-6-6-6-|-2-2-2-2-2-2-2-2-|-2-2-2-2-2-2-2-2-|
A|-4-4-4-4-4-4-4-4-|-6-6-6-6-6-6-6-6-|-0-0-0-0-0-0-0-0-|-2-2-2-2-2-2-2-2-|
E|-----------------|-4-4-4-4-4-4-4-4-|-----------------|-0-0-0-0-0-0-0-0-|

Guitar 1
E|-----------------|-----------------|-----------------|-----------------|
B|-------9---------|--------9--------|-------9---------|--------9--------|
G|-------9---------|--------9--------|-------9---------|--------9--------|
D|-----------------|-----------------|-----------------|-----------------|
A|-----------------|-----------------|-----------------|-----------------|
E|-----------------|-----------------|-----------------|-----------------|

Guitar 2
E|-----------------|-----------------|-----------------|-----------------|
B|-----------------|-----------------|-----------------|-----------------|
G|-6-6-6-6-6-6-6-6-|-----------------|-----------------|-4-4-4-4-4-4-4-4-|
D|-6-6-6-6-6-6-6-6-|-6-6-6-6-6-6-6-6-|-4-4-4-4-4-4-4-4-|-4-4-4-4-4-4-4-4-|
A|-4-4-4-4-4-4-4-4-|-6-6-6-6-6-6-6-6-|-4-4-4-4-4-4-4-4-|-2-2-2-2-2-2-2-2-|
E|-----------------|-4-4-4-4-4-4-4-4-|-2-2-2-2-2-2-2-2-|-----------------|

Guitar 1
E|-----------------|-----------------|-----------------|-----------------|
B|-------9---------|--------9--------|-------9---------|--------9--------|
G|-------9---------|--------9--------|-------9---------|--------9--------|
D|-----------------|-----------------|-----------------|-----------------|
A|-----------------|-----------------|-----------------|-----------------|
E|-----------------|-----------------|-----------------|-----------------|

Guitar 2
E|-----------------|-----------------|-----------------|-----------------|
B|-----------------|-----------------|-----------------|-----------------|
G|-----------------|-4-4-4-4-4-4-4-4-|-2-2-2-2-2-2-2-2-|-----------------|
D|-2-2-2-2-2-2-2-2-|-4-4-4-4-4-4-4-4-|-2-2-2-2-2-2-2-2-|-2-2-2-2-2-2-2-2-|
A|-2-2-2-2-2-2-2-2-|-2-2-2-2-2-2-2-2-|-0-0-0-0-0-0-0-0-|-2-2-2-2-2-2-2-2-|
E|-0-0-0-0-0-0-0-0-|-----------------|-----------------|-0-0-0-0-0-0-0-0-|

Guitar 1
E|-----------------|-----------------|-----------------|-----------------|
B|-------9---------|-----------------|-----------------|-----------------|
G|-------9---------|-----------------|-----------------|-----------------|
D|-----------------|-----------------|-----------------|-----------------|
A|-----------------|-----------------|-----------------|-----------------|
E|-----------------|-----------------|-----------------|-----------------|

Guitar 2
E|-----------------|-----------------|-----------------------------------|
B|-----------------|-----------------|-----------------------------------|
G|-----------------|-----------------|-2-2-2-2-2-2-2-2-2-2-2-2-2-2-2-2---|
D|-2-2-2-2-2-2-2-2-|-2-2-2-2-2-2-2-2-|-2-2-2-2-2-2-2-2-2-2-2-2-2-2-2-2---|
A|-2-2-2-2-2-2-2-2-|-2-2-2-2-2-2-2-2-|-0-0-0-0-0-0-0-0-0-0-0-0-0-0-0-0---|
E|-0-0-0-0-0-0-0-0-|-0-0-0-0-0-0-0-0-|-----------------------------------|

Solo
E|---------|-----------|---------|--------|--------|-------|-------------|
B|---------|-----------|---------|--------|--------|-------|-------------|
G|---------|-----------|---------|--------|--------|-------|-------------|
D|---------|-----------|---------|--------|--------|-------|-------------|
A|-------2-|---4-6-4-2-|---4-2-0-|-2------|---4-2--|-2-----|-------------|
E|-0-4-5---|-4---------|-5-------|---5-4~-|-5-----5|---4-0-|-5-5-5-4-4/2~|

E|-0-0-0-0-0-----|----0-2--0-----|-----------------|---------------------|
B|-----------4-4-|-4---------4-0-|-2-2-2-0-2-2-2-0-|-2-2-0~-2------------|
G|---------------|---------------|-----------------|---------------------|
D|---------------|---------------|-----------------|---------------------|
A|---------------|---------------|-----------------|---------------------|
E|---------------|---------------|-----------------|---------------------|

E|-----------------|---------------|---------0-0-0-|---------------------|
B|-2-2-2-0-2-2-2-0-|-2-2-0~-2--2-0-|-2-2-0-0-------|-5/7/7/5/5/4/4/2-----|
G|-----------------|---------------|---------------|---------------------|
D|-----------------|---------------|---------------|---------------------|
A|-----------------|---------------|---------------|---------------------|
E|-----------------|---------------|---------------|---------------------|

Outro 
E|-----------------|-----------------|-----------------------------------|
B|-----------------|-----------------|-----------------------------------|
G|-----------------|-2-2-2-2-2-2-2-2-|-4-4-4-4-4-4-4-4-------------------|
D|-2-2-2-2-2-2-2-2-|-2-2-2-2-2-2-2-2-|-4-4-4-4-4-4-4-4-------------------|
A|-2-2-2-2-2-2-2-2-|-0-0-0-0-0-0-0-0-|-2-2-2-2-2-2-2-2-------------------|
E|-0-0-0-0-0-0-0-0-|-----------------|-----------------------------------|

Outro part 2
E|-----------------------------------------------------------------------|
B|-----------------------------------------------------------------------|
G|-----------------------------------------------------------------------|
D|-2-2-2-2-2-2-2-2-------------------------------------------------------|
A|-2-2-2-2-2-2-2-2-------------------------------------------------------|
E|-0-0-0-0-0-0-0-0-------------------------------------------------------|


Order

Intro
Verse
Chorus
Verse
Solo (with chorus played in the background)
Chorus 
Verse x1
Outro x2
Outro part 2


Lyrics

(Verse) 
Another sentimental argument, and bitter love
Fucked without a kiss again and dragged it through the mud
Yelling at brick walls and punching windows made of stone
The worry rock has turned to dust, and fallen on our pride

(Chorus)
A knocked down dragged out fight
Fat lips and open wounds
Another wasted night,
And no one will take the fall
Where do we go from where?
And what did you do with the directions?
Promise me no dead end streets and I'll guarantee we'll have the road.

(Solo)

(Chorus)
A knocked down dragged out fight
Fat lips and open wounds
Another wasted night,
And no one will take the fall

(Verse) 
Another sentimental argument, and bitter love
Fucked without a kiss again and dragged it through the mud
Yelling at brick walls and punching windows made of stone
The worry rock has turned to dust, and fallen on our pride
Where do we go from where?
And what did you do with the directions?
Promise me no dead end streets and I'll guarantee we'll have the road.

(Outro)
And I'll guarantee we'll have the road
And I'll guarantee we'll have the road

--------------------------------------------------------------------------------------
Green Day Platypus (I Hate You)
--------------------------------------------------------------------------------------	

Intro	
E|--------------|--------------|--------------|--------------|
B|--------------|--------------|--------------|--------------|
G|--------------|--------------|--------------|--------------|
D|-9-9-9-9\5--4-|-9-9-9-9\5--4-|-9-9-9-9\5--4-|-9-9-9-9\5--4-|
A|-9-9-9-9\5--4-|-9-9-9-9\5--4-|-9-9-9-9\5--4-|-9-9-9-9\5--4-|
E|-7-7-7-7\3--2-|-7-7-7-7\3--2-|-7-7-7-7\3--2-|-7-7-7-7\3--2-|

Intro part 2
E|------------------------------------|-----------------------------|
B|------------------------------------|-----------------------------|
G|-------------------9-9-9-9----------|-------------------9---------|
D|-9-9-9-9--7-7-7-7--9-9-9-9--9-9-9-9-|-9-9-9-9--7-7-7-7--9--9-9-9--|
A|-9-9-9-9--7-7-7-7--7-7-7-7--9-9-9-9-|-9-9-9-9--7-7-7-7--7--9-9-9--|
E|-7-7-7-7--5-5-5-5-----------7-7-7-7-|-7-7-7-7--5-5-5-5-----7-7-7--|

Verse
E|------------------------------------|------------------------------------|
B|------------------------------------|------------------------------------|
G|-------------------9-9-9-9----------|-------------------9-9-9-9----------|
D|-9-9-9-9--7-7-7-7--9-9-9-9--9-9-9-9-|-9-9-9-9--7-7-7-7--9-9-9-9--9-9-9-9-|
A|-9-9-9-9--7-7-7-7--7-7-7-7--9-9-9-9-|-9-9-9-9--7-7-7-7--7-7-7-7--9-9-9-9-|
E|-7-7-7-7--5-5-5-5-----------7-7-7-7-|-7-7-7-7--5-5-5-5-----------7-7-7-7-|

Chorus
E|-------------------------|-------------------------|-------------------|
B|-------------------------|-------------------------|-------------------|
G|-------------------------|-------------------------|-------------------|
D|-7-7-7-7-7-7-7-7-7-7-7-7-|-7-7-7-7-7-7-7-7-7-7-7-7-|-7-7-7-7-7-7-7-7-7-|
A|-7-7-7-7-7-7-7-7-7-7-7-7-|-7-7-7-7-7-7-7-7-7-7-7-7-|-7-7-7-7-7-7-7-7-7-|
E|-5-5-5-5-5-5-5-5-5-5-5-5-|-5-5-5-5-5-5-5-5-5-5-5-5-|-5-5-5-5-5-5-5-5-5-|

E|---------------------------------|-------------------------------------|
B|---------------------------------|-------------------------------------|
G|----------------------9--9--9----|-------------------------------------|
D|-7-7-7-7-7-7-7-7-7-7--9--9--9--9-|-9-9-9-9-9-9-9-9-9-9-9-9-9-9-9-9-9-9-|
A|-7-7-7-7-7-7-7-7-7-7--7--7--7--9-|-9-9-9-9-9-9-9-9-9-9-9-9-9-9-9-9-9-9-|
E|-5-5-5-5-5-5-5-5-5-5-----------7-|-7-7-7-7-7-7-7-7-7-7-7-7-7-7-7-7-7-7-|

E|-------------|-------------------------------------------------|
B|-------------|-------------------------------------------------|
G|-------------|-------------------------------------------------|
D|-9-9-9-9-9-9-|-7-7-7-7-7-7-7-7-7-7-7-7-7-7-7-7-7-7-7-7-7-7-7-7-|
A|-9-9-9-9-9-9-|-7-7-7-7-7-7-7-7-7-7-7-7-7-7-7-7-7-7-7-7-7-7-7-7-|
E|-7-7-7-7-7-7-|-5-5-5-5-5-5-5-5-5-5-5-5-5-5-5-5-5-5-5-5-5-5-5-5-|

E|---------------------------------------|--------------------|---------|
B|---------------------------------------|--------------------|---------|
G|---------------------------------------|-9-9-9--------------|-9-9-9---|
D|-4-4-4-4-4-4-4-4-4-4-4-4-4-4-4-4-4-4-4-|-9-9-9-9--9-9-9-9-9-|-9-9-9-9-|
A|-4-4-4-4-4-4-4-4-4-4-4-4-4-4-4-4-4-4-4-|-7-7-7-9--9-9-9-9-9-|-7-7-7-9-|
E|-2-2-2-2-2-2-2-2-2-2-2-2-2-2-2-2-2-2-2-|-------7--7-7-7-7-7-|-------7-|

E|-----------|--------------------|-------------------------------------|
B|-----------|--------------------|-------------------------------------|
G|-----------|-9-9-9--------------|-9-9-9-------------------------------|
D|-9-9-9-9-9-|-9-9-9-9--9-9-9-9-9-|-9-9-9-9--9-9-9-9-9-9-9-9-9-9--------|
A|-9-9-9-9-9-|-7-7-7-9--9-9-9-9-9-|-7-7-7-9--9-9-9-9-9-9-9-9-9-9--------|
E|-7-7-7-7-7-|-------7--7-7-7-7-7-|-------7--7-7-7-7-7-7-7-7-7-7--------|

Order

Intro
Intro part 2
Verse x2
Chorus
Verse x3
Chorus
Intro x2
(Bass bit - not tabbed)
Verse x2
Chorus
Intro part 2


Lyrics


(Verse)
Your rise and fall
Back up against the wall
What goes around is coming back and haunting you
It's time to quit
Cause you aren't worth the shit
Under my shoes or to the piss on the ground

(Chorus)
No one loves you and you know it
Don't pretend that you enjoy it or your don't care
Cause now I wouldn't lie or tell you all the things you wanna hear
Cos I Hate You, Cos I Hate You, Cos I Hate You, Cos I Hate You

(Verse)
I heard you're sick
Sucked on that cancer stick
A throbbing tuma and a radiation high
Shit out of luck
And now your time is up
It brings me pleasure just to know you're going to die.

(Chorus)
No one loves you and you know it
Don't pretend that you enjoy it or your don't care
Cos' now I wouldn't lie or tell you all the things you want to hear
Cos I Hate You, Cos I Hate You, Cos I Hate You, Cos I Hate You

(Intro bit)
Dickhead, fuck face, cock smoking, mother fucking, asshole, dirty twat,
Waste of semen, I hope you die

(Verse)
Red eye, code blue
I'd like to strangle you
And watch your eyes bulge right out of your skull
When you go down
Head first into the ground
I'll stand above you just to piss on your grave

(Chorus)
No one loves you and you know it
Don't pretend that you enjoy it or your don't care
Cause now I wouldn't lie or tell you all the things you want to hear
Cos I Hate You, Cos I Hate You, Cos I Hate You, Cos I Hate You



--------------------------------------------------------------------------------------
Green Day Uptight 
--------------------------------------------------------------------------------------	

Intro
E|-------------------------------------------------------|
B|-------------------------------------------------------|
G|-11-11-11--10-10-10--11-11-11--10-10-10---11-11--10-10-|
D|-11-11-11--10-10-10--11-11-11--10-10-10---11-11--10-10-|
A|--9--9--9---8--8--8---9--9--9---8--8--8----9--9---8--8-|
E|-------------------------------------------------------|
PM  ****************************************************

Intro part2
E|--------------------------------------------------------------------|
B|--------------------------------------------------------------------|
G|-11-11--------------------------------------------------------------|
D|-11-11--------------------------------------------------------------|
A|--9--9--------------------------------------------------------------|
E|--------------------------------------------------------------------|

Verse
E|--------------------------------------------------------------------|
B|--------------------------------------------------------------------|
G|-6-6-6-6-6-6-6-6-6-6--4-4-4-4-4-4-4-4-4-4--6-6-6-6-6-6-6-6-6-6------|
D|-6-6-6-6-6-6-6-6-6-6--4-4-4-4-4-4-4-4-4-4--6-6-6-6-6-6-6-6-6-6------|
A|-4-4-4-4-4-4-4-4-4-4--2-2-2-2-2-2-2-2-2-2--4-4-4-4-4-4-4-4-4-4------|
E|--------------------------------------------------------------------|
PM *************************************************************

Chorus
E|--------------------------------------------------------------------|
B|--------------------------------------------------------------------|
G|----------4-4-4-4-4-4-----------4-4-4-4-4-4-----------6-6-6-6-6-6---|
D|-4-4-4-4--4-4-4-4-4-4--4-4-4-4--4-4-4-4-4-4--4-4-4-4--6-6-6-6-6-6---|
A|-4-4-4-4--2-2-2-2-2-2--4-4-4-4--2-2-2-2-2-2--4-4-4-4--4-4-4-4-4-4---|
E|-2-2-2-2---------------2-2-2-2---------------2-2-2-2----------------|

E|--------------------------------------------------------------------|
B|--------------------------------------------------------------------|
G|----------4-4-4-x-6-6-6---------------------------------------------|
D|-4-4-4-4--4-4-4-x-6-6-6---------------------------------------------|
A|-4-4-4-4--2-2-2-x-4-4-4---------------------------------------------|
E|-2-2-2-2------------------------------------------------------------|

Solo
E|-2-2-2-1-1-1-2-2-2-1-1-1-2-2-1-1-|-2-2-2-1-1-1-2-2-2-1-1-1-2-2-1-1--|
B|-2-2-2-2-2-2-2-2-2-2-2-2-2-2-2-2-|-2-2-2-2-2-2-2-2-2-2-2-2-2-2-2-2--|
G|---------------------------------|----------------------------------|
D|---------------------------------|----------------------------------|
A|---------------------------------|----------------------------------|
E|---------------------------------|----------------------------------|

End
E|--------------------------------------------------------------------|
B|--------------------------------------------------------------------|
G|-4------------------------------------------------------------------|
D|-4------------------------------------------------------------------|
A|-2------------------------------------------------------------------|
E|--------------------------------------------------------------------|

Order

Intro x4
Intro part 2
Intro x4
Verse x2
Intro x4
Intro part 2
Intro x6
Verse x2
Chorus x2
Solo x4
Chorus x4
End	


Lyrics

(Intro)
I woke up on the wrong side of the floor
Made, made my way through the front door
Broke my engagement with myself

(Verse)
Perfect picture of bad health,
Another notch scratch on my bell.
The future just aint what it used to be?

(Intro)
I got a new start on a dead end road
Peaked, peaked out on reaching new lows
Owed, I paid off all my debts to myself

(Verse)
Perfect picture of bad health,
Another notch scratch on my bell
The futures in my living room.

(Chorus)
Uptight, I'm a nag with a gun, yeah
All night, suicide's last call
I've been uptight all night
I'm a son of a gun
Uptight, I'm a nag with a gun, yeah
All night, suicide's last call
I've been uptight all night
I'm a son of a gun

(Solo)

(Chorus)
Uptight, I'm a nag with a gun, yeah
All night, suicide's last call
I've been uptight all night
I'm a son of a gun
Uptight, I'm a nag with a gun, yeah
All night, suicide's last call
I've been uptight all night
I'm a son of a gun

Uptight, I'm a nag with a gun, yeah
All night, suicide's last call
I've been uptight all night
I'm a son of a gun
Uptight, I'm a nag with a gun, yeah
All night, suicide's last call
I've been uptight all night
I'm a son of a gun

(Outro)


--------------------------------------------------------------------------------------
Green Day Last ride in
--------------------------------------------------------------------------------------
The infamous instrumental song written during a sound check
Ive tabbed the bass as well cos it's confusing what bass is playing when guitar is not
playing so... here we go

Riff 1 
Bass
G|---------|---------|---------|---------|
D|---------|---------|---------|---------|
A|-2-----2-|-0-----0-|-2-----2-|-0-----0-|
E|----2----|----0----|----2----|----0----|

Guitar
E|--------------------------------------------------------------------|
B|--------------------------------------------------------------------|
G|--(Plays nothing)---------------------------------------------------|
D|--------------------------------------------------------------------|
A|--------------------------------------------------------------------|
E|--------------------------------------------------------------------|

Riff 2
Bass
G|---------|---------|---------|---------|
D|---------|---------|---------|---------|
A|-2-----2-|-0-----0-|-2-----2-|-0-----0-|
E|----2----|----0----|----2----|----0----|

Guitar
E|-0------------------------------------------------------------------|
B|-0------------------------------------------------------------------|
G|-0------------------------------------------------------------------|
D|--------------------------------------------------------------------|
A|--------------------------------------------------------------------|
E|--------------------------------------------------------------------|

Riff 3
Bass
G|---------|---------|---------|---------|
D|---------|---------|---------|---------|
A|-2-----2-|-0-----0-|-2-----2-|-0-----0-|
E|----2----|----0----|----2----|----0----|

Guitar
E|---------|----------------------------------------------------------|
B|---------|----------------------------------------------------------|
G|---------|----------------------------------------------------------|
D|---------|----------------------------------------------------------|
A|-2-----2-|------2-4---4---2~----------------------------------------|
E|----2----|-5------------5-------------------------------------------|

Riff 4
Bass
G|--------------------|-----------------------------------------------|
D|--------------------|-----------------------------------------------|
A|--------------------|-----------------------------------------------|
E|-0---5--0--2--0--2\-|---------0---5--0--2--0--2---------------------|

Guitar
E|-----0---0----------|-------------0--0------------------------------|
B|--------------------|-----------------------------------------------|
G|--------------------|-----------------------------------------------|
D|-2---------------4\-|---------2--------------4\---------------------|
A|-2---------------4\-|---------2--------------4\---------------------|
E|-0---------------2\-|---------0--------------2\---------------------|

Riff 5
Bass
G|-----------------|-----------------|----------------|---------------|
D|-----------------|-----------------|----------------|---------------|
A|-----------------|-----------------|----------------|---------------|
E|-0---0--0--0--0--|-0---0--0--0--0--|-2---2--2--2--2-|-2---2--2--2--2|

Guitar
E|-----------------|-----------------|-----------------|--------------|
B|-----------------|-----------------|-----------------|--------------|
G|-----------------|-----------------|-----------------|--------------|
D|-2---------------|--------------2--|-4---------------|-------------4|
A|-2---------------|--------------2--|-4---------------|-------------4|
E|-0---------------|--------------0--|-2---------------|-------------2|

Outro

Riff 1
Riff 2
Riff 3 x4
Riff 4 
Riff 5
Riff 3 x4 (there is second guitar played in the background here but cudnt work it out)
Riff 4
Riff 5
Riff 3 x8
Riff 4
Riff 5
Riff 3 x4 (there is second guitar played in the background here but cudnt work it out)
End on E|-2--|

--------------------------------------------------------------------------------------
Green Day Jinx
--------------------------------------------------------------------------------------

Intro
E|-------------------------|------------------------------------------|
B|-------------------------|------------------------------------------|
G|------5-5-5--7-7-7-7-7-7-| -----5-5-5--7-7-7-7-7-7------------------|
D|-5-5--5-5-5--7-7-7-7-7-7-|-5-5--5-5-5--7-7-7-7-7-7------------------|
A|-5-5--3-3-3--5-5-5-5-5-5-|-5-5--3-3-3--5-5-5-5-5-5------------------|
E|-3-3---------------------|-3-3--------------------------------------|

Verse/Chorus
E|-------------|-------------|--------------|-------------|-------------|
B|-------------|-------------|--------------|-------------|-------------|
G|-------------|-7-7-7-7-7-7-|------5-5-5---|-------------|-5-5-5-5-5-5-|
D|-5-5-5-5-5-5-|-7-7-7-7-7-7-|-5-5--5-5-5-5-|-5-5-5-5-5-5-|-5-5-5-5-5-5-|
A|-5-5-5-5-5-5-|-5-5-5-5-5-5-|-5-5--3-3-3-5-|-5-5-5-5-5-5-|-3-3-3-3-3-3-|
E|-3-3-3-3-3-3-|-------------|-3-3--------3-|-3-3-3-3-3-3-|-------------|

E|-------------|-------------|-------------|-------------|--------------|
B|-------------|-------------|-------------|-------------|--------------|
G|-5-5-5-5-5-5-|-------------|-------------|-5-5-5-5-5-5-|-5-5-5-5-5-5--|
D|-5-5-5-5-5-5-|-5-5-5-5-5-5-|-5-5-5-5-5-5-|-5-5-5-5-5-5-|-5-5-5-5-5-5--|
A|-3-3-3-3-3-3-|-5-5-5-5-5-5-|-5-5-5-5-5-5-|-3-3-3-3-3-3-|-3-3-3-3-3-3--|
E|-------------|-3-3-3-3-3-3-|-3-3-3-3-3-3-|-------------|--------------|

E|---------------|-------------|-------------|-------------|-------------|
B|---------------|-------------|-------------|-------------|-------------|
G|------7-7-7--9-|-9-9-9-9-9-9-|-5-5-5-5-5-5-|-------------|-7-7-7-7-7-7-|
D|-5-5--7-7-7--9-|-9-9-9-9-9-9-|-5-5-5-5-5-5-|-3-3-3-3-3-3-|-7-7-7-7-7-7-|
A|-5-5--5-5-5--7-|-7-7-7-7-7-7-|-3-3-3-3-3-3-|-3-3-3-3-3-3-|-5-5-5-5-5-5-|
E|-3-3-----------|-------------|-------------|-1-1-1-1-1-1-|-------------|

E|-------------|
B|-------------|
G|-7-7-7-7-7-7-|
D|-7-7-7-7-7-7-|
A|-5-5-5-5-5-5-|
E|-------------|

Outro
E|------------------------|-------------|----------------------------|
B|------------------------|-------------|----------------------------|
G|----------5-5-5-5-5-5-5-|-7-7-7-7-7-7-|-7-7-7-7-7-7-7-7------------|
D|-5-5-5-5--5-5-5-5-5-5-5-|-7-7-7-7-7-7-|-7-7-7-7-7-7-7-7------------|
A|-5-5-5-5--3-3-3-3-3-3-3-|-5-5-5-5-5-5-|-5-5-5-5-5-5-5-5------------|
E|-3-3-3-3----------------|-------------|----------------------------|

Order

Intro x2
Verse/Chorus x2
Intro x2
Verse/Chorus x2
Intro x2
Outro x4

Lyrics


(Verse/Chorus)
I fucked up again; it's all my fault
So turn me around and face the wall
Read me my rights and tell me I am wrong
Until it gets into my thick skull

A slap on the wrist
A stab in the back
Torture me; I've been a bad boy
Nail me to the cross and tell me, you have won
I lost before I did any wrong

(Intro)

(Verse/Chorus)
I'm hexed with regrets and bad luck
So Keep your distance, it's rubbing off
Or you will be damned to spend your life in hell
Or earth with me tangled at your feet
You finally met your nemesis
Disguised as your fatal long lost love
So kiss it good-bye until death do we part
You fell for a jinx for crying out loud

(Intro)

(Outro)
Im a jinx just hanging 'round you
Im a jinx just hanging 'round you
Im a jinx just hanging 'round you
Im a jinx just hanging 'round you
Im a jinx just hanging 'round you

--------------------------------------------------------------------------------------
Green Day Haushinka
--------------------------------------------------------------------------------------
There are two guitars in this song

Intro
Both guitars
E|--------------------------------------------------------------------|
B|--------------------------------------------------------------------|
G|-7--------5-------7-------5-----------------------------------------|
D|-7--------5-------7-------5-----------------------------------------|
A|-5--------3-------5-------3-----------------------------------------|
E|--------------------------------------------------------------------|

Verse
Guitar 1
E|----------|-----------|-----------|---------------------------------|
B|--7-------|--8--------|--10-------|--8------------------------------|
G|-----7----|------7----|------7----|------7--------------------------|
D|----------|-----------|-----------|---------------------------------|
A|----------|-----------|-----------|---------------------------------|
E|----------|-----------|-----------|---------------------------------|

Guitar 2
E|----------|-----------|-----------|---------------------------------|
B|----------|-----------|-----------|---------------------------------|
G|--7-------|----------5|--7--------|-----------5---------------------|
D|--7-------|----------5|--7--------|-----------5---------------------|
A|--5-------|----------3|--5--------|-----------3---------------------|
E|----------|-----------|-----------|---------------------------------|

Pre Chorus
E|--------------------------------------------------------------------|
B|--------------------------------------------------------------------|
G|-7-7-7-7-7-7-7-7--7-7-7-7-------------------------------------------|
D|-7-7-7-7-7-7-7-7--7-7-7-7-------------------------------------------|
A|-5-5-5-5-5-5-5-5--5-5-5-5-------------------------------------------|
E|--------------------------------------------------------------------|
PM ***************

Chorus
E|---------------------------------------|    |----------|--------------|
B|---------------------------------------|    |----------|--------------|
G|-7-7-7-7--5-5-5-5----------------------|    |----------|--------------|
D|-7-7-7-7--5-5-5-5--5-5-5-5-5--3-3-3--5-| x4 |-3-3-3--5-|-3-3-3--5---7-|
A|-5-5-5-5--3-3-3-3--5-5-5-5-5--3-3-3--5-|    |-3-3-3--5-|-3-3-3--5---7-|
E|-------------------3-3-3-3-3--1-1-1--3-|    |-1-1-1--3-|-1-1-1--3---5-|

E|--------------------------------------------------------------------|
B|--------------------------------------------------------------------|
G|--------------------------------------------------------------------|
D|-7-7-7-7-7-7-7--7-7-7-7-7-7-7-7-7-----------------------------------|
A|-7-7-7-7-7-7-7--7-7-7-7-7-7-7-7-7-----------------------------------|
E|-5-5-5-5-5-5-5--5-5-5-5-5-5-5-5-5-----------------------------------|

Bridge
E|--------------------------------------------------------------------|
B|--------------------------------------------------------------------|
G|--------------------------------------------------------------------|
D|-9-9-9-9---7-7-7-7-7-7-7-7--5-5-5-5-5-5-5-5--5-5-5-5-5-5-5-5-5------|
A|-9-9-9-9---7-7-7-7-7-7-7-7--5-5-5-5-5-5-5-5--5-5-5-5-5-5-5-5-5------|
E|-7-7-7-7---5-5-5-5-5-5-5-5--3-3-3-3-3-3-3-3--3-3-3-3-3-3-3-3-3------|

Bridge part 2
E|--------------------------------------------------------------------|
B|--------------------------------------------------------------------|
G|--------------------------------------------------------------------|
D|-9-9-9-9---7-7-7-7-7-7-7-7--5-5-5-5-5-5-5-5--5-5-5-5-5-5-5-5-5------|
A|-9-9-9-9---7-7-7-7-7-7-7-7--5-5-5-5-5-5-5-5--5-5-5-5-5-5-5-5-5------|
E|-7-7-7-7---5-5-5-5-5-5-5-5--3-3-3-3-3-3-3-3--3-3-3-3-3-3-3-3-3------|
PM                              *************    ***************

Pre Solo
E|-------------------------|------------------------------------------|
B|-------------------------|------------------------------------------|
G|-------7-x-x-------------|-------7-x-x------------------------------|
D|-7-x-x-7-x-x-5-5-x-7-x-x-|-7-x-x-7-x-x-5-5-x-7-x-x------------------|
A|-7-x-x-5-x-x-5-5-x-7-x-x-|-7-x-x-5-x-x-5-5-x-7-x-x------------------|
E|-5-x-x-------3-3-x-5-x-x-|-5-x-x-------3-3-x-5-x-x------------------|

Solo
E|----------------------------------|----------------------------------|
B|-1-1-3-3-4-4-3-3--1-1-3-3-4-4-3-3-|-0-0-1-1-2-2-1-1--0-0-1-1-2-2-0-0-|
G|-0-0-0-0-0-0-0-0--0-0-0-0-0-0-0-0-|-0-0-0-0-0-0-0-0--0-0-0-0-0-0-0-0-|
D|----------------------------------|----------------------------------|
A|----------------------------------|----------------------------------|
E|----------------------------------|----------------------------------|

E|----------------------------------|----------------------------------|
B|-1-1-3-3-4-4-3-3--1-1-3-3-4-4-3-3-|-4-4-4-4-4-4-4-4--4-4-4-4-4-4-4-4-|
G|-0-0-0-0-0-0-0-0--0-0-0-0-0-0-0-0-|-0-0-0-0-0-0-0-0--0-0-0-0-0-0-0-0-|
D|----------------------------------|----------------------------------|
A|----------------------------------|----------------------------------|
E|----------------------------------|----------------------------------|

Order

Intro
Verse x11
Pre Chorus
Chorus
Verse x6
Pre Chorus
Chorus
Bridge x3
Bridge part 2
Pre Solo x2
Solo
Chorus


Lyrics

(Verse)
Haushinka is a girl with a peculiar name
I met her on the eve of my birthday
Did she know? Did she know, before she went away?
Does she know?, Does she know?

(Pre Chorus)
But it's too damn late

(Chorus)
This girl has gone far away
Now she's gone
This girl has gone far away
Now she's gone
This girl has gone far away
Now she's gone
This girl has gone far away
Now she's gone, now she's gone,
Now she's all gone

(Verse)
All I have now is a memory to date
A cheap hat and cigarettes, and a peculiar name
I didn't know, I didn't know
I didn't know, before she went away
I know now, I know now

(Pre Chorus)
Thats it's too damn late

(Chorus)
This girl has gone far away
Now she's gone
This girl has gone far away
Now she's gone
This girl has gone far away
Now she's gone
This girl has gone far away
Now she's gone, now she's gone,
Now she's all gone

(Bridge)
Will she ever find her way?
I'm too damn young to be to late, but am I?
Yet again, I'm kicking myself, 
And I'll be here in battle scars...

(Bridge part 2)
Waiting for you, Waiting for you, now

(Pre Solo)

(Solo)

(Chorus)
This girl has gone far away
Now she's gone
This girl has gone far away
Now she's gone
This girl has gone far away
Now she's gone
This girl has gone far away
Now she's gone, now she's gone,
Now she's all gone


--------------------------------------------------------------------------------------
Green Day Walking Alone
--------------------------------------------------------------------------------------

Harmonica Intro
E|-----------------|-----------------|-----------------|-----------------|
B|-----8-----------|-----------------|-----8-----------|-----------------|
G|---------7-------|-9b10r9----------|---------7-------|-9b10r9----------|
D|-----------9-----|-----------------|-----------9-----|-----------------|
A|-----------------|-----------------|-----------------|-----------------|
E|-----------------|-----------------|-----------------|-----------------|

Intro
E|-----------------|-----------------|-----------------|-----------------|
B|-----------------|-----------------|-----------------|-----------------|
G|-----------------|-----------------|-----------------|-----------------|
D|-5-5-5-5-5-5-5-5-|-2-2-2-2-2-2-2-2-|-5-5-5-5-5-5-5-5-|-2-2-2-2-2-2-2-2-|
A|-5-5-5-5-5-5-5-5-|-2-2-2-2-2-2-2-2-|-5-5-5-5-5-5-5-5-|-2-2-2-2-2-2-2-2-|
E|-3-3-3-3-3-3-3-3-|-0-0-0-0-0-0-0-0-|-3-3-3-3-3-3-3-3-|-0-0-0-0-0-0-0-0-|

Verse
E|-----------------|-----------------|-----------------|-----------------|
B|-----------------|-----------------|-----------------|-----------------|
G|-----------------|-----------------|-5-5-5-5-5-5-5-5-|-7-7-7-7-7-7-7-7-|
D|-5-5-5-5-5-5-5-5-|-2-2-2-2-2-2-2-2-|-5-5-5-5-5-5-5-5-|-7-7-7-7-7-7-7-7-|
A|-5-5-5-5-5-5-5-5-|-2-2-2-2-2-2-2-2-|-3-3-3-3-3-3-3-3-|-5-5-5-5-5-5-5-5-|
E|-3-3-3-3-3-3-3-3-|-0-0-0-0-0-0-0-0-|-----------------|-----------------|

Chorus
E|-----------------|-----------------|-----------------|-----------------|
B|-----------------|-----------------|-----------------|-----------------|
G|-5-5-5-5-5-5-5-5-|-7-7-7-7-7-7-7-7-|-5-5-5-5-5-5-5-5-|-7-7-7-7-7-7-7-7-|
D|-5-5-5-5-5-5-5-5-|-7-7-7-7-7-7-7-7-|-5-5-5-5-5-5-5-5-|-7-7-7-7-7-7-7-7-|
A|-3-3-3-3-3-3-3-3-|-5-5-5-5-5-5-5-5-|-3-3-3-3-3-3-3-3-|-5-5-5-5-5-5-5-5-|
E|-----------------|-----------------|-----------------|-----------------|

E|-----------------|-----------------|-----------------|-----------------|
B|-----------------|-----------------|-----------------|-----------------|
G|-----------------|-----------------|-----------------|-----------------|
D|-5-5-5-5-5-5-5-5-|-7-7-7-7-7-7-7-7-|-5---5-5-3---3-3-|-2-2-2-2---2-2-2-|
A|-5-5-5-5-5-5-5-5-|-7-7-7-7-7-7-7-7-|-5---5-5-3---3-3-|-2-2-2-2---2-2-2-|
E|-3-3-3-3-3-3-3-3-|-5-5-5-5-5-5-5-5-|-3---3-3-1---1-1-|-0-0-0-0---0-0-0-|

E|-----------------|-----------------|
B|-----------------|-----------------|
G|-5-5-5-5-5-5-5-5-|-7-7-7-7-7-7-7-7-|
D|-5-5-5-5-5-5-5-5-|-7-7-7-7-7-7-7-7-|
A|-3-3-3-3-3-3-3-3-|-5-5-5-5-5-5-5-5-|
E|-----------------|-----------------|

Solo
E|-----------------|-----------------|-----------------|-----------------|
B|---8-------------|-----------------|-----------------|-----------------|
G|-------7-------9-|-9b10r9----------|-----9---12--9---|-----11--13--11--|
D|---------9-------|---------------9-|-10------------10|-12------------12|
A|-----------------|-----------------|-----------------|-----------------|
E|-----------------|-----------------|-----------------|-----------------|

Order

Intro
Verse x2
Chorus
Intro 
Verse x2
Chorus
Intro
Solo x2
Chorus
Intro


(Verse) 
Come together like a foot in a shoe 
Only this time I think I stuck my foot in my mouth
Thinking out loud and acting in vain
Knocking over anyone that stands in my way

(Chorus)
Sometimes I need to apologize
Sometimes I need to admit that I ain't right
Sometimes I should just keep my mouth shut,
Or only say hello
Sometimes I still feel I'm walking alone

(Intro)

(Verse)
Walk on eggshells on my old stomping ground
Yet there's really no one left, that's hanging around
Isn't that another familiar face?
Too drunk to figure out they're fading away

(Chorus)
Sometimes I need to apologize
Sometimes I need to admit that I ain't right
Sometimes I should just keep my mouth shut,
Or only say hello
Sometimes I still feel I'm walking alone

(Intro)

(Solo)

(Chorus)
Sometimes I need to apologize.
Sometimes I need to admit that I ain't right
Sometimes I should just keep my mouth shut,
Or only say hello
Sometimes I still feel I'm walking alone

(Intro)



--------------------------------------------------------------------------------------
Green Day Reject
--------------------------------------------------------------------------------------

Verse
E|---------------------------------|---------------------------------|
B|---------------------------------|---------------------------------|
G|---------------------------------|---------------------------------|
D|-9-9-9-9-9-9-9-9-9-9-9-9-9-9-9-9-|-6-6-6-6-6-6-6-6-6-6-6-6-6-6-6-6-|
A|-9-9-9-9-9-9-9-9-9-9-9-9-9-9-9-9-|-6-6-6-6-6-6-6-6-6-6-6-6-6-6-6-6-|
E|-7-7-7-7-7-7-7-7-7-7-7-7-7-7-7-7-|-4-4-4-4-4-4-4-4-4-4-4-4-4-4-4-4-|

E|---------------------------------|---------------------------------|
B|---------------------------------|---------------------------------|
G|-6-6-6-6-6-6-6-6-6-6-6-6-6-6-6-6-|---------------------------------|
D|-6-6-6-6-6-6-6-6-6-6-6-6-6-6-6-6-|-4-4-4-4-4-4-4-4-4-4-4-4-4-4-4-4-|
A|-4-4-4-4-4-4-4-4-4-4-4-4-4-4-4-4-|-4-4-4-4-4-4-4-4-4-4-4-4-4-4-4-4-|
E|---------------------------------|-2-2-2-2-2-2-2-2-2-2-2-2-2-2-2-2-|

Verse Part 2
E|---------------------------------------|---------------------------------------|
B|---------------------------------------|---------------------------------------|
G|-------------------4-4-4-4-4-4-4-4-4-4-|-------------------4-4-4-4-4-4-4-4-4-4-|
D|-2-2-2-2--5-5-5-5--4-4-4-4-4-4-4-4-4-4-|-2-2-2-2--5-5-5-5--4-4-4-4-4-4-4-4-4-4-|
A|-2-2-2-2--5-5-5-5--2-2-2-2-2-2-2-2-2-2-|-2-2-2-2--5-5-5-5--2-2-2-2-2-2-2-2-2-2-|
E|-0-0-0-0--3-3-3-3----------------------|-0-0-0-0--3-3-3-3----------------------|

E|-------------------------|-----------------------------|--------------------|
B|-------------------------|-----------------------------|--------------------|
G|-------------4-4-4-4-4-4-|-----------------------------|-5-5-5-5-5-5-5-5-5--|
D|-2-2-2--2-2--4-4-4-4-4-4-|-2-2-2--2-2--6-6-6-6-6-6-6-6-|-5-5-5-5-5-5-5-5-5--|
A|-2-2-2--2-2--2-2-2-2-2-2-|-2-2-2--2-2--6-6-6-6-6-6-6-6-|-3-3-3-3-3-3-3-3-3--|
E|-0-0-0--0-0--------------|-0-0-0--0-0--4-4-4-4-4-4-4-4-|--------------------|
PM        ***                       ***

E|--------------------------------------------------------------------|
B|--------------------------------------------------------------------|
G|--------------------------------------------------------------------|
D|-4-4-4-4-4-4-4-4-4-4------------------------------------------------|
A|-4-4-4-4-4-4-4-4-4-4------------------------------------------------|
E|-2-2-2-2-2-2-2-2-2-2------------------------------------------------|

Chorus
E|----------------|-----------------|----------------|----------------|
B|----------------|-----------------|----------------|----------------|
G|------------9---|-----------------|------------9---|----------------|
D|-9-9-9-9-9--9---|-9-9-9-9-9---7---|-9-9-9-9-9--9---|-9-9-9-9-9--7---|
A|-9-9-9-9-9--7---|-9-9-9-9-9---7---|-9-9-9-9-9--7---|-9-9-9-9-9--7---|
E|-7-7-7-7-7------|-7-7-7-7-7---5---|-7-7-7-7-7------|-7-7-7-7-7--5---|

Bridge (this is played during the cool bass bit)
E|---------------------------------------------------------------------|
B|---------------------------------------------------------------------|
G|---------------------------------------------------------------------|
D|--2-2--2-2--2-2--2-2--2-2--2-2--2-2--2-2---9\--2-2-2-2-2-2-2-2-2-2-2-|
A|--2-2--2-2--2-2--2-2--2-2--2-2--2-2--2-2---7\--2-2-2-2-2-2-2-2-2-2-2-|
E|--0-0--0-0--0-0--0-0--0-0--0-0--0-0--0-0-------0-0-0-0-0-0-0-0-0-0-0-|
PM                                               *********************

E|---------------------------------------------------------------------|
B|---------------------------------------------------------------------|
G|---------------------------------------------------------------------|
D|-2-2-2-2-2-2-2-2-2-2-2-2-2-2-2-2-2-2-2-2-2-2--2-2-2-2-2-2-2-2-2-2-2-2|
A|-2-2-2-2-2-2-2-2-2-2-2-2-2-2-2-2-2-2-2-2-2-2--2-2-2-2-2-2-2-2-2-2-2-2|
E|-0-0-0-0-0-0-0-0-0-0-0-0-0-0-0-0-0-0-0-0-0-0--0-0-0-0-0-0-0-0-0-0-0-0|
PM *******************************************

E|---------------------------------------------------------------------|
B|---------------------------------------------------------------------|
G|---------------------------------------------------------------------|
D|-2-2-2-2-2-2-2-2-2-2-2-2-2-2-2-2-2-2-2-2-2-2--2-2-2-2-2-2-2-2-2-2-2-2|
A|-2-2-2-2-2-2-2-2-2-2-2-2-2-2-2-2-2-2-2-2-2-2--2-2-2-2-2-2-2-2-2-2-2-2|
E|-0-0-0-0-0-0-0-0-0-0-0-0-0-0-0-0-0-0-0-0-0-0--0-0-0-0-0-0-0-0-0-0-0-0|

Outro
E|-----------------------------|
B|-----------------------------|
G|-----------4-4-4-4-4---------|
D|-2--2--5-5-4-4-4-4-4---------|
A|-2--2--5-5-2-2-2-2-2---------|
E|-0--0--3-3-------------------|

Order

Verse x2
Verse part 2
Chorus
Verse x2
Verse part 2
Chorus x2
Bridge
Outro

Lyrics

(Verse)
Who the hell are you to tell me 
What I am, and what's my master plan
What makes you think that it includes you?
Self-righteous wealth
Stop flattering yourself

(Verse part 2)
So when the smoke clears here I am,
Your reject all-American
Sucking up your social sect, making you a nervous wreck
To hell and back and hell again I've gone

(Chorus) 
You're not my type, not my type

(Verse part 2)
What's the difference between you and me?
I do what I want, and you do what you're told
So listen up, shut the hell up
Whats up with you and I'll see you in hell

(Verse part 2)
So when the smoke clears here I am,
Your reject all-American
Sucking up your social sect, making you a nervous wreck
To hell and back and hell again I've gone

(Chorus) 
You're not my type, not my type
You're not my type, 


(Bridge)
So when the smoke clears here I am,
Your reject all-American.
Falling from grace, right on my face.
To hell and back and hell again I've gone.

(Outro)


--------------------------------------------------------------------------------------
Green Day Take back
--------------------------------------------------------------------------------------
Tuning half a step down

Riff 1
E|--------------------------------|-----------------------------------|
B|--------------------------------|-----------------------------------|
G|--------------------------------|-----------------------------------|
D|---9-9-9-9-9--7-7-7--10-10-10---|---9-9-9-9-9--7-7-7--10-10-10------|
A|---9-9-9-9-9--7-7-7--10-10-10---|---9-9-9-9-9--7-7-7--10-10-10------|
E|---7-7-7-7-7--5-5-5---8--8--8---|---7-7-7-7-7--5-5-5---8--8--8------|

Riff 2
E|-----------------------------|------------------------------------|
B|-----------------------------|------------------------------------|
G|---8-8-8-8-8---------9-9-9---|---8-8-8-8-8---------9-9-9----------|
D|---8-8-8-8-8--8-8-8--9-9-9---|---8-8-8-8-8--8-8-8--9-9-9----------|
A|---6-6-6-6-6--8-8-8--7-7-7---|---6-6-6-6-6--8-8-8--7-7-7----------|
E|--------------6-6-6----------|--------------6-6-6-----------------|

Riff 3
E|------------|
B|------------|
G|-9~~--------|
D|-9~~---7-7--|
A|-7~~---7-7--|
E|-------5-5--|

Order

Riff 1 x4
Riff 2 x1
Riff 1 x5
Riff 2 x2
Riff 1 x2
Riff 3


Lyrics

(Riff 1)
You pushed me once too far again,
I'd love to break your fucking teeth
Stick a knife in the centre of your back
You better grow some eyes in the back of your head
I fight dirty, just like your looks
Can't take, can't take, I can't take anymore

(Riff 2)
Take back, take back, take

(Riff 1)
The taste of bad blood on the tip of my tongue
An eye for an eye, Gun for a gun
Cold-cocked and I'm taking back what's mine
Expect it when you're least expecting it
No loss of love, the smell of regret
Lights out.
Can't take anymore

(Riff 2)
Take back, take back, take back, take back

(Riff 3)
Shite!



--------------------------------------------------------------------------
Green Day king for a day
-------------------------------------------------------------------------

Riff 1 (im not sure on this, bass just could be playing the 
       Root notes of these chords)
E|----------------------|----------------------|
B|--4-x-------4-x-------|----------------------|
G|--4-x--4-x--4-x--4-x--|--6-x-------6-x-------|
D|--2-x--4-x--2-x--4-x--|--6-x--6-x--6-x--6-x--|
A|-------2-x-------2-x--|--4-x--6-x--4-x--6-x--|
E|----------------------|-------4-x-------4-x--|
	
Riff 2
E|-----------------------------------|
B|-----------------------------------|
G|-----------------------------------|
D|-7-7-7-7-7-7-7-7--9-9-9-9-9-9-9-9--|
A|-7-7-7-7-7-7-7-7--9-9-9-9-9-9-9-9--|
E|-5-5-5-5-5-5-5-5--7-7-7-7-7-7-7-7--|

Riff 3
E|------------------------------------------|
B|------------------------------------------|
G|-6-6-6-6-6-6-6-6-6-6-6-6-6-6-6-6--6-6-6-6-|
D|-6-4-6-6-6-6-6-6-6-6-6-6-6-6-6-6--6-6-6-6-|
A|-4-4-4-4-4-4-4-4-4-4-4-4-4-4-4-4--4-4-4-4-|
E|------------------------------------------|

Order

Riff 1 x6
Riff 2 x4
Riff 1 x3
Riff 3
Riff 1 x6
Riff 2 x4
Riff 1 x3
Riff 3
Riff 1 x8
Riff 2 x4
Riff 1 x7
Riff 3 x3
Riff 1 x9 (to fade)

(Riff 1)
Started at the age of 4
My mother went to the grocery store
Went sneaking through her bedroom door
To find something in a size 4

(Riff 2)
Sugar and spice and everything nice wasn't made for only girls
G.I Joe in panty hose is making room for the one and only

(Riff 1)
King for a day, princess by dawn
King for a day, in a leather thong
King for a day, princess by dawn

(Riff 3)
Just wait 'till all the guys get a load of me.

(Riff 1)
My daddy threw me in therapy
He thinks im not a real man
Who put the drag in the drag queen?
Don't knock it, until you've try it

(Riff 2)
Sugar and spice and everything nice wasn't made for only girls
G.I Joe in panty hose is making room for the one and only

(Riff 1)
King for a day, princess by dawn
King for a day, in a leather thong
King for a day, princess by dawn

(Riff 3)
Just wait 'till all the guys get a load of me.

(Riff 2)
Sugar and spice and everything nice wasn't made for only girls
G.I Joe in panty hose is making room for the one and only

(Riff 1)
King for a day, princess by dawn
King for a day, in a leather thong
King for a day, princess by dawn

King for a day, in a leather thong
King for a day, princess by dawn

King for a day, in a leather thong
King for a day, princess by dawn

(Riff 3)
Just wait 'till all the guys...
Just wait 'till all the guys...
Just wait 'till all the guys...
Get a load of me

(Riff 1)


--------------------------------------------------------------------------------------
Green Day Good Riddance (Time of your life)
--------------------------------------------------------------------------------------
Note: Throughout the song every time you strum chords you should down strum then up
strum then down strum then up strum...etc.

Chords used:

Gmodal   :320033
C9       :032033
Dsus4    :000233
Em7      :022033

Intro
e|------3------------3------------------------------------|
B|---------3------------3---------------------------------|
G|--------------------------------------------------------|
D|---0------------0---------------------------------------|
A|--------------------------------------------------------|
E|-3------------3-----------------------------------------|

1st Verse

Rhy fig 1
|-------3--------------3--------------3------------3------|    
|----------3-------------3--------------3------------3----| 
|-------------0------------0--------------0-----2------2--|    
|---0--------------0--------------2-----------0-----------| x4
|------------------------------3--------------------------|  
|-3--------------3----------------------------------------|

Rhy fig 2
|------3------------3-------------3------------3----------|    
|--------3------------3-------------3------------3--------|
|----------0-----2------2-------------0------------0------| x2      
|---2----------0---------------2------------0-------------|      
|----------------------------3----------------------------|   
|-0---------------------------------------3---------------|  

Chorus 
|-----3------------3------------3-----------3--------------3-----------3-----|
|-------3------------3------------3-----------3--------------3-----------3---|
|---------0------------0------------0-----------0--------------0-----2-----2-|
|--2------------0------------2-----------0--------------2----------0---------|
|----------------------------------------------------------------------------|
|0------------3------------0-----------3--------------0----------------------|


Bridge 
e|-3-3-3-3-3-3-3-3-3-3--3-3-3-3--3-3-3-3-3-3--|
B|-3-3-3-3-3-3-3-3-3-3--3-3-3-3--3-3-3-3-3-3--|
G|-0-0-0-0-0-0-0-0-0-0--0-0-0-0--1-1-1-1-1-1--|
D|-0-0-0-0-0-0-0-0-0-0--2-2-2-2--0-0-0-0-0-0--| x2
A|-2-2-2-2-2-2-2-2-2-2--3-3-3-3--0-0-0-0-0-0--|
E|-3-3-3-3-3-3-3-3-3-3--0-0-0-0--0-0-0-0-0-0--|

2nd Verse 
e|-3-3-3-3-3--3-3-3-3-3--3-3-3-3-3--3-3-3-3-3-|
B|-3-3-3-3-3--3-3-3-3-3--3-3-3-3-3--3-3-3-3-3-|
G|-0-0-0-0-0--0-0-0-0-0--0-0-0-0-0--1-1-1-1-1-| x2
D|-0-0-0-0-0--0-0-0-0-0--2-2-2-2-2--0-0-0-0-0-|
A|-2-2-2-2-2--2-2-2-2-2--3-3-3-3-3--0-0-0-0-0-|
E|-3-3-3-3-3--3-3-3-3-3--0-0-0-0-0--0-0-0-0-0-|

e|-3-3-3-3-3--3-3-3-3-3--3-3-3-3-3--3-3-3-3-3-|
B|-3-3-3-3-3--3-3-3-3-3--3-3-3-3-3--3-3-3-3-3-|
G|-0-0-0-0-0--1-1-1-1-1--0-0-0-0-0--0-0-0-0-0-| x2
D|-2-2-2-2-2--0-0-0-0-0--2-2-2-2-2--0-0-0-0-0-|
A|-2-2-2-2-2--0-0-0-0-0--3-3-3-3-3--2-2-2-2-2-|
E|-0-0-0-0-0--0-0-0-0-0--0-0-0-0-0--3-3-3-3-3-|

2nd chorus
e|-3-3-3-3--3-3-3-3-3-3-|--3-3-3-3--3-3-3-3-3-3-|--3-3-3-3-|--3-3-3-3-3-3-----|
B|-3-3-3-3--3-3-3-3-3-3-|--3-3-3-3--3-3-3-3-3-3-|--3-3-3-3-|--3-3-3-3-3-3-----|
G|-0-0-0-0--0-0-0-0-0-0-|--0-0-0-0--0-0-0-0-0-0-|--0-0-0-0-|--1-1-1-1-1-1-----|
D|-2-2-2-2--0-0-0-0-0-0-|--2-2-2-2--0-0-0-0-0-0-|--2-2-2-2-|--0-0-0-0-0-0-----|
A|-2-2-2-2--2-2-2-2-2-2-|--2-2-2-2--2-2-2-2-2-2-|--2-2-2-2-|--0-0-0-0-0-0-----|
E|-0-0-0-0--3-3-3-3-3-3-|--0-0-0-0--3-3-3-3-3-3-|--0-0-0-0-|--0-0-0-0-0-0-----|


Interlude 
e|-3-3-3-3-3--3-3-3-3-3--3-3-3-3-3--3-3-3-3-3---|
B|-3-3-3-3-3--3-3-3-3-3--3-3-3-3-3--3-3-3-3-3---|
G|-0-0-0-0-0--0-0-0-0-0--0-0-0-0-0--1-1-1-1-1---| x4
D|-0-0-0-0-0--0-0-0-0-0--2-2-2-2-2--0-0-0-0-0---|
A|-2-2-2-2-2--2-2-2-2-2--3-3-3-3-3--0-0-0-0-0---|
E|-3-3-3-3-3--3-3-3-3-3--0-0-0-0-0--0-0-0-0-0---|

e|-3-3-3-3-3---3-3-3-3-3---3-3-3-3-3--3-3-3-3-3-|
B|-3-3-3-3-3---3-3-3-3-3---3-3-3-3-3--3-3-3-3-3-|
G|-0-0-0-0-0---1-1-1-1-1---0-0-0-0-0--0-0-0-0-0-|
D|-2-2-2-2-2---0-0-0-0-0---3-3-3-3-3--0-0-0-0-0-| x2
A|-2-2-2-2-2---0-0-0-0-0---2-2-2-2-2--2-2-2-2-2-|
E|-0-0-0-0-0---0-0-0-0-0---0-0-0-0-0--3-3-3-3-3-|

And then play:

2nd Chorus
1st Chorus
Bridge
1st Chorus x2


And end on this
e|------3------------3---------------------3------------------------|
B|--------3------------3-------------------3------------------------|
G|----------0------------0--------2--------0------------------------|
D|---2------------0-----------------0------0------------------------|
A|------------------------------------0----2------------------------|
E|-0------------3--------------------------3------------------------|


(Verse 1)
Another turning point, a fork stuck in the road
Time grabs you by the wrist, directs you where to go
So make the best of this test and don't ask why
It's not a question, but a lesson learned in time

(Chorus)
It's something unpredictable, but in the end is right
I hope you had the time of your life

(Verse 2)
So take the photographs and still frames in your mind
Hang it on a shelf in good health and good time
Tattoos of memories and dead skin on trial
For what it's worth, it was worth all the while

(Chorus)
It's something unpredictable, but in the end is right
I hope you had the time of your life

(Chorus)
It's something unpredictable, but in the end is right
I hope you had the time of your life
It's something unpredictable, but in the end is right
I hope you had the time of your life


--------------------------------------------------------------------------------------
Green Day Prosthetic head
--------------------------------------------------------------------------------------
Tuning half a step down

Intro (played clean)
E|----------------|----------------|----------------|-----------------|
B|----------------|----------------|----------------|-7---------------|
G|-9-9------------|-7-7------------|-9-9------------|-7---------------|
D|-9-9-x--9-9-9-9-|-7-7-x--7-7-7-7-|-9-9-x--9-9-9-9-|-7---------------|
A|-7-7-x--9-9-9-9-|-5-5-x--7-7-7-7-|-7-7-x--9-9-9-9-|-5---------------|
E|-----x--7-7-7-7-|-----x--5-5-5-5-|-----x--7-7-7-7-|-----------------|

Verse (played clean)
E|----------------|----------------|----------------|-----------------|
B|----------------|----------------|----------------|-----------------|
G|-9-9------------|-7-7------------|-9-9------------|-7-7-------------|
D|-9-9-x--9-9-9-9-|-7-7-x--7-7-7-7-|-9-9-x--9-9-9-9-|-7-7-x--7-7-7-7--| 
A|-7-7-x--9-9-9-9-|-5-5-x--7-7-7-7-|-7-7-x--9-9-9-9-|-5-5-x--7-7-7-7--|
E|-----x--7-7-7-7-|-----x--5-5-5-5-|-----x--7-7-7-7-|-----x--5-5-5-5--|

Pre Chorus (played with distortion)
E|-----|---------------------------|----------------------------------|
B|-----|---------------------------|----------------------------------|
G|-----|-------------------------9-|-------------------------9--------|
D|-----|-9-9-9-9-9-9-9-9-9-9-9-9-9-|-9-9-9-9-9-9-9-9-9-9-9-9-9--------|
A|-7/2-|-9-9-9-9-9-9-9-9-9-9-9-9-7-|-9-9-9-9-9-9-9-9-9-9-9-9-7--------|
E|-----|-7-7-7-7-7-7-7-7-7-7-7-7---|-7-7-7-7-7-7-7-7-7-7-7-7----------|

E|---------------------------|----------------------------------------|
B|---------------------------|----------------------------------------|
G|-------------------------9-|-------------------------9--------------|
D|-9-9-9-9-9-9-9-9-9-9-9-9-9-|-9-9-9-9-9-9-9-9-9-9-9-9-9--------------|
A|-9-9-9-9-9-9-9-9-9-9-9-9-7-|-9-9-9-9-9-9-9-9-9-9-9-9-7--------------|
E|-7-7-7-7-7-7-7-7-7-7-7-7---|-7-7-7-7-7-7-7-7-7-7-7-7----------------|

Chorus (played with distortion)
E|----------------|----------------|----------------|-----------------|
B|----------------|----------------|----------------|-----------------|
G|-9-9------------|-7-7------------|-9-9------------|-7-7-------------|
D|-9-9-x--9-9-9-9-|-7-7-x--7-7-7-7-|-9-9-x--9-9-9-9-|-7-7-x--7-7-7-7--| 
A|-7-7-x--9-9-9-9-|-5-5-x--7-7-7-7-|-7-7-x--9-9-9-9-|-5-5-x--7-7-7-7--|
E|-----x--7-7-7-7-|-----x--5-5-5-5-|-----x--7-7-7-7-|-----x--5-5-5-5--|

Bridge
E|---------|-----------|-----------|---------------|---------|-----------|
B|---------|-----------|-----------|---------------|---------|-----------|
G|-----9-9-|-----------|-----------|---7-7---------|-----9-9-|-----------|
D|-9-x-9-9-|-x-7-x-4-4-|-x-9-x-7-7-|-x-7-7-x-7-7-7-|-9-x-9-9-|-x-7-x-4-4-|
A|-9-x-7-7-|-x-7-x-4-4-|-x-9-x-7-7-|-x-5-5-x-7-7-7-|-9-x-7-7-|-x-7-x-4-4-|
E|-7-x-----|-x-5-x-2-2-|-x-7-x-5-5-|-x-----x-5-5-5-|-7-x-----|-x-5-x-2-2-|

E|-----------|---------------|---------|-----------|-----------|---------------|
B|-----------|---------------|---------|-----------|-----------|---------------|
G|-----------|---7-7---------|-----9-9-|-----------|-----------|---7-7---------|
D|-x-9-x-7-7-|-x-7-7-x-7-7-7-|-9-x-9-9-|-x-7-x-4-4-|-x-9-x-7-7-|-x-7-7-x-7-7-7-|
A|-x-9-x-7-7-|-x-5-5-x-7-7-7-|-9-x-7-7-|-x-7-x-4-4-|-x-9-x-7-7-|-x-5-5-x-7-7-7-|
E|-x-7-x-5-5-|-x-----x-5-5-5-|-7-x-----|-x-5-x-2-2-|-x-7-x-5-5-|-x-----x-5-5-5-|

Fill 1
E|--------------------------------------------------------------------|
B|--------------------------------------------------------------------|
G|--------------------------------------------------------------------|
D|-9-9-9-9-9-9-9-9-9-9-9-9-9-9-9-9------------------------------------|
A|-9-9-9-9-9-9-9-9-9-9-9-9-9-9-9-9------------------------------------|
E|-7-7-7-7-7-7-7-7-7-7-7-7-7-7-7-7------------------------------------|

Order

Intro
Verse x4
Pre Chorus
Chorus x2
Verse x4
Pre Chorus
Chorus x4
Bridge
Fill 1
Verse x3 (with a killer slide/pick slide played on the 3rd repeat
Chorus x5

(Verse)
I see you, down on the front line
Such a sight for sore eyes, you're a suicide makeover
Plastic eyes, lookin' through a numbskull
Self effaced, what's his face?
You erase yourself so shut up
You don't let up

(Pre-Chorus)
You have a growth that must be treated
Like a severed severe pain in the neck
You can smell it but you can't see it
No explanation identified cos'

(Chorus)
You, don't know
You, don't say, And you got no reply

(Verse)
Hey you, where did you come from
Got a head full of lead, you're an inbred bastard son
All dressed up, red blooded and a Mannequin
Do or die, no reply, don't deny that you're synthetic
You're pathetic

(Pre-Chorus)
You have a growth that must be treated
Like a severed severe pain in the neck
You can smell it but you can't see it
No explanation identified cos'

(Chorus)
You, don't know
You, don't say, And you got no reply

You, don't know
You, don't say, And you got no reply

(Bridge)

(Verse)
I see you, down on the front line
Such a sight for sore eyes, you're a suicide makeover

(Chorus)
You, don't know
You, don't say, And you got no reply

You, don't know
You, don't say, And you got no reply


There's another album, definitely more to come your way - I will tab all of Green Day's
albums, Please rate this and comment on it thanks! And good-bye!
comments
print report bad tab
12 comments total. Showing first comments.
0 reply
C3_Rocka wrote on May 21 2005, 12:00 am

Thanks this is awesome I'm saving it and rated it 5 thanks good work Liam, good boy.

0 reply
BradBFS wrote on January 23 2006, 11:10 am

yeah,good job,somethings didn't sound great but it was probly just me

0 reply
Gundam pilota09 wrote on June 7 2006, 05:13 pm

40 ficken pages that's like $6.00 man

I want to post or [tab]
guest
You may want to rate the tab now too:
select rating
Please do not post tabs as comments. Select "correction" instead!