Oops, an error
Loading. Please wait.

Rusty James Tab

ver3
ver3

Whole song

More versions @911Tabs.com
289 views 3 this week
1 commentread comment
1 2 3 4 5
please rate
Autoscroll
+/-
esc
set tempo
stop
Contributor
Difficulty
intermediate
WARNING: You are trying to view
                                    content from Ultimate-Guitar.com
                                    in an unauthorized application,
                                    which is prohibited.

                                    Please use an official Ultimate
                                    Guitar Tabs application for iPhone,
                                    iPad or Android to access legitimate
                                    chords, guitar, bass, and drum tabs
                                    from Ultimate-Guitar.com database.

                                    Type "ultimate guitar tabs" in Apple
                                    App Store's or Android Market's
                                    search to find the application.
Title: Rusty James
Artist: Green Day
Album: Uno
Tabber: Dannecticut
Tempo = 168
Electric Guitar

Legend
L - tied note
x - dead note
h - hammer on/pull off
b - bend
s - slide
~ - vibrato
g - ghost note
> - accentuated note
t - trill
M - palm mute
. - staccato
P - popping (bass)
S - slapping (bass)
+ - tapping
W - wide vibrato
< - fade in
w - whammy bar
= - tremolo picking
v - brush up
^ - brush down
V - pick stroke up
n - pick stroke down


E |--------------------------------------------4--4----|
B |--------------------------------------------5--5----|
G |--------------------------------------------4--4----|
D |----------------------------------------------------|
A |----------------------------------------------------|
E |----------------------------------------------------|


--4-----------4-----5-----------5-----5-----4--4----|
--5-----------5-----5-----------5-----5-----5--5----|
--4-----------4-----4-----------4-----4-----4--4----|
----------------------------------------------------|
----------------------------------------------------|
----------------------------------------------------|


--4-----------4-----------------------------4--4----|
--5-----------5-----7-----------7-----7-----5--5----|
--4-----------4-----4-----------4-----4-----4--4----|
----------------------------------------------------|
----------------------------------------------------|
----------------------------------------------------|


--4-----------4-----5-----------5-----5-----4--4----|
--5-----------5-----5-----------5-----5-----5--5----|
--4-----------4-----4-----------4-----4-----4--4----|
----------------------------------------------------|
----------------------------------------------------|
----------------------------------------------------|


--4-----------4-----------------------------4--4----|
--5-----------5-----7-----------7-----7-----5--5----|
--4-----------4-----4-----------4-----4-----4--4----|
----------------------------------------------------|
----------------------------------------------------|
----------------------------------------------------|


--4-----------4-----5-----------5-----5-----4--4----|
--5-----------5-----5-----------5-----5-----5--5----|
--4-----------4-----4-----------4-----4-----4--4----|
----------------------------------------------------|
----------------------------------------------------|
----------------------------------------------------|


--4-----------4-----------------------------4--4----|
--5-----------5-----7-----------7-----7-----5--5----|
--4-----------4-----4-----------4-----4-----4--4----|
----------------------------------------------------|
----------------------------------------------------|
----------------------------------------------------|


--4-----------4-----5-----------5-----5-----4--4----|
--5-----------5-----5-----------5-----5-----5--5----|
--4-----------4-----4-----------4-----4-----4--4----|
----------------------------------------------------|
----------------------------------------------------|
----------------------------------------------------|


--4-----4-------------------|
--5-----5--7-----7--7-------|
--4-----4--4-----4--4-------|
----------------------------|
----------------------------|
----------------------------|


--4-----------4-----5-----------5-----5-----4--4----|
--5-----------5-----5-----------5-----5-----5--5----|
--4-----------4-----4-----------4-----4-----4--4----|
----------------------------------------------------|
----------------------------------------------------|
----------------------------------------------------|


--4-----------4-----------------------------4--4----|
--5-----------5-----7-----------7-----7-----5--5----|
--4-----------4-----4-----------4-----4-----4--4----|
----------------------------------------------------|
----------------------------------------------------|
----------------------------------------------------|


--4-----------4-----5-----------5-----5-----4--4----|
--5-----------5-----5-----------5-----5-----5--5----|
--4-----------4-----4-----------4-----4-----4--4----|
----------------------------------------------------|
----------------------------------------------------|
----------------------------------------------------|


--4-----4-------------------|----------------------------|
--5-----5--7-----7--7--7----|----------------------------|
--4-----4--4-----4--4--4----|----------------------------|
----------------------------|--9-----9M-9M-9M-9M-9M-9M---|
----------------------------|--7-----7M-7M-7M-7M-7M-7M---|
----------------------------|----------------------------|


----------------------------|----------------------------|
----------------------------|----------------------------|
----------------------------|----------------------------|
--9M-9M-9M-9M-9M-9M-9M-9M---|--9-----9M-9M-9M-9M-9M-9M---|
--7M-7M-7M-7M-7M-7M-7M-7M---|--6-----6M-6M-6M-6M-6M-6M---|
----------------------------|----------------------------|


----------------------------|----------------------------|
----------------------------|----------------------------|
----------------------------|----------------------------|
--9M-9M-9M-9M-9M-9M-9M-9M---|----------------------------|
--6M-6M-6M-6M-6M-6M-6M-6M---|--7-----7M-7M-7M-7M-7M-7M---|
----------------------------|--5-----5M-5M-5M-5M-5M-5M---|


----------------------------|----------------------------|
----------------------------|----------------------------|
----------------------------|----------------------------|
----------------------------|----------------------------|
--7M-7M-7M-7M-7M-7M-7M-7M---|--7-----7M-7M-7M-7M-7M-7M---|
--5M-5M-5M-5M-5M-5M-5M-5M---|--5-----5M-5M-5M-5M-5M-5M---|


----------------------------|----------------------------|
----------------------------|----------------------------|
----------------------------|----------------------------|
----------------------------|--9-----9M-9M-9M-9M-9M-9M---|
--7M-7M-7M-7M-7M-7M-7M-7M---|--7-----7M-7M-7M-7M-7M-7M---|
--5M-5M-5M-5M-5M-5M-5M-5M---|----------------------------|


----------------------------|----------------------------|
----------------------------|----------------------------|
----------------------------|----------------------------|
--9M-9M-9M-9M-9M-9M-9M-9M---|----------------------------|
--7M-7M-7M-7M-7M-7M-7M-7M---|--6-----6M-6M-6M-6M-6M-6M---|
----------------------------|--4-----4M-4M-4M-4M-4M-4M---|


----------------------------|----------------------------|
----------------------------|----------------------------|
----------------------------|----------------------------|
----------------------------|----------------------------|
--6M-6M-6M-6M-6M-6M-6M-6M---|--7-----7M-7M-7M-7M-7M-7M---|
--4M-4M-4M-4M-4M-4M-4M-4M---|--5-----5M-5M-5M-5M-5M-5M---|


----------------------------|----------------------------|
----------------------------|----------------------------|
----------------------------|----------------------------|
----------------------------|----------------------------|
--7M-7M-7M-7M-7M-7M-7M-7M---|--9-----9M-9M-9M-9M-9M-9M---|
--5M-5M-5M-5M-5M-5M-5M-5M---|--7-----7M-7M-7M-7M-7M-7M---|


----------------------------|----------------------------|
----------------------------|----------------------------|
----------------------------|----------------------------|
----------------------------|--4-----4-----4--4--x--6L---|
--9M-9M-9M-9M-9--9--9--9----|--4-----4-----4--4--x--6L---|
--7M-7M-7M-7M-7--7--7--7----|--2-----2-----2--2--x--4L---|


----------------------------|----------------------------|
----------------------------|----------------------------|
----------------------------|----------------------------|
--6--6--6-----6--6--6--6----|--7-----7-----7--7--x--9L---|
--6--6--6-----6--6--6--6----|--7-----7-----7--7--x--9L---|
--4--4--4-----4--4--4--4----|--5-----5-----5--5--x--7L---|


----------------------------|----------------------------|
----------------------------|----------------------------|
----------------------------|----------------------------|
--9--9--9--9--9--9--9s------|--4-----4-----4--4--x--6L---|
--9--9--9--9--9--9--9s------|--4-----4-----4--4--x--6L---|
--7--7--7--7--7--7--7s------|--2-----2-----2--2--x--4L---|


----------------------------|----------------------------|
----------------------------|----------------------------|
----------------------------|----------------------------|
--6--6--6-----6--6--6--6----|--7-----7-----7--7--x--9L---|
--6--6--6-----6--6--6--6----|--7-----7-----7--7--x--9L---|
--4--4--4-----4--4--4--4----|--5-----5-----5--5--x--7L---|


----------------------------|----------------------------|
----------------------------|----------------------------|
----------------------------|----------------------------|
--9--9--9--9--9--9--9--9----|--9--9--9--9--9--9--9--9----|
--9--9--9--9--9--9--9--9----|--9--9--9--9--9--9--9--9----|
--7--7--7--7--7--7--7--7----|--7--7--7--7--7--7--7--7----|


----------------------------|----------------------------|
----------------------------|----------------------------|
--9-----9-----9--9----------|----------------------------|
--9-----9-----9--9--x--9L---|--9--9--9--9--9--9--9--9----|
--7-----7-----7--7--x--9L---|--9--9--9--9--9--9--9--9----|
--------------------x--7L---|--7--7--7--7--7--7--7--7----|


----------------------------|----------------------------|
----------------------------|----------------------------|
--9-----9-----9--9----------|----------------------------|
--9-----9-----9--9--x--9L---|--9--9--9--9--9--9--9--9----|
--7-----7-----7--7--x--9L---|--9--9--9--9--9--9--9--9----|
--------------------x--7L---|--7--7--7--7--7--7--7--7----|


----------------------------|----------------------------|
----------------------------|----------------------------|
--6-----6-----6--6----------|----------------------------|
--6-----6-----6--6--x--6L---|--6--6--6--6--6--6--6--6----|
--4-----4-----4--4--x--6L---|--6--6--6--6--6--6--6--6----|
--------------------x--4L---|--4--4--4--4--4--4--4--4----|


----------------------------|----------------------------|
----------------------------|----------------------------|
----------------------------|----------------------------|
--7-----7-----7--7--x--9L---|--9--9--9--9--9--9--9--9----|
--7-----7-----7--7--x--9L---|--9--9--9--9--9--9--9--9----|
--5-----5-----5--5--x--7L---|--7--7--7--7--7--7--7--7----|


----------------------------|----------------------------|
----------------------------|----------------------------|
--9-----9-----9--9----------|----------------------------|
--9-----9-----9--9--x--9L---|--9--9--9--9--9--9--9--9----|
--7-----7-----7--7--x--9L---|--9--9--9--9--9--9--9--9----|
--------------------x--7L---|--7--7--7--7--7--7--7--7----|


----------------------------|----------------------------|
----------------------------|----------------------------|
--9-----9-----9--9----------|----------------------------|
--9-----9-----9--9--x--9L---|--9--9--9--9--9--9--9--9----|
--7-----7-----7--7--x--9L---|--9--9--9--9--9--9--9--9----|
--------------------x--7L---|--7--7--7--7--7--7--7--7----|


----------------------------|----------------------------|
----------------------------|----------------------------|
--6-----6-----6--6----------|----------------------------|
--6-----6-----6--6--x--6L---|--6--6--6--6--6--6--6--6----|
--4-----4-----4--4--x--6L---|--6--6--6--6--6--6--6--6----|
--------------------x--4L---|--4--4--4--4--4--4--4--4----|


----------------------------|----------------------------|
----------------------------|----------------------------|
----------------------------|----------------------------|
--7-----7-----7--7--x--9L---|--9--9--9--9--9--9--9--9----|
--7-----7-----7--7--x--9L---|--9--9--9--9--9--9--9--9----|
--5-----5-----5--5--x--7L---|--7--7--7--7--7--7--7--7----|


--4-----------4-----5-----------5-----5-----4--4----|
--5-----------5-----5-----------5-----5-----5--5----|
--4-----------4-----4-----------4-----4-----4--4----|
----------------------------------------------------|
----------------------------------------------------|
----------------------------------------------------|


--4-----------4-----------------------------4--4----|
--5-----------5-----7-----------7-----7-----5--5----|
--4-----------4-----4-----------4-----4-----4--4----|
----------------------------------------------------|
----------------------------------------------------|
----------------------------------------------------|


--4-----------4-----5-----------5-----5-----4--4----|
--5-----------5-----5-----------5-----5-----5--5----|
--4-----------4-----4-----------4-----4-----4--4----|
----------------------------------------------------|
----------------------------------------------------|
----------------------------------------------------|


--4-----4-------------------|----------------------------|
--5-----5--7-----7--7--7----|----------------------------|
--4-----4--4-----4--4--4----|----------------------------|
----------------------------|--9-----9M-9M-9M-9M-9M-9M---|
----------------------------|--7-----7M-7M-7M-7M-7M-7M---|
----------------------------|----------------------------|


----------------------------|----------------------------|
----------------------------|----------------------------|
----------------------------|----------------------------|
--9M-9M-9M-9M-9M-9M-9M-9M---|--9-----9M-9M-9M-9M-9M-9M---|
--7M-7M-7M-7M-7M-7M-7M-7M---|--6-----6M-6M-6M-6M-6M-6M---|
----------------------------|----------------------------|


----------------------------|----------------------------|
----------------------------|----------------------------|
----------------------------|----------------------------|
--9M-9M-9M-9M-9M-9M-9M-9M---|----------------------------|
--6M-6M-6M-6M-6M-6M-6M-6M---|--7-----7M-7M-7M-7M-7M-7M---|
----------------------------|--5-----5M-5M-5M-5M-5M-5M---|


----------------------------|----------------------------|
----------------------------|----------------------------|
----------------------------|----------------------------|
----------------------------|----------------------------|
--7M-7M-7M-7M-7M-7M-7M-7M---|--7-----7M-7M-7M-7M-7M-7M---|
--5M-5M-5M-5M-5M-5M-5M-5M---|--5-----5M-5M-5M-5M-5M-5M---|


----------------------------|----------------------------|
----------------------------|----------------------------|
----------------------------|----------------------------|
----------------------------|--9-----9M-9M-9M-9M-9M-9M---|
--7M-7M-7M-7M-7M-7M-7M-7M---|--7-----7M-7M-7M-7M-7M-7M---|
--5M-5M-5M-5M-5M-5M-5M-5M---|----------------------------|


----------------------------|----------------------------|
----------------------------|----------------------------|
----------------------------|----------------------------|
--9M-9M-9M-9M-9M-9M-9M-9M---|----------------------------|
--7M-7M-7M-7M-7M-7M-7M-7M---|--6-----6M-6M-6M-6M-6M-6M---|
----------------------------|--4-----4M-4M-4M-4M-4M-4M---|


----------------------------|----------------------------|
----------------------------|----------------------------|
----------------------------|----------------------------|
----------------------------|----------------------------|
--6M-6M-6M-6M-6M-6M-6M-6M---|--7-----7M-7M-7M-7M-7M-7M---|
--4M-4M-4M-4M-4M-4M-4M-4M---|--5-----5M-5M-5M-5M-5M-5M---|


----------------------------|----------------------------|
----------------------------|----------------------------|
----------------------------|----------------------------|
----------------------------|----------------------------|
--7M-7M-7M-7M-7M-7M-7M-7M---|--9-----9M-9M-9M-9M-9M-9M---|
--5M-5M-5M-5M-5M-5M-5M-5M---|--7-----7M-7M-7M-7M-7M-7M---|


----------------------------|----------------------------|
----------------------------|----------------------------|
----------------------------|----------------------------|
----------------------------|--4-----4-----4--4--x--6L---|
--9M-9M-9M-9M-9--9--9--9----|--4-----4-----4--4--x--6L---|
--7M-7M-7M-7M-7--7--7--7----|--2-----2-----2--2--x--4L---|


----------------------------|----------------------------|
----------------------------|----------------------------|
----------------------------|----------------------------|
--6--6--6-----6--6--6--6----|--7-----7-----7--7--x--9L---|
--6--6--6-----6--6--6--6----|--7-----7-----7--7--x--9L---|
--4--4--4-----4--4--4--4----|--5-----5-----5--5--x--7L---|


----------------------------|----------------------------|
----------------------------|----------------------------|
----------------------------|----------------------------|
--9--9--9--9--9--9--9s------|--4-----4-----4--4--x--6L---|
--9--9--9--9--9--9--9s------|--4-----4-----4--4--x--6L---|
--7--7--7--7--7--7--7s------|--2-----2-----2--2--x--4L---|


----------------------------|----------------------------|
----------------------------|----------------------------|
----------------------------|----------------------------|
--6--6--6-----6--6--6--6----|--7-----7-----7--7--x--9L---|
--6--6--6-----6--6--6--6----|--7-----7-----7--7--x--9L---|
--4--4--4-----4--4--4--4----|--5-----5-----5--5--x--7L---|


----------------------------|----------------------------|
----------------------------|----------------------------|
----------------------------|----------------------------|
--9--9--9--9--9--9--9--9----|--9--9--9--9--9--9--9--9----|
--9--9--9--9--9--9--9--9----|--9--9--9--9--9--9--9--9----|
--7--7--7--7--7--7--7--7----|--7--7--7--7--7--7--7--7----|


----------------------------|----------------------------|
----------------------------|----------------------------|
--9-----9-----9--9----------|----------------------------|
--9-----9-----9--9--x--9L---|--9--9--9--9--9--9--9--9----|
--7-----7-----7--7--x--9L---|--9--9--9--9--9--9--9--9----|
--------------------x--7L---|--7--7--7--7--7--7--7--7----|


----------------------------|----------------------------|
----------------------------|----------------------------|
--9-----9-----9--9----------|----------------------------|
--9-----9-----9--9--x--9L---|--9--9--9--9--9--9--9--9----|
--7-----7-----7--7--x--9L---|--9--9--9--9--9--9--9--9----|
--------------------x--7L---|--7--7--7--7--7--7--7--7----|


----------------------------|----------------------------|
----------------------------|----------------------------|
--6-----6-----6--6----------|----------------------------|
--6-----6-----6--6--x--6L---|--6--6--6--6--6--6--6--6----|
--4-----4-----4--4--x--6L---|--6--6--6--6--6--6--6--6----|
--------------------x--4L---|--4--4--4--4--4--4--4--4----|


----------------------------|----------------------------|
----------------------------|----------------------------|
----------------------------|----------------------------|
--7-----7-----7--7--x--9L---|--9--9--9--9--9--9--9--9----|
--7-----7-----7--7--x--9L---|--9--9--9--9--9--9--9--9----|
--5-----5-----5--5--x--7L---|--7--7--7--7--7--7--7--7----|


----------------------------|----------------------------|
----------------------------|----------------------------|
--9-----9-----9--9----------|----------------------------|
--9-----9-----9--9--x--9L---|--9--9--9--9--9--9--9--9----|
--7-----7-----7--7--x--9L---|--9--9--9--9--9--9--9--9----|
--------------------x--7L---|--7--7--7--7--7--7--7--7----|


----------------------------|----------------------------|
----------------------------|----------------------------|
--9-----9-----9--9----------|----------------------------|
--9-----9-----9--9--x--9L---|--9--9--9--9--9--9--9--9----|
--7-----7-----7--7--x--9L---|--9--9--9--9--9--9--9--9----|
--------------------x--7L---|--7--7--7--7--7--7--7--7----|


----------------------------|----------------------------|
----------------------------|----------------------------|
--6-----6-----6--6----------|----------------------------|
--6-----6-----6--6--x--6L---|--6--6--6--6--6--6--6--6----|
--4-----4-----4--4--x--6L---|--6--6--6--6--6--6--6--6----|
--------------------x--4L---|--4--4--4--4--4--4--4--4----|


----------------------------|----------------------------|
----------------------------|----------------------------|
----------------------------|----------------------------|
--7-----7-----7--7--x--9L---|--9--9--9--9--9--9--9--9----|
--7-----7-----7--7--x--9L---|--9--9--9--9--9--9--9--9----|
--5-----5-----5--5--x--7L---|--7--7--7--7--7--7--7--7----|


----------------------------|----------------------------|
----------------------------|----------------------------|
----------------------------|----------------------------|
--9--9--9--9--9--9--9--9----|--------7--7-----7--7--7L---|
--9--9--9--9--9--9--9--9----|--------7--7-----7--7--7L---|
--7--7--7--7--7--7--7--7----|--------5--5-----5--5--5L---|


----------------------------|----------------------------|
----------------------------|--------------------10------|
----------------------------|--9-----9--9-----9--9-------|
--7--7--7--7--7--7--7--7----|--9-----9--9-----9--7-------|
--7--7--7--7--7--7--7--7----|--7-----7--7-----7--7-------|
--5--5--5--5--5--5--5--5----|----------------------------|


----------------------------|----------------------------|
----------------------------|----------------------------|
--9-----9--9-----9--9--9----|----------------------------|
--9-----9--9-----9--9--9----|--------7--7-----7--7--7L---|
--7-----7--7-----7--7--7----|--------7--7-----7--7--7L---|
----------------------------|--------5--5-----5--5--5L---|


----------------------------|----------------------------|
----------------------------|----------------------------|
----------------------------|----------------------------|
--7--7--7--7--7--7--7--7----|--9--9--9--9--9--9--9--9----|
--7--7--7--7--7--7--7--7----|--9--9--9--9--9--9--9--9----|
--5--5--5--5--5--5--5--5----|--7--7--7--7--7--7--7--7----|


----------------------------|----------------------------|-------|
----------------------------|----------------------------|-------|
----------------------------|----------------------------|-------|
--9--9--9--9--9--9--9--9L---|--9-----------------6--9L---|--9L---|
--9--9--9--9--9--9--9--9L---|--9-----7-----7-------------|-------|
--7--7--7--7--7--7--7--7L---|--7-------------------------|-------|


----------------------------|----------|----------------------------|
----------------------------|----------|----------------------------|
----------------------------|----------|----------------------------|
--9-----------------6--9L---|--9L-9b---|--9-----7--7-----6-----6L---|
--------6-----6-------------|----------|----------------------------|
----------------------------|----------|----------------------------|


----------------------------|----------------------------|
----------------------------|----------------------------|
----------------------------|----------------------------|
--6-------------------------|--9-----7--7-----6-----6L---|
-----7-----7L-7-------------|----------------------------|
----------------------------|----------------------------|


----------------------------|----------------------------|-------|
----------------------------|----------------------------|-------|
----------------------------|----------------------------|-------|
--6-------------------------|--------------------6--9L---|--9L---|
-----7-----7s----9----------|--------7-----7-------------|-------|
----------------------------|----------------------------|-------|


----------------------------|----------|----------------------------|
----------------------------|----------|----------------------------|
----------------------------|----------|----------------------------|
--9-----------------6--9L---|--9L-9b---|--9-----7--7-----6-----6L---|
--------6-----6-------------|----------|----------------------------|
----------------------------|----------|----------------------------|


----------------------------|----------------------------|
----------------------------|----------------------------|
----------------------------|----------------------------|
--6-------------------------|--9-----7--7-----6-----6L---|
-----7-----7L-7-------------|----------------------------|
----------------------------|----------------------------|


----------------------------|----------------------------|
----------------------------|----------------------------|
----------------------------|----------------------------|
--6-------------------------|--4-----4-----4--4--x--6L---|
-----7-----7s----9----------|--4-----4-----4--4--x--6L---|
----------------------------|--2-----2-----2--2--x--4L---|


----------------------------|----------------------------|
----------------------------|----------------------------|
----------------------------|----------------------------|
--6--6--6-----6--6--6--6----|--7-----7-----7--7--x--9L---|
--6--6--6-----6--6--6--6----|--7-----7-----7--7--x--9L---|
--4--4--4-----4--4--4--4----|--5-----5-----5--5--x--7L---|


----------------------------|----------------------------|
----------------------------|----------------------------|
----------------------------|----------------------------|
--9--9--9--9--9--9--9s------|--4-----4-----4--4--x--6L---|
--9--9--9--9--9--9--9s------|--4-----4-----4--4--x--6L---|
--7--7--7--7--7--7--7s------|--2-----2-----2--2--x--4L---|


----------------------------|----------------------------|
----------------------------|----------------------------|
----------------------------|----------------------------|
--6--6--6-----6--6--6--6----|--7-----7-----7--7--x--9L---|
--6--6--6-----6--6--6--6----|--7-----7-----7--7--x--9L---|
--4--4--4-----4--4--4--4----|--5-----5-----5--5--x--7L---|


----------------------------|----------------------------|
----------------------------|----------------------------|
----------------------------|----------------------------|
--9--9--9--9--9--9--9--9----|--9--9--9--9--9--9--9--9----|
--9--9--9--9--9--9--9--9----|--9--9--9--9--9--9--9--9----|
--7--7--7--7--7--7--7--7----|--7--7--7--7--7--7--7--7----|


----------------------------|----------------------------|
----------------------------|----------------------------|
--9-------------------------|----------------------------|
--9--------------------9L---|--9--9--9--9--9--9--9--9----|
--7--------------------9L---|--9--9--9--9--9--9--9--9----|
-----------------------7L---|--7--7--7--7--7--7--7--7----|


----------------------------|----------------------------|
----------------------------|----------------------------|
--9-------------------------|----------------------------|
--9--------------------9L---|--9--9--9--9--9--9--9--9----|
--7--------------------9L---|--9--9--9--9--9--9--9--9----|
-----------------------7L---|--7--7--7--7--7--7--7--7----|


----------------------------|----------------------------|
----------------------------|----------------------------|
--6-----6-----6--6----------|----------------------------|
--6-----6-----6--6--x--6L---|--6--6--6--6--6--6--6--6----|
--4-----4-----4--4--x--6L---|--6--6--6--6--6--6--6--6----|
--------------------x--4L---|--4--4--4--4--4--4--4--4----|


----------------------------|----------------------------|
----------------------------|----------------------------|
----------------------------|----------------------------|
--7-----7-----7--7--x--9L---|--9--9--9--9--9--9--9--9----|
--7-----7-----7--7--x--9L---|--9--9--9--9--9--9--9--9----|
--5-----5-----5--5--x--7L---|--7--7--7--7--7--7--7--7----|


----------------------------|----------------------------|
----------------------------|----------------------------|
--9-------------------------|----------------------------|
--9--------------------9L---|--9--9--9--9--9--9--9--9----|
--7--------------------9L---|--9--9--9--9--9--9--9--9----|
-----------------------7L---|--7--7--7--7--7--7--7--7----|


----------------------------|----------------------------|
----------------------------|----------------------------|
--9-------------------------|----------------------------|
--9--------------------9L---|--9--9--9--9--9--9--9--9----|
--7--------------------9L---|--9--9--9--9--9--9--9--9----|
-----------------------7L---|--7--7--7--7--7--7--7--7----|


----------------------------|----------------------------|
----------------------------|----------------------------|
--6-----6-----6--6----------|----------------------------|
--6-----6-----6--6--x--6L---|--6--6--6--6--6--6--6--6----|
--4-----4-----4--4--x--6L---|--6--6--6--6--6--6--6--6----|
--------------------x--4L---|--4--4--4--4--4--4--4--4----|


----------------------------|----------------------------|
----------------------------|----------------------------|
----------------------------|----------------------------|
--7-----7-----7--7--x--9L---|--9--9--9--9--9--9--9--9----|
--7-----7-----7--7--x--9L---|--9--9--9--9--9--9--9--9----|
--5-----5-----5--5--x--7L---|--7--7--7--7--7--7--7--7----|


----------------------------|----------------------------|
----------------------------|----------------------------|
--9-----9-----9--9----------|----------------------------|
--9-----9-----9--9--x--9L---|--9--9--9--9--9--9--9--9----|
--7-----7-----7--7--x--9L---|--9--9--9--9--9--9--9--9----|
--------------------x--7L---|--7--7--7--7--7--7--7--7----|


----------------------------|----------------------------|
----------------------------|----------------------------|
--9-----9-----9--9----------|----------------------------|
--9-----9-----9--9--x--9L---|--9--9--9--9--9--9--9--9----|
--7-----7-----7--7--x--9L---|--9--9--9--9--9--9--9--9----|
--------------------x--7L---|--7--7--7--7--7--7--7--7----|


----------------------------|----------------------------|
----------------------------|----------------------------|
--6-----6-----6--6----------|----------------------------|
--6-----6-----6--6--x--6L---|--6--6--6--6--6--6--6--6----|
--4-----4-----4--4--x--6L---|--6--6--6--6--6--6--6--6----|
--------------------x--4L---|--4--4--4--4--4--4--4--4----|


----------------------------|----------------------------|
----------------------------|----------------------------|
----------------------------|----------------------------|
--7-----7-----7--7--x--9L---|--9--9--9--9--9--9--9--9----|
--7-----7-----7--7--x--9L---|--9--9--9--9--9--9--9--9----|
--5-----5-----5--5--x--7L---|--7--7--7--7--7--7--7--7----|


----------------------------|----------------------------|
----------------------------|----------------------------|
--9-----9-----9--9----------|----------------------------|
--9-----9-----9--9--x--9L---|--9--9--9--9--9--9--9--9----|
--7-----7-----7--7--x--9L---|--9--9--9--9--9--9--9--9----|
--------------------x--7L---|--7--7--7--7--7--7--7--7----|


----------------------------|----------------------------|
----------------------------|----------------------------|
--9-----9-----9--9----------|----------------------------|
--9-----9-----9--9--x--9L---|--9--9--9--9--9--9--9--9----|
--7-----7-----7--7--x--9L---|--9--9--9--9--9--9--9--9----|
--------------------x--7L---|--7--7--7--7--7--7--7--7----|


----------------------------|----------------------------|
----------------------------|----------------------------|
--6-----6-----6--6----------|----------------------------|
--6-----6-----6--6--x--6L---|--6--6--6--6--6--6--6--6----|
--4-----4-----4--4--x--6L---|--6--6--6--6--6--6--6--6----|
--------------------x--4L---|--4--4--4--4--4--4--4--4----|


----------------------------|----------------------------|
----------------------------|----------------------------|
----------------------------|----------------------------|
--7-----7-----7--7--x--9L---|--9--9--9--9--9--9--9--9----|
--7-----7-----7--7--x--9L---|--9--9--9--9--9--9--9--9----|
--5-----5-----5--5--x--7L---|--7--7--7--7--7--7--7--7----|


----------------------------|----------------------------|
----------------------------|----------------------------|
----------------------------|----------------------------|
--9--9--9--9--9--9--9--9----|--6--------7L-7-------------|
--9--9--9--9--9--9--9--9----|----------------------------|
--7--7--7--7--7--7--7--7----|----------------------------|


----------------------------|----------------------------|
----------------------------|----------------------------|
----------------------------|----------------------------|
--6--------4L-4-------------|--6--------7L-7-------------|
----------------------------|----------------------------|
----------------------------|----------------------------|


----------------------------|----------------------------|
----------------------------|----------------------------|
----------------------------|----------------------------|
--6-------------------------|--6--------7L-7-------------|
--------7-------------------|----------------------------|
-----------7L-7-------------|----------------------------|


----------------------------|----------------------------|
----------------------------|----------------------------|
----------------------------|----------------------------|
--6--------4L-4-------------|--6--------7L-7-------------|
----------------------------|----------------------------|
----------------------------|----------------------------|


----------------------------|-------||
----------------------------|-------||
----------------------------|--9----||
--6--------4L-4-------------|--9----||
----------------------------|--7----||
----------------------------|-------||

comments
We did not receive enough feedback on this tab! Please rate:
1 2 3 4 5
1 comment total.
0 reply
dannecticut wrote on August 15 2013, 12:32 pm

Pleaae rate.

I want to post or [tab]
guest
You may want to rate the tab now too:
select rating
Please do not post tabs as comments. Select "correction" instead!