Oops, an error
Loading. Please wait.

Shenanigans Bass Tab

3,154 views 6 this week
4 commentsread comments
1 2 3 4 5
excellent!
x 4
add to favorites launch autoscroll
font size
0
reset
Autoscroll
+/-
esc
set tempo
stop
Contributor
WARNING: You are trying to view
                                    content from Ultimate-Guitar.com
                                    in an unauthorized application,
                                    which is prohibited.

                                    Please use an official Ultimate
                                    Guitar Tabs application for iPhone,
                                    iPad or Android to access legitimate
                                    chords, guitar, bass, and drum tabs
                                    from Ultimate-Guitar.com database.

                                    Type "ultimate guitar tabs" in Apple
                                    App Store's or Android Market's
                                    search to find the application.
Green Day Shenanigans bass album tab
Whole album tab
Tabbed by Liam
Email: guitar_rocker_47@hotmail.com
Tuning for most of the album is half a step down unless otherwise stated

Here is a bass tab for the magnificent album 'shenanigans' I hope you enjoy
it and please rate it and comment on it, thanks!

Note: if you insert this tab into Microsoft word it looks weird where the
tab overlaps it's self, to fix this just go on file, page set-up then click
on the margins tab and adjust to this: top = 0.32cm, bottom = 0.51cm,Left and
right = 3cm. The tab should now look in proportion, if it doesn't or you don't
understand leave a comment

1.Suffocate
2.Desensitized
3.You Lied
4.Outsider
5.Don't Wanna Fall In Love
6.Espionage
7.I want To Be On TV
8.Scumbag
9.Tired Of Waiting
 10.Sick of Me 
 11.Rotting
 12.Do Da Da
 13.On The Wagon
 14.Ha Ha You're Dead 

--------------------------------------------------------------------------------------
Green Day Suffocate
--------------------------------------------------------------------------------------
Intro 
G|------------------------------------------------------------------|
D|------------------------------------------------------------------|
A|-5-5-5-5-5-5-5-5-5-5-5-5-5-5-5-5-5-5-5-5-5-5-5-5-5-5-5-5-5-5-5-5--|
E|------------------------------------------------------------------|
PM ***************************************************************

Verse (comes in with the lyrics "3am im drunk again")
G|---------------------------------------------------------------------------|
D|---------------------------------------------------------------------------|
A|-5-5-5-5-5-5-5-5-5-5-5-5-5-5-5---------------------------------------------|
E|--------------------------------3-3-3-3--5-5-5-5-5-5--3-3-3-3--5-5-5-5-5-5-|
PM *****************

Pre Chorus
G|-----------------------------------------------------------------------------------|
D|-----------------------------------------------------------------------------------|
A|5-5-5-5-5-5-5-5-5-5-5-5-5-5-5-5-5-5-5-5-5-5-5-5-5-5-5-5-5-5-5-5--------------------|
E|----------------------------------------------------------------3-3-5-5-x-3-3-3-5-5|

Chorus
G|----------------------|----------------------|----------------------|
D|----------------------|----------------------|----------------------|
A|-5-5-5-5-5------------|-5-5-5-5-5------------|-5-5-5-5-5------------|
E|-----------3-3--5-5-5-|-----------3-3--5-5-5-|-----------3-3--5-5-5-|

                                    ("Suffocate, suffocate")
G|----------------------|----------------------|----------|
D|----------------------|----------------------|----------|
A|----------5-5---------|----------5-5---------|---------|
E|-3-3-3-3------5-5-5-5-|-3-3-3-3------5-5-5-5-|-3-3-5----|

Post Chorus ("suffocate, suffocate")
G|----------------------|----------------------|
D|----------------------|----------------------|
A|----------5-5---------|----------5-5---------|
E|-3-3-3-3------5-5-5-5-|-3-3-3-3------5-5-5-5-|

Interlude
G|--------------------|--------------------|
D|--------------------|--------------------|
A|---xxxx--5---xxxx---|---xxxx--5---xxxx---|
E|-3---------5-xxxx---|-3---------5-xxxx---|

Interlude part 2
G|-------------|---------------|----------------------------------|
D|-------------|---------------|----------------------------------|
A|-5-----------|-5-7-----------|-5------------5-------------------|
E|---5-3-3-3-3-|-3-7-----------|---5-3-3-3-3----5-3-3-3-3-3-3-3-3-|

Outro (played in-between guitar riffs)
G|--------------|--------------|--------------|
D|--------------|--------------|--------------|
A|--------------|--------------|--------------|
E|-3-3-3-3-3-3--|--3-3-3-3-3-3-|-3-3-3-3-3-3--|


Order

Intro
Verse x2
Pre Chorus x2
Chorus
Post Chorus
Verse x2
Pre Chorus x2
Chorus
Post Chorus
Interlude x2
Interlude part 2
Chorus
Post Chorus x2
Outro

Lyrics

(Verse)
3am im drunk again, my head is spinning round, I need my fumes
So make it stop - im getting off
Make it stop - im getting off
Sick to death with dizzy spells, im spilling my guts out, It's not what I need
So make a stop - im getting off
Make a stop - im getting off

(Pre Chorus)
Slipped into a coma once again
Where's my organ donor, lend a hand

(Chorus)
So when you think you're all alone
Now one's out to come around
Drop like flies and apathies
And I know your love 'll suffocate
And I know your love 'll suffocate

(Post Chorus)
Suffocate, suffocate

(Verse)
One-night stands and cheap regrets I take another drag, im on my sugar
So make a stop - im getting off
Make a stop - im getting off
One last stop for a one-track mind - just give me shelter, give me, give me something
Make a stop - im getting off
Make a stop - im getting off a 

(Chorus)
So when you think you're all alone
Now one's out to come around
Drop like flies and apathies
And I know your love 'll some day
And I know your love 'll suffocate

(Post Chorus)
Suffocate, suffocate

(interludes- no lyrics)

(Chorus)
So when you think you're all alone
Now one's out to come around
Drop like flies and apathies
And I know your love 'll some day
And I know your love 'll suffocate
And I know your love 'll some day
And I know your love 'll suffocate

(Post Chorus)
Suffocate, suffocate, suffocate

(Outro)

--------------------------------------------------------------------------------------
Green Day Desensitized 
--------------------------------------------------------------------------------------
This song kicks ass!

(Starts with alarm clock ringing and things being smashed up, with some shouting)

Intro/verse
G|-------------------|
D|-------------------|
A|--------3--3--3----|
E|-3-3-3----------3--|

Pre Chorus
G|----------------------------------------------------------------------------------|
D|----------------------------------------------------------------------------------|
A|----------------------------------------------------------------------------------|
E|0-0-0-0-0-0-0-0-0-0--3-3-3-3-3-3-3-3-3-3--0-0-0-0-0-0-0-0-0-0--3-3-3-3-3-3-3-3-3-3|

Chorus
G|------------------------------------------------------------------------------|
D|------------------------------------------------------------------------------|
A|0-0-0-0--------------0-0-0-0--------------3-3-3-3-----------------------------|
E|--------1-1-1-1-1-1----------1-1-1-1-1-1----------3-3-3-3--1-1-1-1-1-1-1-1-1-1|

Interlude
G|-------------------------------|
D|-------------------------------|
A|--------3-3-3------------------|
E|-3-3-3---------3-3-3-3-3-3-3-3-|

Order

Intro/verse x8
Pre Chorus
Chorus
Verse x6
Scratch ead strings
Verse x4
Pre Chorus
Chorus
Interlude x6
Pre Chorus
Chorus 
Verse x4

Lyrics

(Intro/verse)
Jimmy dean died
Head is like a sponge
Give it to me free

(Pre Chorus)
I wanna' get ripped off
And drown In the airwaves
Another fatal wreck
On the Information highway

(Chorus)
So go ahead and kill yourselves
It all amuses me
For I'll be damned to spend
My life in hell
Another wise ingrate

(Verse)
Bring me blood and pain
Of a stranger's fate
Give it all away
I'm Desensitized 
I wanna' watch the bomb
Blow the masses high

(Pre Chorus)
I wanna' get ripped off
And drown I the airwaves
Another fatal wreck
On the Information highway

(Chorus)
So go ahead and kill yourselves
It all amuses me
For I'll be damned to spend
My life in hell
Another wise ingrate

(Interlude)
Bring me blood and pain
Of a stranger's fate
Give it all away

(Pre Chorus)
I wanna' get ripped off
And drown I the airwaves
Another fatal wreck
On the Information highway

(Chorus)
So go ahead and kill yourselves
It all amuses me
For I'll be damned to spend
My life in hell
Another wise ingrate


--------------------------------------------------------------------------------------
Green Day You lied
--------------------------------------------------------------------------------------
Intro
G|--------------------|--------------------|--------------------|
D|--------------------|--------------------|--------------------|
A|--------------------|--------------------|--------------------|
E|-4-/5-5-5-5-5-5-5-5-|-4-/5-5-5-5-5-5-5-5-|-4-/5-5-5-5-5-5-5-5-|

Verse
G|---------|   |---------|   |----------|-------------------|
D|---------|x2 |---------|x4 |----------|-------------------|
A|---------|   |---------|   |----------|-------------------|
E|1/2-2-2-2|   |4/5-5-5-5|   |1/2-2-2-2-|-1/2-2-2-2-2-2-2-2-|

Chorus
G|---------------------------------------------|
D|---------------------------------------------|
A|-7-7-7-7--5-5-5-5-5-5---7-7-7-7--5-5-5-5-5-5-|
E|---------------------------------------------|

Verse 2
G|---------|------------|------------|------------|------------|------------|
D|---------|------------|------------|------------|------------|------------|
A|---------|------------|------------|------------|------------|------------|
E|-5-5-5-5-|-4-/5-5-5-5-|-4-/5-5-5-5-|-4-/5-5-5-5-|-4-/5-5-5-5-|-4-/5-5-5-5-|

G|---------|   |---------|   |----------|-------------------|
D|---------|x2 |---------|x4 |----------|-------------------|
A|---------|   |---------|   |----------|-------------------|
E|1/2-2-2-2|   |4/5-5-5-5|   |1/2-2-2-2-|-1/2-2-2-2-2-2-2-2-|

Bridge
G|---------|------------|------------|
D|---------|------------|------------|
A|---------|------------|------------|
E|-5-5-5-5-|-4-/5-5-5-5-|-4-/5-5-5-5-|

Outro   
G|---------|------------|   |----------|
D|---------|------------|x5 |----------|
A|---------|------------|   |----------|
E|-5-5-5-5-|-4-/5-5-5-5-|   |-5-5-5-5--|

Order

Intro
Verse
Chorus x2
Verse 2
Chorus x2
Bridge x6 (err.. I think? Its x6)
Chorus x2
Outro


Lyrics

(Intro)
You got a problem you just can't hide
Compulsive habits that just don't seem to die

(Verse)
Your breath is stinking up all the air			
Your teeth are rotting 2 black holes in your head

(Chorus)
Well reality is due
What you say just can't be true
Your story's stretched					
A toe far-fetched
And you're lacking an excuse
You lied

(Verse 2)
You mom allowed you just one white lie
But now she thinkin' she left you with a problem		
Pinnochio has bit your tongue
Your nose is growing into the 3rd dimension

(Chorus)
Well reality is due
What you say just can't be true
Your story's stretched					
A toe far-fetched
And you're lacking an excuse
You lied

(Solo)

(Chorus)
Well reality is due
What you say just can't be true
Your story's stretched					
A toe far-fetched
And you're lacking an excuse
You lied


--------------------------------------------------------------------------------------
Green Day Outsider
--------------------------------------------------------------------------------------

Verse
G|---------------------------------------------------------------|
D|---------------------------------------------------------------|
A|---------------------------------------------------------------|
E|-5-5-5-5-5-5-5-5-5-5-5-5--3-3-3-3-3-3-3-3-3-3-3-3--3-3-5-5-7-5-|

Chorus
G|---------------------------------|---------------------------------|
D|---------------------------------|---------------------------------|
A|-------------------------------5-|-------------------------------5-|
E|-3-3-3-3-3-3-3-3-3-3-3-3--5-5----|-3-3-3-3-3-3-3-3-3-3-3-3--5-5----|

Solo (this is what bass plays while guitar plays a solo)
G|-----------------------------------------------------------------------------|
D|-----------------------------------------------------------------------------|
A|-4-4-4-4-----------------------------------4-4-4-4---------------------------|
E|----------4-4-4-4-4-4-2-2-2-2-2-2-2-2-2-2-----------4-4-4-4-4-4--7-7-7-7-7-7-|

G|---------|
D|---------|
A|---------|
E|-7-7-7-7-|

Order

Verse x4
Chorus
Verse x4
Chorus x4
Solo x2
Chorus x2
Verse x4
Chorus x1 and a half


Lyrics

(Verse)
Im an outsider, outside of everything 
Im an outsider, outside of everything
Im an outsider, outside of everything
Everything in the world, everything in the world
That concerns my so

(Chorus - no lyrics)

(Verse)
Im an outsider, outside of everything 
Im an outsider, outside of everything
Im an outsider, outside of everything
Everything in the world, everything in the world
That concerns my so

(Chorus)
Everybody's gotta push me, push me around
Everybody try to put me, try put me down

(Solo)
Understood every word, ive already had all my fun
More troubles are gonna come, ive already had all my fun
Oh yea yea yeah, 

(Chorus)
Everybody's gotta push me, push me around
Everybody try to put me, try put me down

(Verse)
Im an outsider, outside of everything 
Im an outsider, outside of everything
Im an outsider, outside of everything
Everything in the world, everything in the world
That concerns my so


--------------------------------------------------------------------------------------
Green Day Don't wanna fall in love
--------------------------------------------------------------------------------------
Tuning standard

Main Riff	 (pick this down up, down up, down up. Etc.)
G|-------------------|
D|-------------------|
A|-6-6-6-6-6-x-x-6-6-|
E|-------------------|
   
Riff 2
G|-------------------|
D|-------------------|
A|-------------------|
E|-4-4-4-4-4-4-4-4-4-|

Chorus
G|----------------------|
D|----------------------|
A|--------------------6-|
E|-4-4-4-4-4-4-4-4-4----|

Outro
G|----------------------------------|
D|----------------------------------|
A|--------------------6-6-6-6-------|
E|-4-4-4-4-4-4-4-4-4-----------4-6--|



Order

Main Riff x12 (when on the 11th and 12th repeat miss out the scratch) 
Riff 2 
Main Riff x2 
Chorus  
Main Riff x10 (when on the 9th and 10th repeat miss out the scratch) 
Riff 2 
Main Riff x2  
Chorus 
Main Riff x3 

Main riff x7 \ 
Riff 2         guitar solo in background here 
Main riff x2 / 
 
Chorus 
Main Riff x2 
Chorus
Main Riff x2
Outro 
Main Riff x4 


Lyrics

(Verse main riff)
Don't want to have you hanging
Around me like a leech 
I think you're just a problem
So stay the hell away from me
Because I don't believe in you

(Riff 2)
And I wanna sit here all my life alone

(Chorus)
This may sound a little ruff, don't wanna fall in Love

(Verse 2. main riff)
Don't need some charity
I Ain't not dog to find a bone
Don't have no time for love
So stay the fuck away from me 
Cos I don't believe in you

(Riff 2)
And I wanna sit here all my life alone

(Chorus)
This may sound a little ruff, don't wanna fall in Love

(Solo)

(Chorus)
This may sound a little ruff, don't wanna fall in Love

(Chorus)
This may sound a little ruff, don't wanna fall in Love

(Outro)
This may sound a little fucked, don't wanna fall in Love


--------------------------------------------------------------------------------------
Green Day espionage
--------------------------------------------------------------------------------------
Tuning standard

Im not sure on this one I have put that bass plays basically the same as guitar I cud
be wrong but it sounds that way

Riff 1
G|-------------------------------------|
D|-------------------------------------|
A|----------2-2----1-1--0----0-0-------|
E|-0-0--3-3-----3---------3------3-2-1-|

Riff 2
G|-------------------------------------|
D|----------2-2----1-1--0----0-0-------|
A|-0-0--3-3-----3---------3------3-2-1-|
E|-------------------------------------|

Riff 3
G|------------------------------------------------------------------------------|
D|------------------------------------------------------------------------------|
A|-2-2-2-2-2--3-3-3-3-3--2-2-2-2-2--3-3-3-3-3--2-2-2-2-2-2-2-2-2-2--3-3-3-3-3-3-|
E|------------------------------------------------------------------------------|

G|----------------------|
D|----------------------|
A|-3-3--2-2-2-2-2-2-2-2-|
E|----------------------|

Riff 4
G|------------------------------------------------------------------------------|
D|------------------------------------------------------------------------------|
A|-2-2-2-2-2--3-3-3-3-3--2-2-2-2-2--3-3-3-3-3--2-2-2-2-2-2-2-2-2-2--3-3-3-3-3-3-|
E|------------------------------------------------------------------------------|

G|-------------------------|
D|-------------------------|
A|-3-3--2-2-2-2-2-2-2-2----|
E|-----------------------0-|

Order
Intro  x1
Riff 1 x6
Riff 2 x2
Riff 1 x2
Riff 3 x1
Riff 1 x4
Riff 2 x2
Riff 1 x2
Riff 3 x1
Riff 1 x4
Riff 2 x2
Riff 1 x2
Riff 4 x1
Riff 1 x4
Riff 2 x2
Riff 1 x2
Riff 4 x1


--------------------------------------------------------------------------------------
Green Day I wanna be on TV
--------------------------------------------------------------------------------------
Intro/verse
G--------------------------------------|
D|--------------------------------------|
A|-3-3-3-3-3-x-x-3-1--3-3-3-3-3-x-x-3-1-|
E|--------------------------------------|

Chorus
G|--------------------------------------------|
D|--------------------------------------------|
A|-1-1-1-1--3-3-3-3-3--4-4-4-4-4--5-5-5-6-6-6-|
E|--------------------------------------------| 

End 
G|-----|
D|-----|
A|-3~~-|
E|-----|

Order

Intro/verse x4
Chorus x2
Verse x2
Chorus x2
Verse x2
Chorus x2
Verse x2
End


Lyrics (sorry about the lyrics, they suck I know but its better than nuthin)

(Intro/verse)
Wanna be a pretty boy
Wanna go on solid gold
Wanna date a millionaire
Wanna make big bucks, yeah!

(Chorus)
I wanna be on T.V, want people to know me
I wanna be on T.V

(Verse)
Studio 54, gonna be down on the floor
Wanna make people dance
Gonna take off my pants

(Chorus)
I wanna be on T.V, want people to know me
I wanna be on T.V

(Verse)
fantasy (??????????????????????)
going into 
Wanna wear my Calvin kliens
Underwear will be mine

(Chorus)
I wanna be on T.V, want people to know me
I wanna be on T.V


--------------------------------------------------------------------------------------
Green Day Scumbag
--------------------------------------------------------------------------------------
Tuning standard

Verse
G|-----------------------------------------------------------------|
D|-----------------------------------------------------------------|
A|-------2--2-2-2-2-2-2-2-2-2-2---------2--2-2-2-2-2-2-2-2-2-2-2-2-|
E|-0-2-0--------------------------0-2-0----------------------------|

G|-----------------------------------------------------------------|
D|-----------------------------------------------------------------|
A|-----------------------------------------------------------------|
E|-0-2-0--0-0-0-0-0-0-0-0-0-0-0-0---0-2-0--0-0-0-0-0-0-0-0-0-0-0-0-|

Chorus 
G|------------------------------------------------------------------------|
D|------------------------------------------------------------------------|
A|---------------------------------2-2-2-2-2-2-2-2-2-2-2-2----------------|
E|-0-2-0--4-4-4-4-4-4-4-4-4-4-4-4---------------------------4-4-4-4-4-4-4-|

G|----------------------|
D|----------------------|
A|----------------------|
E|-4-4-4-4-4--2-2-2-2-2-|


Order

Verse x2
Chorus
Verse x2
Chorus
Verse x2 (with guitar playing a solo in background)
Chorus


Lyrics

(Verse)
You come around every now and then
You look so different but you're still the same
Why else would you come here - Scumbag on a mission
You're telling me that it's been a while
(??????????) And a brand new life
Somebody let you come here - Scumbag with permission

(Chorus)
Never thought I'd see the likes of you round this place
Whats the special occasion did you run of out friends

(Verse)
Here you are coming right again, and things are
Different but you still pretend
You've got a reason to come here - scumbag with ambition 
Now you tell me that things have changed
And you'll be leaving in a couple days
Your gonna change the world someday - scumbag with a vision

(Chorus)
It must be nice to know you got it all figured out
But from where im sitting - it's the same thing again and again

(Solo - no lyrics)

(Chorus)
You never stopped to think before you opened up your mouth
Cos' every time you do - it's the same thing again and again
 


--------------------------------------------------------------------------------------
Green Day Tired of waiting for you
--------------------------------------------------------------------------------------
Sorry I couldn't work this out 


--------------------------------------------------------------------------------------
Green Day Sick of me
--------------------------------------------------------------------------------------
Verse
G|-----------------------------------------------|
D|-----------------------------------------------|
A|--------------------------3-3------------------|
E|-3-3-3-3-3-3-3-3-3-3-3-3-------1-3-3-3-3-3-3-3-|

Chorus
G|----------------------------------------------------------------------|
D|----------------------------------------------------------------------|
A|-3-3-3-3---------------3-3---3-3-5--3-3-3-3---------------3-3---3-3-5-|
E|----------3-3-3-3-3-3------3-----------------3-3-3-3-3-3------3-------|

G|-----------------|
D|-----------------|
A|-5-5-5-5-5-5-5-5-|
E|-----------------|

Interlude
G|-------------------------------------|
D|-------------------------------------|
A|-3-3/5-5-5-5-5-5-5-5-5-5-5-5-5-5-5-5-|
E|-------------------------------------|


Order

Verse x4
Chorus
Verse x4
Chorus
Interlude x4
Verse x4
Chorus
Interlude x4


Lyrics

(Verse)
Why cant you just admit it, you've had it, you're sick of me
Your fed up with all my bad habits, you're sick of me
Telling lies you become so desensitised, sick of me
Lots of regrets I can see that you've had a few, sick of me

(Chorus)
Walking out of the door - I am on to you
Coming back for more - Am I losing you?

(Verse)
Like a dog that just pissed on your barbecue, sick of me
Losing faith and you still don't know what to do, sick of me
Lots of love - now you hate everything, sick of me
It's a waste but we still keep on trying, you're sick of me

(Chorus)
Walking out of the door - I am on to you
Coming back for more - Am I losing you?

(Interlude)
Say you got your problems
Say you've got your rage
Do you have a conscience? 
Do you have a (????) now im sick of you too

(Verse - with no lyrics)

(Chorus)
Walking out of the door - I am on to you
Coming back for more - Am I losing you?


--------------------------------------------------------------------------------------
Green Day Rotting
--------------------------------------------------------------------------------------
Tuning standard

Intro/verse
G|--------------------------------------------------------------------|
D|--------------------------------------------------------------------|
A|-3-3-3-3-3-3-3-3------------------------------------3-3-3-3-3-3-3-3-|
E|------------------3-3-3-3-3-3-3-3--1-1-1-1-1-1-1-1------------------|

G|--------------------------------------------------------------------|
D|--------------------------------------------------------------------|
A|-----------------------------------3-3-3-3-3-3-3-3------------------|
E|-1-1-1-1-1-1-1-1--1-1-1-1-1-1-1-1-------------------3-3-3-3-3-3-3-3-|

Chorus part 1
G|-----------------|
D|-----------------|
A|---3---3---0-----|
E|--------------3--|

Chorus part 2
G--------------------------------------------------|
D|-------------------------------------------------|
A|-------------------------------------------------|
E|-4-4-4-4-4-4-4-4-3-3-3-3-3-3-3-3-3-3-3-3-3-3-3-3-|

Outro
G|--------------------------------------------------------------------|
D|--------------------------------------------------------------------|
A|-----------------------------------3-3-3-3-3-3-3-3------------------|
E|-1-1-1-1-1-1-1-1--1-1-1-1-1-1-1-1-------------------3-3-3-3-3-3-3-3-|

Guitar 1
G|-----------|
D|-----------|
A|-------3~~-|
E|-1--1------|


Order

Intro/verse
Intro/verse
Intro/verse
Chorus part 1 x3
Chorus part 2
Verse 
Verse
Chorus part 1 x3
Chorus part 2
(rest while guitar plays half the verse)
Verse (With guitar 2)
Outro


Lyrics

(Intro/verse - no lyrics)

(Intro/verse)
Im rotting inside, my flesh turns to dust
Whisper are you dying in my head
Im so sick to death, tumour's in my head
Whisper are you dying in my head

(Chorus part 1)
Red rose of death
In my fist I clutch
Thorn shred my fingertips

(Chorus part 2)
And drips toxic blood

(Intro/verse)
Kiss me one last time, mop off my sweat
Whisper are you dying in my head
As my bones lay rest, weave vows of trust
Whisper are you dying in my head

(Chorus part 1)
Red rose of death
In my fist I cultch
Thorn shred my fingertips

(Chorus part 2)
And drips toxic blood

(Intro/verse)
Im rotting inside, my flesh turns to dust
Whisper are you dying in my head

(Intro/verse)
Kiss me one last time, mop off my sweat
Whisper are you dying in my head

(Outro)
Whisper are you dying in my head


--------------------------------------------------------------------------------------
Green Day Do da da
--------------------------------------------------------------------------------------
Tuning standard

Intro
G|------------------------------------------------------------|
D|------------------------------------------------------------|
A|----6-6-6-6-6-----6-6-6-6-6-----6-6-6-6-6--4-4-4--6-6-6-----|
E|-4-------------4-------------4------------------------------|

Verse 
G|------------------------------------------------------------------------|
D|------------------------------------------------------------------------|
A|----------6-6-6-6--4-4-4-4--------------------6-6-6-6--4-4-4-4—---------|
E|-4-4-4-4--------------------4-4-4-4--4-4-4-4--------------------4-4-4-4-|

Chorus
G|------------------------------------|-----------------------------------|
D|------------------------------------|-----------------------------------|
A|----------4-4-4-4-----------6-6-6-6-|----------4-4-4-4-----------6-6-6-6|
E|-1-1-1-1-----------1-1-1-1----------|-1-1-1-1-----------1-1-1-1---------|

G|------------------|
D|------------------|
A|-6-6-6-6--6-6-6-6-|
E|------------------|

Order

Intro
Verse
Chorus
Verse
Chorus
Intro x2
Chorus (hold last chord for a bit)


Lyrics (sorry I cudnt work um out)



--------------------------------------------------------------------------------------
Green Day On the wagon
--------------------------------------------------------------------------------------
Tuning standard
This is a difficult rhythm to pick, but keep it at cos' it sounds so sweet when you get it.

Intro
G|----------------------------------------------------------------------|
D|----------------------------------------------------------------------|
A|-----------------------------------2-2-2-2-2-2-2-2--2-2-2-2-2-2-2-2---|
E|-2-2-2-2-2-2-2-2--2-2-2-2-2-2-2-2-------------------------------------|
PM ******************************************************************

G|----------------------------------------------------------------------|
D|----------------------------------------------------------------------|
A|------------------4-4-4-4-4-4-4-4-------------------------------------|
E|-2-2-2-2-2-2-2-2-------------------2-2-2-2-2-2-2-2--2-2-2-2-2-2-2-2---|
PM ******************************************************************

Verse (lyrics come in here)
G|----------------------------------------------------------------------|
D|----------------------------------------------------------------------|
A|-----------------------------------2-2-2-2-2-2-2-2--2-2-2-2-2-2-2-2---|
E|-2-2-2-2-2-2-2-2--2-2-2-2-2-2-2-2-------------------------------------|
PM ******************************************************************

G|----------------------------------------------------------------------|
D|----------------------------------------------------------------------|
A|-----------------------------------4-4-4-4-4-4-4-4--4-4-4-4-4-4-4-4---|
E|-2-2-2-2-2-2-2-2--2-2-2-2-2-2-2-2-------------------------------------|
PM ******************************************************************

Chorus
G|--------------------------------------------------------------------------|
D|--------------------------------------------------------------------------|
A|2-2-2-2-2-2-2-2------------------------------------2-2-2-2-2-2-2-2-2-2-2-4|
E|-----------------1-2-2-2-2-2-2-2--1-2-2-2-2-2-2-2-------------------------|
PM***************                                    ***********************

Outro
G|----------------------------------------------------------------------|
D|----------------------------------------------------------------------|
A|-----------------------------------2-2-2-2-2-2-2-2--2-2-2-2-2-2-2-2---|
E|-2-2-2-2-2-2-2-2--2-2-2-2-2-2-2-2-------------------------------------|
PM ******************************************************************

G|---------------------------------------------------------------------|
D|----------------------(pause)----------------------------------------|
A|------------------4#-------------------------------------------------|
E|-2-2-2-2-2-2-2-2------------------2-2-2-2-2-2-2-2--2-2-2-2-2-2-2-2---|
PM ******************               ********************************

G|----------------------------------------------------------------------|
D|----------------------------------------------------------------------|
A|--4-4-4-4-4--4#-------------------------------------------------------|
E|-----------------2-2-2-2-2-2-2-2--2-2-2-2-2-2-2-2--2-2-2-2-2-2-2-2----|
PM ******************************************************************



Order

Intro
Verse
Intro
Chorus
Intro (but rest after you play |4xxxxx| once, and then continue
Verse x2 (guitar solo in background)
Chorus
Outro


Lyrics

(Intro - no lyrics)

(Verse)
Sometimes it gets real hard, and I need some kind of helpers
For a heat twice the size of my one inch mind

(Intro
So slap my on the head put in right back down in my pants
Turn my around and around kick me in the head 

(Chorus)
Well today I say sweet things, but tomorrow...
I'll be making up excuses for my actions cos' its been
So long

(Intro)
Since Ive be in the, the special kind of feeling 
Guess my best excuse im on the wagon again. Ahhhh ey!

(Solo - no lyrics)

(Chorus)
Well today I say sweet things, but tomorrow...
I'll be making up excuses for my actions cos' its been
So long

(Outro
Since Ive be in that, that special kind of feeling 
Guess my best excuse im on the wagon again.
Well ive got no real excuse im on the wagon again. Oii,
(Clapping) and Billie Joe saying "well done"



--------------------------------------------------------------------------------------
Green Day HA HA you're dead
--------------------------------------------------------------------------------------
The verse says all PM even though there are a few open chords played in between but they
are mostly improvised, so play the opens whenever you feel like it

Verse
G|--------------------------------------------------------------------|
D|--------------------------------------------------------------------|
A|-3-3-3-3-3-3-3-3----------------------------------------------------|
E|------------------3-3-3-3-3-3-3-3--5-5-5-5-5-5-5-5--5-5-5-5-5-5-5-5-|
Pm ******************************************************************

Pre-Chorus
G|----------------------------------|
D|----------------------------------|
A|----------------------------------|
E|-1-1-1-3-3-3-3-3--3-3-3-3-3-3-3-3-|

Chorus
G|--------------------------------------------------------------------|
D|--------------------------------------------------------------------|
A|-3-3-3-3-3-3-3-3-------------------3-3-3-3-3-3-3-3------------------|
E|------------------1-1-1-1-1-1-1-1-------------------3-3-3-3-3-3-3-3-|

G|--------------------------------------------------------------------|
D|--------------------------------------------------------------------|
A|-----------------------------------3-3-3-3----------3-3-3-3-3-3-3-3-|
E|-5-5-5-5-5-5-5-3--1-1-1-1-1-1-1-1----------3-3-3-3------------------|

End With |x3xxxx|


Verse x6
Pre-Chorus x4
Verse x4
Pre-Chorus
Chorus 
Chorus (guitar solo in background)
Chorus
Chorus (guitar solo in background)
Chorus

Lyrics

(Verse)
How do you get your sleep at night?
How did you get your news so tight?
Like chewing on tin foil its so much fun
Gonna be dead before your gone

(Pre Chorus)
Because all the things are coming
And I'll be happy so I wont be dead
And I'll be cheering cos your goin down 
And I'll be laughing, I'll be laughing

(Verse)
How many feelings can you steal?
Gonna be part of your appeal
I can see through you - cos'
You're wearing thin
Like chewing on tin foil once again

(Pre Chorus)
Because all the things are coming
And I'll be happy so I wont be dead
And I'll be cheering cos your goin down 
And I'll be laughing

(Chorus)
Ha ha your dead and im so happy
In loving memory of your demise
When your ship is goin down
I'll go out and paint the town
Ha ha you're dead; ha ha you're dead
Ha ha you're dead

(Solo)
Ha ha ha

(Chorus)
Ha ha your dead and im so happy
In loving memory of your demise
When your ship is goin down
I'll go out and paint the town
Ha ha you're dead; ha ha you're dead
Ha ha you're dead

(Chorus + solo)
Ha ha your dead, thank god its over
You were an ass hole and now your gone
As your ship is goin down 
I'll stand by and watch you drown
Ha ha you're dead; ha ha you're dead
Ha ha you're dead

(End chorus)
Ha ha your dead your gonna be dead
Just remember what I said 
Ha ha you're dead; ha ha you're dead
Ha ha you're dead



There you go everyone any problems, questions, comments, suggestions
or just general comments please feel free to leave in the comments area
or email me if you prefer but I will not be able to answer emails for a
while but I still will answer them. Thanks guys please rate this. BYE
comments
print report bad tab
4 comments total. Showing first comments.
0 reply
letterbomb15 wrote on April 10 2006, 06:03 pm

thanks man i been lookin for this tab for ever im new here good lookin out for the bass players

0 reply
johnny@ngel wrote on December 13 2006, 06:16 pm

great tabs even includes the lyrics sounds great 5 stars

0 reply
Liam wrote on December 14 2006, 06:04 am

thanks guys, glad you like the tab

I want to post or [tab]
guest
You may want to rate the tab now too:
select rating
Please do not post tabs as comments. Select "correction" instead!