Oops, an error
Loading. Please wait.

Shenanigans Tab

ver1
ver1

Album

More versions @911Tabs.com
5,791 views 3 this week
4 commentsread comments
1 2 3 4 5
accurate
x 4
add to favorites launch autoscroll
font size
0
reset
Autoscroll
+/-
esc
set tempo
stop
Contributor
WARNING: You are trying to view
                                    content from Ultimate-Guitar.com
                                    in an unauthorized application,
                                    which is prohibited.

                                    Please use an official Ultimate
                                    Guitar Tabs application for iPhone,
                                    iPad or Android to access legitimate
                                    chords, guitar, bass, and drum tabs
                                    from Ultimate-Guitar.com database.

                                    Type "ultimate guitar tabs" in Apple
                                    App Store's or Android Market's
                                    search to find the application.
this is green days newist album , and i think one of their best. 

By:Andrew (Guitarguyx182@belg88.com)

1.Suffocate

Intro
e|-------------3-2-----------------------------------------------------------|
B|------------------3/2------------------------------------------------------|
G|-5/6-6-6-6-----------------------------------------------------------------|
D|-5/6-6-6-6-----------------------------------------------------------------|
A|-3/4-4-4-4-----------------------------------------------------------------|
E|---------------------------------------------------------------------------|
  Pm........
Verse
e|---------------------------------------------------------------------------|
B|---------------------------------------------------------------------------|
G|-6-6-6-6-6-6-6------------------------6-6-6-6------------------------------|
D|-6-6-6-6-6-6-6--4--6--4--6-x2-4-4-4-4-6-6-6-6-4-4-4-4--6-6-6-6-------------|
A|-4-4-4-4-4-4-4--4--6--4--6----4-4-4-4-4-4-4-4-4-4-4-4--6-6-6-6-------------|
E|----------------2--4--2--4----2-2-2-2---------2-2-2-2--4-4-4-4-------------|
  Pm......
Chorus
e|---------------------------------------------------------------------------|
B|---------------------------------------------------------------------------|
G|-6---------6--------6------------6-----------6------------6-----6----------|
D|-6--4--6---6--4--6--6-4-6----4-4-6--6--4-4---6---6--4--6--6--6--6--6-------|
A|-4--4--6---4--4--6--4-4-6----4-4-4--6--4-4---4---6--4--6--4--6--4--6-------|
E|----2--4------2--4----2-4----2-2----4--2-2-------4--2--4-----4-----4-------|
Outro
e|---------------------------------------------------------------------------|
B|---------------------------------------------------------------------------|
G|-----6-------------6-------------6--------------6--------------------------|
D|-4---6----6----4---6---6-----4---6---6-------6--6--------------------------|
A|-4---4----6----4---4---6-----4---4---6-------6--4--------------------------|
E|-2--------4----2-------4-----2-------4~~~~---4-----------------------------|

2.Desensitized

Intro/Verse
e|---------------------------------------------------------------------------|
B|---------------------------------------------------------------------------|
G|---------5--5--5-----------------------------------------------------------|
D|-5--5-5--5--5--5--5--------------------------------------------------------|
A|-5--5-5--3--3--3--5--------------------------------------------------------|
E|-3--3-3-----------3--------------------------------------------------------|
Chorus
e|---------------------------------------------------------------------------|
B|---------------------------------------------------------------------------|
G|--------------------------5------------------------------------------------|
D|-2--5--2--5--7--3---7--3--5---5----3---------------------------------------|
A|-2--5--2--5--7--3---7--3--3---5----3---------------------------------------|
E|-0--3--0--3--5--1---5--1------3----1---------------------------------------|
Verse 2 
(Guitar 1)                        |(Guitar 2)
e|--------------------------------|------------------------------------------|
B|--------------------------------|------------------------------------------|
G|-------5-5-5--------------------|------------------------------------------|
D|-5-5-5-5-5-5--5-----------------|--5-5-5-5-5-------------------------------|
A|-5-5-5-3-3-3--5-----------------|--5-5-5-5-5-------------------------------|
E|-3-3-3--------3-----------------|--3-3-3-3-3-------------------------------|
                                   Pm...........
Outro
e|----------------------------------12*--------------------------------------|
B|----------------------------------12*--------------------------------------|
G|-------5-5-5-----------5-5-5------12*--------5-5-5-------------------------|
D|-5-5-5-5-5-5-5--5-5-5--5-5-5------12*--5-5-5-5-5-5-5-----------------------|
A|-5-5-5-3-3-3-5--5-5-5--3-3-3-5----12*--5-5-5-3-3-3-5-----------------------|
E|-3-3-3-------3--3-3-3--------3----12*--3-3-3-------3-----------------------|

3.You Lied

4.Outsider

Intro
e|---------------------------------------------------------------------------|
B|---------------------------------------------------------------------------|
G|---------------------------------------------------------------------------|
D|-7-7-7-7-7-7-5-5-5-5-5-5---------------------------------------------------|
A|-7-7-7-7-7-7-5-5-5-5-5-5---------------------------------------------------|
E|-5-5-5-5-5-5-3-3-3-3-3-3---------------------------------------------------|
Verse
e|---------------------------------------------------------------------------|
B|---------------------------------------------------------------------------|
G|---------------------------------------------------------------------------|
D|-7-7-7-7-7-7-5-5-5-5-5-5---------------------------------------------------|
A|-7-7-7-7-7-7-5-5-5-5-5-5---------------------------------------------------|
E|-5-5-5-5-5-5-3-3-3-3-3-3-3-3-5-5-7-5---------------------------------------|
Chorus
e|---------------------------------------------------------------------------|
B|---------------------------------------------------------------------------|
G|---------------------------------------------------------------------------|
D|---------------------------------------------------------------------------|
A|---------------------------------------------------------------------------|
E|-3-3-3-3-3-3-5-5-5-5-5-5---------------------------------------------------|
Bridge
e|---------------------------------------------------------------------------|
B|---------------------------------------------------------------------------|
G|-6-6-6-6-------------------6-6-6-6-----------------------------------------|
D|-6-6-6-6--6-6-6-6-4-4-4-4--6-6-6-6--6-6-6-6-9-9-9-9------------------------|
A|-4-4-4-4--6-6-6-6-4-4-4-4--4-4-4-4--6-6-6-6-9-9-9-9------------------------|
E|----------4-4-4-4-2-2-2-2-----------4-4-4-4-7-7-7-7------------------------|


5.Don't Wanna Fall In Love
Verse
e|---------------------------------------------------------------------------|
B|---------------------------------------------------------------------------|
G|-8-8--8-8--8-8-8-8-8-------------------------------------------------------|
D|-8-8--8-8--8-8-8-8-8-------------------------------------------------------|
A|-6-6--6-6--6-6-6-6-6-------------------------------------------------------|
E|---------------------------------------------------------------------------|
Chorus
e|---------------------------------------------------------------------------|
B|---------------------------------------------------------------------------|
G|----------8-8-8-8----------------------------------------------------------|
D|-6-6-6-6--8-8-8-8--8-6-----------------------------------------------------|
A|-6-6-6-6--6-6-6-6--8-6-----------------------------------------------------|
E|-4-4-4-4-----------6-4-----------------------------------------------------|
Solo
e|---------------------------------------------------------------------------|
B|---------------------------------------------------------------------------|
G|-3-3-3-5-3-3----3-3-3-5-3---3-3-3-3-3-5-3-3---3-3-3-5-3--3-3-3-5-3---3-----|
D|-------------5------------5-----------------5-----------5----------5-------|
A|---------------------------------------------------------------------------|
E|---------------------------------------------------------------------------|

e|--------------------------15-14-12-4/11------------------------------------|
B|-------------7-6-----------------------------------------------------------|
G|-1-1-1--5-8------8--5--3---------------------------------------------------|
D|-----------------------------------------8-6-------------------------------|
A|-----------------------------------------8-6-------------------------------|
E|-----------------------------------------6-4-------------------------------|

6. Espionage

e|-0-------------------------------------------------------------------------|
B|-0-------------------------------------------------------------------------|
G|-0-------------------------------------------------------------------------|
D|-2-------------------------------------------------------------------------|
A|-2----------2-2----1-1-0----0-0---------------2-2--1-1-0----0-0------------|
E|-0--0-0-3-3------3-------3------3-2--0-0--3-3-----3------3------3-2--------|

e|---------------------------------------------------------------------------|
B|---------------------------------------------------------------------------|
G|---------------------------------------------------------------------------|
D|---------------------------------------------------------------------------|
A|---------2-2----1-1-0---0-0----------------2-2---1-1-0----0----------------|
E|-0-0-3-3------3-------3------3-2---0-0-3-3-----3--------3---3-2------------|

e|---------------------------------------------------------------------------|
B|---------------------------------------------------------------------------|
G|-----------------------------------9---------------------------------------|
D|-9-9-9-9-9-10-10-10-10-------------9---------------------------------------|
A|-9-9-9-9-9-10-10-10-10---------x3--7---------------------------------------|
E|-7-7-7-7-7-8--8--8--8--8/10/8----------------------------------------------|

7. I want to be on TV 

Intro/Verse
e|---------------------------------------------------------------------------|
B|---------------------------------------------------------------------------|
G|-5-5-5-3-5-5-5-3-5-5-5-3---------------------------------------------------|
D|-5-5-5-3-5-5-5-3-5-5-5-3---------------------------------------------------|
A|-3-3-3-1-3-3-3-1-3-3-3-1---------------------------------------------------|
E|---------------------------------------------------------------------------|
Chorus
e|---------------------------------------------------------------------------|
B|---------------------------------------------------------------------------|
G|---4-5-6-7-----------------------------------------------------------------|
D|-7-4-5-6-7-----------------------------------------------------------------|
A|-7-2-3-4-5-----------------------------------------------------------------|
E|-5-------------------------------------------------------------------------|

8.Scumbag
Verse
e|---------------------------------------------------------------------------|
B|---------------------------------------------------------------------------|
G|-----4-4-4-----4-4-4-------------------------------------------------------|
D|-2-4-4-4-4-2-4-4-4-4-4-2-2-2-2---------------------------------------------|
A|-2-4-2-2-2-2-4-2-2-2-4-2-2-2-2---------------------------------------------|
E|-0-2-------0-2-------2-0-0-0-0---------------------------------------------|
Chorus
e|---------------------------------------------------------------------------|
B|---------------------------------------------------------------------------|
G|-------------4-4-4-4-------------------------------------------------------|
D|-2-4-6-6-6-6-4-4-4-4-4-6-6-6-6-4-4-4-4-------------------------------------|
A|-2-4-6-6-6-6-2-2-2-2-4-6-6-6-6-4-4-4-4-------------------------------------|
E|-0-2-4-4-4-4---------2-4-4-4-4-2-2-2-2-------------------------------------|
Solo
e|---------------------------------------------------------------------------|
B|-4-4-2-4-4-2-4-2----4-4-2-4-4-2-4-7-7--------------------------------------|
G|------------------4---------------------4-4-4-4-3-3-3-1-1-1-1--------------|
D|---------------------------------------------------------------4--4-4------|
A|---------------------------------------------------------------------------|
E|---------------------------------------------------------------------------|

e|---------------------------------------------------------------------------|
B|---------------------------------4-4-2-4-4-2-4-2----4-4-2-4-4-2-4-2-4-7-7--|
G|-4-4-4-4-3-3-3-1-1-1-----------------------------4-------------------------|
D|----------------------4--4-4-----------------------------------------------|
A|---------------------------------------------------------------------------|
E|---------------------------------------------------------------------------|

e|---------------------------------------------------------------------------|
B|---------------------------------------------------------------------------|
G|-4-4-4-4-3-3-3-3--1-1-1-1-------------4--4-4--4--3-3-3-3-1-1-1-1-----------|
D|---------------------------4--4-4-4------------------------------4-4-4-4-4-|
A|---------------------------------------------------------------------------|
E|---------------------------------------------------------------------------|

9.Tired Of Waiting
Verse "Im soo tired, tired of waiting for you"
(Guitar 1)                     |(Guitar 2)
e|-----------------------------|---------------------------------------------|
B|-----------------------------|------------------9--------------------------|
G|-----------------------------|--------11----------9------------------------|
D|-2-2/3/4-4-2-----------------|-----11---11---9-----------------------------|
A|-2-2/3/4-4-2-----------------|---9---------7-------------------------------|
E|-0-0/1/2-2-0-----------------|---------------------------------------------|
Chorus "I was a lonley soul" 
e|---------------------------------------------------------------------------|
B|---------------------------------------------------------------------------|
G|---4---4---4-----6---6---6-------------------------------------------------|
D|-2-4-2-4-2-4-2-4-6-4-6-4-6-4-----------------------------------------------|
A|-2-2-2-2-2-2-2-4-4-4-4-4-4-4-----------------------------------------------|
E|-0---0---0---0-2---2---2---2-----------------------------------------------|
Post Chorus "its your life..."
e|---------------------------------------------------------------------------|
B|---------------------------------------------------------------------------|
G|---6-4-4/6----6-4-4-4-6-6-6-4-4-4-6-6-6------------------------------------|
D|-4-6-4-4/6--4-6-4-4-4-6-6-6-4-4-4-6-6-6------------------------------------|
A|-4-4-2-2/4--4-4-2-2-2-4-4-4-2-2-2-4-4-4------------------------------------|
E|-2----------2--------------------------------------------------------------|

10.Sick Of Me
Verse
e|---------------------------------------------------------------------------|
B|---------------------------------------------------------------------------|
G|-------5-------------------------------------------------------------------|
D|-5-5-5-5-3-5---------------------------------------------------------------|
A|-5-5-5-3-3-5---------------------------------------------------------------|
E|-3-3-3---1-3---------------------------------------------------------------|
Chorus
e|---------------------------------------------------------------------------|
B|---------------------------------------------------------------------------|
G|-5-5-5-------5---7----5-5-5-------5----10--7-7-7---------------------------|
D|-5-5-5-5-5-5-5-5-7-5--5-5-5-5-5-5-5-5--10--7-7-7---------------------------|
A|-3-3-3-5-5-5-3-5-5-5--3-3-3-5-5-5-3-5--8---5-5-5---------------------------|
E|-------3-3-3---3---3--------3-3-3---3--------------------------------------|
Bridge
e|---------------------------------------------------------------------------|
B|---------------------------------------------------------------------------|
G|-10/9-7-7-7----------------------------------------------------------------|
D|-10/9-7-7-7----------------------------------------------------------------|
A|-8-/7-5-5-5----------------------------------------------------------------|
E|---------------------------------------------------------------------------|

11.Rotting
Intro
(Guitar 1)                     |(Guitar 2)
e|-----------------------------|------------------------------------12-------|
B|-----------------------------|---------17--15-12-------10-13---13----------|
G|-5-5---------5-5-----4-5-5---|-----17------------12-10-------12------------|
D|-5-5-5-5-3-3-5-5-3-3-3-5-5-5-|-17------------------------------------------|
A|-3-3-5-5-3-3-3-3-3-3-3-3-3-5-|---------------------------------------------|
E|-----3-3-1-1-----1-1-1-----3-|---------------------------------------------|

e|-----------------------------12--------------------------------------------|
B|----10-13-----10--13-----13------17----------------------------------------|
G|-10--------10---------12---------17----------------------------------------|
D|---------------------------------17----------------------------------------|
A|---------------------------------------------------------------------------|
E|---------------------------------------------------------------------------|
Verse
e|---------------------------------------------------------------------------|
B|---------------------------------------------------------------------------|
G|-5-5-5-5---------------------------------------4--4-4----------------------|
D|-5-5-5-5-------------------------------------------------------------------|
A|-3-3-3-3------------------3---3-3--3------------------3-3--3-3-------------|
E|---------3--3-3-3--1-1-1--------------1--1--1--1--1-1----------------------|
Chorus
(Guitar1)
e|---------------------------------------------------------------------------|
B|---------------------------------------------------------------------------|
G|--------5-5-5--------------------------------------------------------------|
D|--6-6-6-5-5-5---x3--6-6-6-5-5-5--------------------------------------------|
A|--6-6-6-3-3-3-------6-6-6-5-5-5--------------------------------------------|
E|--4-4-4-------------4-4-4-3-3-3--------------------------------------------|
(Guitar 2)
e|---------------------------------------------------------------------------|
B|---------------------------------------------------------------------------|
G|---------------------------------------------------------------------------|
D|---------2--------x3-------------------------------------------------------|
A|--3-3-5----------------3-5-3-2---------------------------------------------|
E|------------3--------------------------------------------------------------|


12.Do Da Da

Intro
e|---------------------------------------------------------------------------|
B|---------------------------------------------------------------------------|
G|---8-8-8-8----8-8-8-8----8-8-8-8--6-8-6-8-6-8------------------------------|
D|-6-8-8-8-8--6-8-8-8-8--6-8-8-8-8--6-8-6-8-6-8------------------------------|
A|-6-6-6-6-6--6-6-6-6-6--6-6-6-6-6--4-6-4-6-4-6------------------------------|
E|-4----------4----------4---------------------------------------------------|
Verse
e|---------------------------------------------------------------------------|
B|---------------------------------------------------------------------------|
G|----8--6-----8-------------------------------------------------------------|
D|-6--8--6--6--8-------------------------------------------------------------|
A|-6--6--4--6--6-------------------------------------------------------------|
E|-4--------4----------------------------------------------------------------|
Chorus
e|---------------------------------------------------------------------------|
B|---------------------------------------------------------------------------|
G|----6---------8--------6--------8---8---8----------------------------------|
D|-3--6--3---6--8----3---6---3--6-8-6-8-6-8----------------------------------|
A|-3--4--3---6--6----3---4---3--6-6-6-6-6-6----------------------------------|
E|-1-----1---4-------1-------1--4---4---4------------------------------------|

13.On The Wagon

Verse
e|---------------------------------------------------------------------------|
B|----------------3----------------------------------------------------------|
G|-------------4--4---------6--6--6------------------------------------------|
D|-4-4--4------4--4--4--4-4-6--6--6--4--4--4---------------------------------|
A|-4-4--4------2--2--4--4-4-4--4--4--4--4--4---------------------------------|
E|-2-2--2------------2--2-2----------2--2--2---------------------------------|
  Pm.......................................
Chorus
e|---------------------------------------------------------------------------|
B|---------3-----------------3-----------------------------------------------|
G|-4---4---4-------------4-4-4-6---------------------------------------------|
D|-4---4---4----3-4--3-4-4-4-4-6---------------------------------------------|
A|-2---2---2----3-4--3-4-2-2-2-4---------------------------------------------|
E|--------------1-2--1-2-----------------------------------------------------|
Solo 
e|---------------------------------------------------------------------------|
B|---------------------------------------------------------------------------|
G|----------------------6-8-8-4-4-5-5-5----6----3/1-----6-7-3/1--------------|
D|--4-4-4-8-6-4-4-4-6-8-----------------4-----4-----4--4---------4-----------|
A|---------------------------------------------------------------------------|
E|---------------------------------------------------------------------------|

e|---------------------------------------------------------------------------|
B|-------6-------------------------------------------------------------------|
G|----6----------------------------------------------------------------------|
D|-4--------4-4-3-3--1-1----------x2-----------------------------------------|
A|------------------------4-4------------------------------------------------|
E|---------------------------------------------------------------------------|

14.Ha Ha You're Dead
Verse
e|---------------------------------------------------------------------------|
B|---------------------------------------------------------------------------|
G|-5-5-5---------------------------------------------------------------------|
D|-5-5-5--5-5-5--7-7-7-------------------------------------------------------|
A|-3-3-3--5-5-5--7-7-7-------------------------------------------------------|
E|--------3-3-3--5-5-5-------------------------------------------------------|
  Pm..................
Pre Chorus
e|---------------------------------------------------------------------------|
B|---------------------------------------------------------------------------|
G|----5----------------------------------------------------------------------|
D|-3--5--5-5-5-5-----x4------------------------------------------------------|
A|-3--3--5-5-5-5-------------------------------------------------------------|
E|-1-----3-3-3-3-------------------------------------------------------------|
Chorus
e|---------------------------------------------------------------------------|
B|---------------------------------------------------------------------------|
G|-5-5-5--------5-5-5---------------------5-5-5--------5-5-5-5---------------|
D|-5-5-5--3-3-3-5-5-5--5-5-5--7-7-7-3-3-3-5-5-5--5-5-5-5-5-5-5---------------|
A|-3-3-3--3-3-3-3-3-3--5-5-5--7-7-7-3-3-3-3-3-3--5-5-5-3-3-3-3---------------|
E|--------1-1-1--------3-3-3--5-5-5-1-1-1--------3-3-3-----------------------|
Solo
e|---------------------------------------------------------------------------|
B|-5----5----5----5---6---6---6--6----5----5----5---5----8----8---8----8-----|
G|----5----5----5---5---5----5--5---5----5---5----5---5----7----7----7---7---|
D|---------------------------------------------------------------------------|
A|---------------------------------------------------------------------------|
E|---------------------------------------------------------------------------|

e|---------------------------------------------------------------------------|
B|--5----5----5-----5-----6---6----6----6----5----5----3----3----------------|
G|-----5----5----5-----5-----5---5----5--5------5---5------4---4--5-5--------|
D|---------------------------------------------------------------------------|
A|---------------------------------------------------------------------------|
E|---------------------------------------------------------------------------|
comments
print report bad tab
4 comments total. Showing first comments.
0 reply
morbid_devourer wrote on May 16 2003, 12:00 am

u sure the solo for 'i dont wanna fall in love correct?' (probably is)

0 reply
morbid_devourer wrote on May 16 2003, 12:00 am

u sure the solo for 'i dont wanna fall in love correct?' (probably is)

0 reply
FatKidsOnMopeds</3 wrote on May 29 2003, 12:00 am

well thats what i hear in the song,but i could be wrong dude

I want to post or [tab]
guest
You may want to rate the tab now too:
select rating
Please do not post tabs as comments. Select "correction" instead!