Oops, an error
Loading. Please wait.

The Static Age Tab

ver1
ver1

Intro

Solo

Whole song

Interactive

More versions @911Tabs.com
13,422 views 21 this week
2 commentsread comments
1 2 3 4 5
accurate
x 3
Autoscroll
+/-
esc
set tempo
stop
Contributor
Difficulty
intermediate
Hey! There's an official Ultimate Guitar app which is ideal
for learning songs when you're away from computer. Get the app
WARNING: You are trying to view
                                    content from Ultimate-Guitar.com
                                    in an unauthorized application,
                                    which is prohibited.

                                    Please use an official Ultimate
                                    Guitar Tabs application for iPhone,
                                    iPad or Android to access legitimate
                                    chords, guitar, bass, and drum tabs
                                    from Ultimate-Guitar.com database.

                                    Type "ultimate guitar tabs" in Apple
                                    App Store's or Android Market's
                                    search to find the application.
-------------------------------------------------------------------------------
                             THE STATIC AGE  - Green Day
-------------------------------------------------------------------------------
Tabbed by:arm0792
Email:bahamut.92@hotmail.com

Tuning:Standard

Q=152
4/4
Key B(#####)
Intro
Gtr 1
   E E E E E E E E   E E E E E E E E   E E E E E E E E   E E E E E E E E
e|-----------------|-----------------|-----------------|-----------------|
B|-0-0-0-0-0-0-0-0-|-0-0-0-0-0-0-0-0-|-5-5-5-5-5-5-5-5-|-2-2-2-2-2-2-5-5-|
G|-4-4-4-4-4-4-4-4-|-4-4-4-4-4-4-4-4-|-4-4-4-4-4-4-4-4-|-4-4-4-4-4-4-4-4-|
D|-----------------|-----------------|-----------------|-----------------|
A|-----------------|-----------------|-----------------|-----------------|
E|-----------------|-----------------|-----------------|-----------------|
 
Gtr 1
   E E E E E E E E   E E E E E E E E   E E E E E E E E   E E E E E E E E
e|-----------------|-----------------|-----------------|-----------------||
B|-4-4-4-4-4-4-4-4-|-4-4-4-4-4-4-4-4-|-5-5-5-5-5-4-5-5-|-7-7-7-7-7-7-7-7-||
G|-4-4-4-4-4-4-4-4-|-4-4-4-4-4-4-4-4-|-4-4-4-4-4-4-4-4-|-3-3-3-3-3-3-3-3-||
D|-----------------|-----------------|-----------------|-----------------||
A|-----------------|-----------------|-----------------|-----------------||
E|-----------------|-----------------|-----------------|-----------------||

Verse 1

Gtr 1
   E E E E E E E E   E E E E E E E E   E E E E E E E E   E E E E E E E E
e|-----------------|-----------------|-----------------|-----------------|
B|-0-0-0-0-0-0-0-0-|-0-0-0-0-0-0-0-0-|-5-5-5-5-5-5-5-5-|-2-2-2-2-2-2-5-5-|
G|-4-4-4-4-4-4-4-4-|-4-4-4-4-4-4-4-4-|-4-4-4-4-4-4-4-4-|-4-4-4-4-4-4-4-4-|
D|-----------------|-----------------|-----------------|-----------------|
A|-----------------|-----------------|-----------------|-----------------|
E|-----------------|-----------------|-----------------|-----------------|

Gtr 1
   E E E E E E E E   E E E E E E E E   E E E E E E E E   E E E E E E E E
e|-----------------|-----------------|-----------------|-----------------|
B|-4-4-4-4-4-4-4-4-|-4-4-4-4-4-4-4-4-|-5-5-5-5-5-4-5-5-|-7-7-7-7-7-7-7-7-|
G|-4-4-4-4-4-4-4-4-|-4-4-4-4-4-4-4-4-|-4-4-4-4-4-4-4-4-|-3-3-3-3-3-3-3-3-|
D|-----------------|-----------------|-----------------|-----------------|
A|-----------------|-----------------|-----------------|-----------------|
E|-----------------|-----------------|-----------------|-----------------|

Gtr 1
   E E E E E E E E   E E E E E E E E   E E E E E E E E   E E E E E E E E
e|-----------------|-----------------|-----------------|-----------------|
B|-0-0-0-0-0-0-0-0-|-0-0-0-0-0-0-0-0-|-5-5-5-5-5-5-5-5-|-2-2-2-2-2-2-5-5-|
G|-4-4-4-4-4-4-4-4-|-4-4-4-4-4-4-4-4-|-4-4-4-4-4-4-4-4-|-4-4-4-4-4-4-4-4-|
D|-----------------|-----------------|-----------------|-----------------|
A|-----------------|-----------------|-----------------|-----------------|
E|-----------------|-----------------|-----------------|-----------------|

Gtr 1
   E E E E E E E E   E E E E E E E E   E E E E E E E E   E E E E E E E E
e|-----------------|-----------------|-----------------|-----------------|
B|-4-4-4-4-4-4-4-4-|-4-4-4-4-4-4-4-4-|-5-5-5-5-5-4-5-5-|-----------------|
G|-4-4-4-4-4-4-4-4-|-4-4-4-4-4-4-4-4-|-4-4-4-4-4-4-4-4-|-111111111111119-|
D|-----------------|-----------------|-----------------|-----------------|
A|-----------------|-----------------|-----------------|-9-9-9-9-9-9-9-7-|
E|-----------------|-----------------|-----------------|-----------------|
Gtr 2
   W                 W                 W                 H       E E E E
e|-----------------|-----------------|-----------------|-----------------|
B|-----------------|-----------------|-----------------|-----------------|
G|-----------------|-----------------|-----------------|-----------------|
D|-----------------|-----------------|-----------------|-----------------|
A|-----------------|-----------------|-----------------|-----------4-4---|
E|-----------------|-----------------|-----------------|-----------2-2-0-|

Gtr 1
   E E E E E E E E   E E E E E E E E   E E E E E E E E
e|-----------------|-----------------|-----------------||
B|-----------------|-----------------|-----------------||
G|-111111111111119-|-1111111111111111|-1111119-11111111||
D|-----------------|-----------------|-----------------||
A|-9-9-9-9-9-9-9-7-|-9-9-9-9-9-9-9-9-|-9-9-9-7-9-9-9-9-||
E|-----------------|-----------------|-----------------||
Gtr 2
   H       E E E E   Q   E E E E E E   E E E E E E E E
e|-----------------|-----------------|-----------------||
B|-----------------|-----------------|-----------------||
G|-----------------|-----------------|-3-3-3-3-3-3-3-X-||
D|-----------------|-----------------|-4-4-4-4-4-4-4-X-||
A|-----------4-4---|-4---4-4-4-4-4-4-|-4-4-4-4-4-4-4-X-||
E|-----------2-2-0-|-2---2-2-2-2-2-2-|-2-2-2-2-2-2-2-X-||
                       PM............
Chorus

Gtr 1&2
   Q   E E E E E E   Q   E E E E E E   Q   E E E E E E   Q   E E E E E E 
e|-----------------|-----------------|-----------------|-----------------|
b|-4---4-4-4-4-4-X-|-----------------|-4---4-4-4-4-4-X-|-----------------|
G|-4---4-4-4-4-4-X-|-1---1-X-3-3-3-X-|-4---4-4-4-4-4-X-|-1---1-X-3-3-3-X-|
D|-4---4-4-4-4-4-X-|-2---2-X-4-4-4-X-|-4---4-4-4-4-4-X-|-2---2-X-4-4-4-X-|
A|-2---2-2-2-2-2-X-|-2---2-X-4-4-4-X-|-4---4-4-4-4-4-X-|-2---2-X-4-4-4-X-|
E|-----------------|-0---0-X-2-2-2-X-|-----------------|-0---0-X-2-2-2-X-|

Gtr 1&2
   Q   E E E E E E   Q   E E E E E E   Q   E E E E E E   E E E E E E E E
e|-----------------|-----------------|-----------------|-----------------|
b|-4---4-4-4-4-4-X-|-----------------|-4---4-4-4-4-4-4-|-X---------------|
G|-4---4-4-4-4-4-X-|-1---1-X-3-3-3-X-|-4---4-4-4-4-4-4-|-X-3-3-3-3-3-3-3-|
D|-4---4-4-4-4-4-X-|-2---2-X-4-4-4-X-|-4---4-4-4-4-4-4-|-X-4-4-4-4-4-4-4-|
A|-2---2-2-2-2-2-X-|-2---2-X-4-4-4-X-|-4---4-4-4-4-4-2-|-X-4-4-4-4-4-4-4-|
E|-----------------|-0---0-X-2-2-2-X-|-----------------|---2-2-2-2-2-2-2-|

Gtr 1
   E E E E E E E E   E E E E E E E E   E E E E E E E E   E E E E E E E E
e|-----------------|-----------------|-----------------|-----------------|
B|-0-0-0-0-0-0-0-0-|-0-0-0-0-0-0-0-0-|-5-5-5-5-5-5-5-5-|-2-2-2-2-2-2-5-5-|
G|-4-4-4-4-4-4-4-4-|-4-4-4-4-4-4-4-4-|-4-4-4-4-4-4-4-4-|-4-4-4-4-4-4-4-4-|
D|-----------------|-----------------|-----------------|-----------------|
A|-----------------|-----------------|-----------------|-----------------|
E|-----------------|-----------------|-----------------|-----------------|

Gtr 1
   E E E E E E E E   E E E E E E E E   E E E E E E E E   E E E E E E E E
e|-----------------|-----------------|-----------------|-----------------||
B|-4-4-4-4-4-4-4-4-|-4-4-4-4-4-4-4-4-|-5-5-5-5-5-4-5-5-|-7-7-7-7-7-7-7-7-||
G|-4-4-4-4-4-4-4-4-|-4-4-4-4-4-4-4-4-|-4-4-4-4-4-4-4-4-|-3-3-3-3-3-3-3-3-||
D|-----------------|-----------------|-----------------|-----------------||
A|-----------------|-----------------|-----------------|-----------------||
E|-----------------|-----------------|-----------------|-----------------||

Verse 2

Gtr 1
   E E E E E E E E   E E E E E E E E   E E E E E E E E   E E E E E E E E
e|-----------------|-----------------|-----------------|-----------------|
B|-0-0-0-0-0-0-0-0-|-0-0-0-0-0-0-0-0-|-5-5-5-5-5-5-5-5-|-2-2-2-2-2-2-5-5-|
G|-4-4-4-4-4-4-4-4-|-4-4-4-4-4-4-4-4-|-4-4-4-4-4-4-4-4-|-4-4-4-4-4-4-4-4-|
D|-----------------|-----------------|-----------------|-----------------|
A|-----------------|-----------------|-----------------|-----------------|
E|-----------------|-----------------|-----------------|-----------------|

Gtr 1
   E E E E E E E E   E E E E E E E E   E E E E E E E E   E E E E E E E E
e|-----------------|-----------------|-----------------|-----------------|
B|-4-4-4-4-4-4-4-4-|-4-4-4-4-4-4-4-4-|-5-5-5-5-5-4-5-5-|-7-7-7-7-7-7-7-7-|
G|-4-4-4-4-4-4-4-4-|-4-4-4-4-4-4-4-4-|-4-4-4-4-4-4-4-4-|-3-3-3-3-3-3-3-3-|
D|-----------------|-----------------|-----------------|-----------------|
A|-----------------|-----------------|-----------------|-----------------|
E|-----------------|-----------------|-----------------|-----------------|

Gtr 1
   E E E E E E E E   E E E E E E E E   E E E E E E E E   E E E E E E E E
e|-----------------|-----------------|-----------------|-----------------|
B|-0-0-0-0-0-0-0-0-|-0-0-0-0-0-0-0-0-|-5-5-5-5-5-5-5-5-|-2-2-2-2-2-2-5-5-|
G|-4-4-4-4-4-4-4-4-|-4-4-4-4-4-4-4-4-|-4-4-4-4-4-4-4-4-|-4-4-4-4-4-4-4-4-|
D|-----------------|-----------------|-----------------|-----------------|
A|-----------------|-----------------|-----------------|-----------------|
E|-----------------|-----------------|-----------------|-----------------|

Gtr 1
   E E E E E E E E   E E E E E E E E   E E E E E E E E   E E E E E E E E
e|-----------------|-----------------|-----------------|-----------------|
B|-4-4-4-4-4-4-4-4-|-4-4-4-4-4-4-4-4-|-5-5-5-5-5-4-5-5-|-----------------|
G|-4-4-4-4-4-4-4-4-|-4-4-4-4-4-4-4-4-|-4-4-4-4-4-4-4-4-|-111111111111119-|
D|-----------------|-----------------|-----------------|-----------------|
A|-----------------|-----------------|-----------------|-9-9-9-9-9-9-9-7-|
E|-----------------|-----------------|-----------------|-----------------|
Gtr 2
   W                 W                 W                 H       E E E E 
e|-----------------|-----------------|-----------------|-----------------|
B|-----------------|-----------------|-----------------|-----------------|
G|-----------------|-----------------|-----------------|-----------------|
D|-----------------|-----------------|-----------------|-----------------|
A|-----------------|-----------------|-----------------|-----------4-4---|
E|-----------------|-----------------|-----------------|-----------2-2-0-|

Gtr 1
   E E E E E E E E   E E E E E E E E   E E E E E E E E
e|-----------------|-----------------|-----------------||
B|-----------------|-----------------|-----------------||
G|-111111111111119-|-1111111111111111|-1111119-11111111||
D|-----------------|-----------------|-----------------||
A|-9-9-9-9-9-9-9-7-|-9-9-9-9-9-9-9-9-|-9-9-9-7-9-9-9-9-||
E|-----------------|-----------------|-----------------||
Gtr 2
   H       E E E E   Q   E E E E E E   E E E E E E E E
e|-----------------|-----------------|-----------------||
B|-----------------|-----------------|-----------------||
G|-----------------|-----------------|-3-3-3-3-3-3-3-X-||
D|-----------------|-----------------|-4-4-4-4-4-4-4-X-||
A|-----------4-4---|-4---4-4-4-4-4-4-|-4-4-4-4-4-4-4-X-||
E|-----------2-2-0-|-2---2-2-2-2-2-2-|-2-2-2-2-2-2-2-X-||
                       PM...........
Chorus

Gtr 1&2
   Q   E E E E E E   Q   E E E E E E   Q   E E E E E E   Q   E E E E E E
e|-----------------|-----------------|-----------------|-----------------|
b|-4---4-4-4-4-4-X-|-----------------|-4---4-4-4-4-4-X-|-----------------|
G|-4---4-4-4-4-4-X-|-1---1-X-3-3-3-X-|-4---4-4-4-4-4-X-|-1---1-X-3-3-3-X-|
D|-4---4-4-4-4-4-X-|-2---2-X-4-4-4-X-|-4---4-4-4-4-4-X-|-2---2-X-4-4-4-X-|
A|-2---2-2-2-2-2-X-|-2---2-X-4-4-4-X-|-4---4-4-4-4-4-X-|-2---2-X-4-4-4-X-|
E|-----------------|-0---0-X-2-2-2-X-|-----------------|-0---0-X-2-2-2-X-|

Gtr 1&2
   Q   E E E E E E   Q   E E E E E E   Q   E E E E E E   E E E E E E E E
e|-----------------|-----------------|-----------------|-----------------|
b|-4---4-4-4-4-4-X-|-----------------|-4---4-4-4-4-4-4-|-X---------------|
G|-4---4-4-4-4-4-X-|-1---1-X-3-3-3-X-|-4---4-4-4-4-4-4-|-X-3-3-3-3-3-3-X-|
D|-4---4-4-4-4-4-X-|-2---2-X-4-4-4-X-|-4---4-4-4-4-4-4-|-X-4-4-4-4-4-4-X-|
A|-2---2-2-2-2-2-X-|-2---2-X-4-4-4-X-|-4---4-4-4-4-4-2-|-X-4-4-4-4-4-4-X-|
E|-----------------|-0---0-X-2-2-2-X-|-----------------|---2-2-2-2-2-2-X-|

Gtr 1&2
   Q   E E E E E E   Q   E E E E E E   Q   E E E E E E   Q   E E E E E E
e|-----------------|-----------------|-----------------|-----------------|
b|-4---4-4-4-4-4-X-|-----------------|-4---4-4-4-4-4-X-|-----------------|
G|-4---4-4-4-4-4-X-|-1---1-X-3-3-3-X-|-4---4-4-4-4-4-X-|-1---1-X-3-3-3-X-|
D|-4---4-4-4-4-4-X-|-2---2-X-4-4-4-X-|-4---4-4-4-4-4-X-|-2---2-X-4-4-4-X-|
A|-2---2-2-2-2-2-X-|-2---2-X-4-4-4-X-|-4---4-4-4-4-4-X-|-2---2-X-4-4-4-X-|
E|-----------------|-0---0-X-2-2-2-X-|-----------------|-0---0-X-2-2-2-X-|

Gtr 1&2
   Q   E E E E E E   Q   E E E E E E   Q   E E E E E E   E E E Q   E E E
e|-----------------|-----------------|-----------------|-----------------||
b|-4---4-4-4-4-4-X-|-----------------|-4---4-4-4-4-4-4-|-4-4-4-5---4-4-X-||
G|-4---4-4-4-4-4-X-|-1---1-X-3-3-3-X-|-4---4-4-4-4-4-4-|-4-4-4-4---4-4-X-||
D|-4---4-4-4-4-4-X-|-2---2-X-4-4-4-X-|-4---4-4-4-4-4-4-|-4-4-4-4---4-4-X-||
A|-2---2-2-2-2-2-X-|-2---2-X-4-4-4-X-|-4---4-4-4-4-4-2-|-2-2-2-2---2-2-X-||
E|-----------------|-0---0-X-2-2-2-X-|-----------------|-----------------||

Bridge

Gtr 2
   E E E E E E E E   E E E E E E E E   E E E E E E E E   E E E E E E E E
e|-----------------|-----------------|-----------------|-----------------|
B|-9-9-9-9-9-9-9-9-|-9-9-9-9-9-9-9-X-|-----------------|-----------------|
G|-9-9-9-9-9-9-9-9-|-9-9-9-9-9-9-9-X-|-8-8-8-8-8-8-8-8-|-8-8-8-8-8-8-8-X-|
D|-9-9-9-9-9-9-9-9-|-9-9-9-9-9-9-9-X-|-9-9-9-9-9-9-9-9-|-9-9-9-9-9-9-9-X-|
A|-7-7-7-7-7-7-7-7-|-7-7-7-7-7-7-7-X-|-9-9-9-9-9-9-9-9-|-9-9-9-9-9-9-9-X-|
E|-----------------|-----------------|-7-7-7-7-7-7-7-7-|-7-7-7-7-7-7-7-X-|

Gtr 2
   E E E E E E E E   E E E E E E E E   E E E E E E E E   E E E E E E E E
e|-----------------|-----------------|-----------------|-----------------||
B|-9-9-9-9-9-9-9-9-|-9-9-9-9-9-9-9-X-|-1111111111101111|-12121212121212X-||
G|-9-9-9-9-9-9-9-9-|-9-9-9-9-9-9-9-X-|-1111111111101111|-12121212121212X-||
D|-9-9-9-9-9-9-9-9-|-9-9-9-9-9-9-9-X-|-1111111111101111|-12121212121212X-||
A|-7-7-7-7-7-7-7-7-|-7-7-7-7-7-7-7-X-|-9-9-9-9-9-8-9-9-|-10101010101010X-||
E|-----------------|-----------------|-----------------|-----------------||
Gtr 3
   W                 W                 W                 H       Q   E E
e|-----------------|-----------------|-----------------|-----------------||
B|-----------------|-----------------|-----------------|-----------------||
G|-----------------|-----------------|-----------------|-----------------||
D|-----------------|-----------------|-----------------|-----------------||
A|-----------------|-----------------|-----------------|-----------------||
E|-----------------|-----------------|-----------------|--------------15\||

Interlude 
Key Change C

Gtr 2
   Q   E E E E E E   E E E E E E E E   Q   E E E E E E   Q   E E E E E E 
e|-----------------|-----------------|-----------------|-----------------|
B|-5---5-5-5-5-5-5-|-5-5-5-5-5-5-5-X-|-----------------|-----------------|
G|-5---5-5-5-5-5-5-|-5-5-5-5-5-5-5-X-|-2---2-2-2-2-2-X-|-4---4-4-4-4-4-X-|
D|-5---5-5-5-5-5-5-|-5-5-5-5-5-5-5-X-|-3---3-3-3-3-3-X-|-5---5-5-5-5-5-X-|
A|-3---3-3-3-3-3-3-|-3-3-3-3-3-3-3-X-|-3---3-3-3-3-3-X-|-5---5-5-5-5-5-X-|
E|-----------------|-----------------|-1---1-1-1-1-1-X-|-3---3-3-3-3-3-X-|
Gtr 3
   E E E E E E E E   E E E Q   Q   E   Q   E E E E E E   E E E E E E E E
e|-----------------|-----------------|-----------------|-----------------|
B|-----------------|-----------------|-----------------|-----------------|
G|-5-5-5-5-5-5-5-5-|-5-5-5-9---7---5-|-10--101010101010|-7-7-7-7-7-7-1010|
D|-----------------|-----------------|-----------------|-----------------|
A|-3-3-3-3-3-3-3-3-|-3-3-3-7---5---3-|-8---8-8-8-8-8-8-|-5-5-5-5-5-5-8-8-|
E|-----------------|-----------------|-----------------|-----------------|

Gtr 2
   Q   E E E E E E   E E E E E E E E   Q   E Q   E E E   E E E Q   E E E
e|-----------------|-----------------|-----------------|-----------------|
B|-5---5-5-5-5-5-5-|-5-5-5-5-5-5-5-X-|-10--1011--1010X-|-12121213--1212X-|
G|-5---5-5-5-5-5-5-|-5-5-5-5-5-5-5-X-|-10--1010--1010X-|-12121212--1212X-|
D|-5---5-5-5-5-5-5-|-5-5-5-5-5-5-5-X-|-10--1010--1010X-|-12121212--1212X-|
A|-3---3-3-3-3-3-3-|-3-3-3-3-3-3-3-X-|-8---8-8---8-8-X-|-10101010--1010X-|
E|-----------------|-----------------|-----------------|-----------------|
Gtr 3
   E E E E E E E E   E E E Q   Q   E   Q   E E E E Q     E E E E E E E E
e|-----------------|-----------------|-----------------|-----------------|
B|-----------------|-----------------|-----------------|-----------------|
G|-9-9-9-9-9-9-9-9-|-9-9-9-9---7---5-|-10--1010109-10--|-12121212121212X-|
D|-----------------|-----------------|-----------------|-----------------|
A|-7-7-7-7-7-7-7-7-|-7-7-7-7---5---3-|-8---8-8-8-7-8---|-10101010101010X-|
E|-----------------|-----------------|-----------------|-----------------|

Gtr 2
   Q   E E E E E E   E E E E E E E E   Q   E E E E E E   Q   E E E E E E 
e|-----------------|-----------------|-----------------|-----------------|
B|-5---5-5-5-5-5-5-|-5-5-5-5-5-5-5-X-|-----------------|-----------------|
G|-5---5-5-5-5-5-5-|-5-5-5-5-5-5-5-X-|-2---2-2-2-2-2-X-|-4---4-4-4-4-4-X-|
D|-5---5-5-5-5-5-5-|-5-5-5-5-5-5-5-X-|-3---3-3-3-3-3-X-|-5---5-5-5-5-5-X-|
A|-3---3-3-3-3-3-3-|-3-3-3-3-3-3-3-X-|-3---3-3-3-3-3-X-|-5---5-5-5-5-5-X-|
E|-----------------|-----------------|-1---1-1-1-1-1-X-|-3---3-3-3-3-3-X-|
Gtr 3
   E E E E E E E E   E E E Q   Q   E   Q   E E E E E E   E E E E E E E E
e|-----------------|-----------------|-----------------|-----------------|
B|-----------------|-----------------|-----------------|-----------------|
G|-5-5-5-5-5-5-5-5-|-5-5-5-9---7---5-|-10--101010101010|-7-7-7-7-7-7-1010|
D|-----------------|-----------------|-----------------|-----------------|
A|-3-3-3-3-3-3-3-3-|-3-3-3-7---5---3-|-8---8-8-8-8-8-8-|-5-5-5-5-5-5-8-8-|
E|-----------------|-----------------|-----------------|-----------------|

Gtr 2
   Q   E E E E E E   E E E E E E E E   Q   E Q   E E E
e|-----------------|-----------------|-----------------|
B|-5---5-5-5-5-5-5-|-5-5-5-5-5-5-5-X-|-10--1011--1010X-|
G|-5---5-5-5-5-5-5-|-5-5-5-5-5-5-5-X-|-10--1010--1010X-|
D|-5---5-5-5-5-5-5-|-5-5-5-5-5-5-5-X-|-10--1010--1010X-|
A|-3---3-3-3-3-3-3-|-3-3-3-3-3-3-3-X-|-8---8-8---8-8-X-|
E|-----------------|-----------------|-----------------|
Gtr 3
   E E E E E E E E   E E E Q   Q   E   Q   E E E E Q  
e|-----------------|-----------------|-----------------|
B|-----------------|-----------------|-----------------|
G|-9-9-9-9-9-9-9-9-|-9-9-9-9---7---5-|-10--1010109-10--|
D|-----------------|-----------------|-----------------|
A|-7-7-7-7-7-7-7-7-|-7-7-7-7---5---3-|-8---8-8-8-7-8---|
E|-----------------|-----------------|-----------------|

Gtr 2
   Q       E   E   E   E   E   S S   Q       E   E   E   E   E   S S
e|---------------------------------|---------------------------------|
B|---------------------------------|---------------------------------|
G|-4-------4---4---4---4---4---X-X-|-5-------5---5---5---5---5---X-X-|
D|-5-------5---5---5---5---5---X-X-|-6-------6---6---6---6---6---X-X-|
A|-5-------5---5---5---5---5---X-X-|-6-------6---6---6---6---6---X-X-|
E|-3-------3---3---3---3---3---X-X-|-4-------4---4---4---4---4---X-X-|
Gtr 3
   E   E   E   E   E   E   E   S S   Q       E   E   E   E   E   S S
e|---------------------------------|---------------------------------|
B|---------------------------------|---------------------------------|
G|-12--12--12--12--12--12--12--1212|-13------13--13--13--13--13--1313|
D|---------------------------------|---------------------------------|
A|-10--10--10--10--10--10--10--1010|-11------11--11--11--11--11--1111|
E|---------------------------------|---------------------------------|

Gtr 2
   Q       E   S S Q       E   S S   E   S S E   S S E   S S E   E
e|---------------------------------|-------------------------------||
B|---------------------------------|-------------------------------||
G|-6-------6---X-X-7-------7---X-X-|-8---X-X-9---X-X-10--X-X-11--12||
D|-7-------7---X-X-8-------8---X-X-|-9---X-X-10--X-X-11--X-X-12--13||
A|-7-------7---X-X-8-------8---X-X-|-9---X-X-10--X-X-11--X-X-12--13||
E|-5-------5---X-X-6-------6---X-X-|-7---X-X-8---X-X-9---X-X-10--11||
Gtr 3
   Q       E   S S Q       E   S S   E   S S E   S S E   S S E   E
e|---------------------------------|-------------------------------||
B|---------------------------------|-------------------------------||
G|-14------14--141415------15--1515|-16--161617--171718--181819--20||
D|---------------------------------|-------------------------------||
A|-12------12--121213------13--1313|-14--141415--151516--161617--18||
E|---------------------------------|-------------------------------||

Verse 3
Key Change D(##)

Gtr 1
   Q   E Q   E E E   Q   E Q   E E E   Q   E Q   E E E   Q   E Q   E E E
e|-2---2-2---2-2-2-|-2---2-2---2-2-X-|-3---3-3---3-3-X-|-----------------|
B|-3---3-3---3-3-3-|-3---3-3---3-3-X-|-3---3-3---3-3-X-|-2---2-2---2-2-X-|
G|-2---2-2---2-2-2-|-2---2-2---2-2-X-|-0---0-0---0-0-X-|-2---2-2---2-2-X-|
D|-0---0-0---0-0-0-|-0---0-0---0-0-X-|-0---0-0---0-0-X-|-2---2-2---2-2-X-|
A|-----------------|-----------------|-2---2-2---2-2-X-|-0---0-0---0-0-X-|
E|-----------------|-----------------|-3---3-3---3-3-X-|-----------------|
Gtr 3
   W                +W                 W                 H.          Q
e|-----------------|-----------------|-----------------|-----------------|
B|-19--------------|(19)-------------|-20--------------|-17----------20--|
G|-----------------|-----------------|-----------------|-----------------|
D|-16--------------|(16)-------------|-17--------------|-14----------17--|
A|-----------------|-----------------|-----------------|-----------------|
E|-----------------|-----------------|-----------------|-----------------|

Gtr 1
   Q   E Q   E E E   Q   E Q   E E E   Q   E Q   E E E   Q   E Q   E E E
e|-2---2-2---2-2-2-|-2---2-2---2-2-X-|-3---3-3---3-3-X-|-----------------|
B|-3---3-3---3-3-3-|-3---3-3---3-3-X-|-3---3-3---3-3-X-|-2---2-2---2-2-X-|
G|-2---2-2---2-2-2-|-2---2-2---2-2-X-|-0---0-0---0-0-X-|-2---2-2---2-2-X-|
D|-0---0-0---0-0-0-|-0---0-0---0-0-X-|-0---0-0---0-0-X-|-2---2-2---2-2-X-|
A|-----------------|-----------------|-2---2-2---2-2-X-|-0---0-0---0-0-X-|
E|-----------------|-----------------|-3---3-3---3-3-X-|-----------------|
Gtr 3
   W                +W                 H      +E E Q     W
e|-----------------|-----------------|-----------------|-----------------|
B|-19--------------|(19)-------------|-20----(20)1920--|-22--------------|
G|-----------------|-----------------|-----------------|-----------------|
D|-16--------------|(16)-------------|-17----(17)1617--|-19--------------|
A|-----------------|-----------------|-----------------|-----------------|
E|-----------------|-----------------|-----------------|-----------------|

Gtr 1
   Q   E Q   E E E   Q   E Q   E E E   Q   E Q   E E E   Q   E Q   E E E
e|-2---2-2---2-2-2-|-2---2-2---2-2-X-|-3---3-3---3-3-X-|-----------------|
B|-3---3-3---3-3-3-|-3---3-3---3-3-X-|-3---3-3---3-3-X-|-2---2-2---2-2-X-|
G|-2---2-2---2-2-2-|-2---2-2---2-2-X-|-0---0-0---0-0-X-|-2---2-2---2-2-X-|
D|-0---0-0---0-0-0-|-0---0-0---0-0-X-|-0---0-0---0-0-X-|-2---2-2---2-2-X-|
A|-----------------|-----------------|-2---2-2---2-2-X-|-0---0-0---0-0-X-|
E|-----------------|-----------------|-3---3-3---3-3-X-|-----------------|
Gtr 3
   W                +W                 W                 H.          Q
e|-----------------|-----------------|-----------------|-----------------|
B|-15--------------|(15)-------------|-20--------------|-17----------20--|
G|-----------------|-----------------|-----------------|-----------------|
D|-12--------------|(12)-------------|-17--------------|-14----------17--|
A|-----------------|-----------------|-----------------|-----------------|
E|-----------------|-----------------|-----------------|-----------------|

Gtr 1
   Q   E Q   E E E   Q   E Q   E E E   Q   E Q   E E E   Q   E E E E E E
e|-2---2-2---2-2-2-|-2---2-2---2-2-X-|-3---3-3---3-3-X-|---------------3-|
B|-3---3-3---3-3-3-|-3---3-3---3-3-X-|-3---3-3---3-3-X-|-2---2-2-2-2-2-3-|
G|-2---2-2---2-2-2-|-2---2-2---2-2-X-|-0---0-0---0-0-X-|-2---2-2-2-2-2-0-|
D|-0---0-0---0-0-0-|-0---0-0---0-0-X-|-0---0-0---0-0-X-|-2---2-2-2-2-2-0-|
A|-----------------|-----------------|-2---2-2---2-2-X-|-0---0-0-0-0-0-2-|
E|-----------------|-----------------|-3---3-3---3-3-X-|---------------3-|
Gtr 2
   W                 W                 W                 H       E E E E
e|-----------------|-----------------|-----------------|-----------------|
B|-----------------|-----------------|-----------------|-----------------|
G|-----------------|-----------------|-----------------|-----------2-2---|
D|-----------------|-----------------|-----------------|-----------2-2---|
A|-----------------|-----------------|-----------------|-----------0-0---|
E|-----------------|-----------------|-----------------|---------------3-|
Gtr 3
   W                +W                 H      +E E Q     H.         +E E
e|-----------------|-----------------|-----------------|-----------------|
B|-19--------------|(19)-------------|-20----(20)1920--|-22--------(22)20|
G|-----------------|-----------------|-----------------|-----------------|
D|-16--------------|(16)-------------|-17----(17)1617--|-19--------(19)17|
A|-----------------|-----------------|-----------------|-----------------|
E|-----------------|-----------------|-----------------|-----------------|

Gtr 1
   Q   E E E E E E   Q   E E E E E E   E E E E E E E E
e|---------------3-|-----------------|-----------------||
B|-2---2-2-2-2-2-3-|-2---2-2-2-2-2-3-|-2-2-2-2-2-2-2-X-||
G|-2---2-2-2-2-2-0-|-2---2-2-2-2-2-2-|-2-2-2-2-2-2-2-X-||
D|-2---2-2-2-2-2-0-|-2---2-2-2-2-2-2-|-2-2-2-2-2-2-2-X-||
A|-0---0-0-0-0-0-2-|-0---0-0-0-0-0-0-|-0-0-0-0-0-0-0-X-||
E|---------------3-|-----------------|-----------------||
Gtr 2
   H       E E E E   Q   E E E E E E   E E E E E E E E
e|-----------------|-----------------|-----------------||
B|-----------------|---------------3-|-2-2-2-2-2-2-2-X-||
G|-----------2-2---|-2-------------2-|-2-2-2-2-2-2-2-X-||
D|-----------2-2---|-2---2-2-2-2-2-2-|-2-2-2-2-2-2-2-X-||
A|-----------0-0---|-0---0-0-0-0-0-0-|-0-0-0-0-0-0-0-X-||
E|---------------3-|---PM..........--|-----------------||
Gtr 3
   H.         +E E   W                +W
e|-----------------|-----------------|-----------------||
B|-22--------(22)20|-22--------------|(22)-------------||
G|-----------------|-----------------|-----------------||
D|-19--------(19)17|-19--------------|(19)-------------||
A|-----------------|-----------------|-----------------||
E|-----------------|-----------------|-----------------||

Chorus
 Gtr 1&2
    Q   E E E E E E   Q   E E Q   E E   Q   E E E E E E   Q   E E Q   E E
e||-----------------|-----------------|-----------------|-----------------|
B||o7---7-7-7-7-7-X-|-----------------|-7---7-7-7-7-7-X-|-----------------|
G||-7---7-7-7-7-7-X-|-4---4-X-6---6-X-|-7---7-7-7-7-7-X-|-4---4-X-6---6-X-|
D||-7---7-7-7-7-7-X-|-5---5-X-7---7-X-|-7---7-7-7-7-7-X-|-5---5-X-7---7-X-|
A||o5---5-5-5-5-5-X-|-5---5-X-7---7-X-|-5---5-5-5-5-5-X-|-5---5-X-7---7-X-|
E||-----------------|-3---3-X-5---5-X-|-----------------|-3---3-X-5---5-X-|
                                                        __________________
Gtr 1&2                                                |1.2.3.            
   Q   E E E E E E   Q   E E Q   E E   Q   E E E E E E   E E E E E E E E x4
e|-----------------|-----------------|-----------------|-----------------||
B|-7---7-7-7-7-7-X-|-----------------|-7---7-7-7-7-7-7-|-X--------------o||
G|-7---7-7-7-7-7-X-|-4---4-X-6---6-X-|-7---7-7-7-7-7-7-|-X-6-6-6-6-6-6-X-||
D|-7---7-7-7-7-7-X-|-5---5-X-7---7-X-|-7---7-7-7-7-7-7-|-X-7-7-7-7-7-7-X-||
A|-5---5-5-5-5-5-X-|-5---5-X-7---7-X-|-5---5-5-5-5-5-5-|-X-7-7-7-7-7-7-Xo||
E|-----------------|-3---3-X-5---5-X-|-----------------|---5-5-5-5-5-5-X-||

Outro
Gtr 1&2
 __________________
| 4.
   E E E E E E E E   E E E E E E E E   E E E E E E E E   W
e|-----------------|-----------------|-----------------|-----------------||
B|-7-7-7-7-7-7-7-X-|-3-3-3-3-3-3-3-X-|-5-5-5-5-5-5-5-X-|-7~~~~~~~~~~~~~~~||
G|-7-7-7-7-7-7-7-X-|-3-3-3-3-3-3-3-X-|-5-5-5-5-5-5-5-X-|-7~~~~~~~~~~~~~~~||
D|-7-7-7-7-7-7-7-X-|-3-3-3-3-3-3-3-X-|-5-5-5-5-5-5-5-X-|-7~~~~~~~~~~~~~~~||
A|-5-5-5-5-5-5-5-X-|-1-1-1-1-1-1-1-X-|-3-3-3-3-3-3-3-X-|-5~~~~~~~~~~~~~~~||
E|-----------------|-----------------|-----------------|-----------------||

| /  slide up
| \  slide down
| h  hammer-on
| p  pull-off
| ~  vibrato
| +  harmonic
| x  Mute note
===============================================================================
comments
We did not receive enough feedback on this tab! Please rate:
print report bad tab
1 2 3 4 5
2 comments total.
0 reply
Brada Ford wrote on May 25 2010, 03:40 am

Well, it's good, just in the verse and the intro i think it sounds better if you play the notes on the B string.

0 reply
GreenDayfan445 wrote on June 23 2010, 11:25 am

Nice work it helped me a lot ^_^

I want to post or [tab]
guest
You may want to rate the tab now too:
select rating
Please do not post tabs as comments. Select "correction" instead!