Oops, an error
Loading. Please wait.

Tre Tab

7,271 views 112 this week
2 commentsread comments
1 2 3 4 5
excellent!
x 11
add to favorites launch autoscroll
font size
0
reset
Autoscroll
+/-
esc
set tempo
stop
Contributor
WARNING: You are trying to view
                                    content from Ultimate-Guitar.com
                                    in an unauthorized application,
                                    which is prohibited.

                                    Please use an official Ultimate
                                    Guitar Tabs application for iPhone,
                                    iPad or Android to access legitimate
                                    chords, guitar, bass, and drum tabs
                                    from Ultimate-Guitar.com database.

                                    Type "ultimate guitar tabs" in Apple
                                    App Store's or Android Market's
                                    search to find the application.
-------------------------------Green Day---------------------------------------

-------------------------------BRUTAL LOVE-------------------------------------

STANDARD TUNING
TABBED BY deathfromala

INTRO:(CLEAN) 0:00
e|---------------|
B|---------------|
G|--------5------|
D|------6---6----| X4
A|----6-------6--|
E|--4------------|
       G#Maj

First verse part
0:08 G#Maj           D#Maj          G#Maj          C#Maj         G#Maj          D#Maj           G#Maj
e|------------|-----------------|-----------|----------------|-----------|-----------------|-----------|
B|------------|-----------------|-----------|----------------|-----------|-----------------|-----------|
G|-------5----|---------12------|------5----|--------10------|------5----|---------12------|------5----|
D|-----6---6--|------13----13---|----6---6--|-----11----11---|----6---6--|------13----13---|----6---6--|
A|---6-------6|---13----------13|--6-------6|--11----------11|--6-------6|---13----------13|--6-------6|
E|-4----------|11---------------|4----------|9---------------|4----------|11---------------|4----------|
       X2             X2              X2            X2             X2             X2             X4
 

0:38
e|-------4----|---------11------|------4----|--------9-------|------4----|---------11------|------4----|
B|------------|-----------------|-----------|----------------|-----------|-----------------|-----------|
G|------------|-----------------|-----------|----------------|-----------|-----------------|-----------|
D|-----6---6--|------13----13---|----6---6--|-----11----11---|----6---6--|------13----13---|----6---6--|
A|---6-------6|---13----------13|--6-------6|--11----------11|--6-------6|---13----------13|--6-------6|
E|-4----------|11---------------|4----------|9---------------|4----------|11---------------|4----------|
       X2             X2              X2            X2             X2             X2             X4



                     1:10.
                     Similar to 'First verse Part' but when you
                     Reach the highest note of the arpeggio, GTR 2 plays
                     a staccato of the whole chord.
                     Same things till 2:10.. -


2:10 (GTR 2 STILL PLAYING STACCATO'S)       
e|------------------|-----------|-----------------|------------|
B|------------------|-----------|-----------------|------------|
G|----------10------|------6----|---------13------|------6-----|
D|-------11----11---|----5---5--|------12----12---|----5---5---| 
A|----11----------11|--5-------5|---12----------12|--5-------5-|
E|--9---------------|4----------|11---------------|4-----------|..
         X2              X2              X2              X2

e|------------------|-----------------------|----------------|-11--|
B|------------------|-----------------------|----------------|-11--|
G|----------10------|------6-----------1----|--------10------|-12--|
D|-------11----11---|----5---5-------3---3--|-----11----11---|-13--| 
A|----11----------11|--5-------5---3-------3|--11----------11|-13--|
E|--9---------------|4-----------1----------|9---------------|-11--|
         X2                                        X2    


             2:38 - 2:43 . . .


2:44 GTR 1 (mid-distorsion)
e|--------------------------------------------------NOT THAT SURE----|
B|--------------------------------------------------ABOUT THIS CHORD-|
G|--5-5-5-5-5-5-12-12-12-12-12-12-10-10-10-10-10-10-4-4-4-4-4-4------|
D|--6-6-6-6-6-6-13-13-13-13-13-13-11-11-11-11-11-11-4-4-4-4-4-4------| 
A|--6-6-6-6-6-6-13-13-13-13-13-13-11-11-11-11-11-11-6-6-6-6-6-6------|
E|--4-4-4-4-4-4-11-11-11-11-11-11-9--9--9--9--9--9--4-4-4-4-4-4------| ..
|
e|-----------------------------------------------------|
B|-----------------------------------------------------|
G|--------------------------5-5-5-5-5-5----------------|
D|--6-6-6-6-6-6-5-5-5-5-5-5-6-6-6-6-6-6-8-8-8-8-///----| X2
A|--6-6-6-6-6-6-5-5-5-5-5-5-6-6-6-6-6-6-8-8-8-8-///=---|
E|--4-4-4-4-4-4-3-3-3-3-3-3-4-4-4-4-4-4-6-6-6-6-///----|
|
|
2:44 GTR 2 LEAD BRAKE
e|---------------------------------------------------------------|
B|---------------------------------------------------------------|
G|-1~\--10-8---8-10-8~-10-8--1~----1~-5~-0~--0-1~-3~--3-1-3~-----|
D|-----------------------------------------------------------8//-| X2 
A|-----------------------------------------------------------8//-|
E|-----------------------------------------------------------6//-|



3:15 ''BAD LUCK''
e|---------------------------------------------------------------------------------------------|
B|---------------------------------------------------------------------------------------------|
G|-10-10-10-10-------5-5-5-5-------12-12-12-12-12-12-12-12-12-12-12-12-5-5-5-5-5-5-5-5-5-5-5-5-|
D|-11-11-11-11-------6-6-6-6-------13-13-13-13-13-13-13-13-13-13-13-13-6-6-6-6-6-6-6-6-6-6-6-6-| 
A|-11-11-11-11-(x2)--6-6-6-6-(x2)--13-13-13-13-13-13-13-13-13-13-13-13-6-6-6-6-6-6-6-6-6-6-6-6-|
E|-9--9--9--9--------4-4-4-4-------11-11-11-11-11-11-11-11-11-11-11-11-4-4-4-4-4-4-4-4-4-4-4-4-|

3:29 ''BAD LOVE''
e|--------------------------------------------------------------------------------------------------|
B|--------------------------------------------------------------------------------------------------|
G|-10-10-10-10-------5-5-5-5-5-5-1-1-1-1-1-1--10-10-10-10-10-10-10-10-10-10-10-10-12-12-12-12-12-12-|
D|-11-11-11-11-------6-6-6-6-6-6-3-3-3-3-3-3--11-11-11-11-11-11-11-11-11-11-11-11-13-13-13-13-13-13-| 
A|-11-11-11-11-(x2)--6-6-6-6-6-6-3-3-3-3-3-3--11-11-11-11-11-11-11-11-11-11-11-11-13-13-13-13-13-13-|
E|-9--9--9--9--------4-4-4-4-4-4-1-1-1-1-1-1--9--9--9--9--9--9--9--9--9--9--9--9--11-11-11-11-11-11-|..
(could'nt fit it all in one line)
e|--------------------------|
B|--------------------------|
G|--------------------------|
D|-141414141414141414141414-| 
A|-141414141414141414141414-|
E|-121212121212121212121212-|


3:44 Outro (AT THIS POINT, THEY GO UP ONE SEMITONE. SO I AM GOING TO PUT
EASIER TO REACH POWERCHORDS INSTEAD OF THE HIGHER UP BAR CHORDS (PAST 12TH FRET).)))
e|-----------------------------------------------------------------|
B|-----------------------------------------------------------------|
G|--6-6-6-6-6-6--9-9-9-9-9-9--11-11-11-11-11-11--10-10-10-10-10-10-|
D|--7-7-7-7-7-7--9-9-9-9-9-9--12-12-12-12-12-12--10-10-10-10-10-10-| 
A|--7-7-7-7-7-7--7-7-7-7-7-7--12-12-12-12-12-12--8--8--8--8--8--8--|
E|--5-5-5-5-5-5---------------10-10-10-10-10-10--------------------|..
|
|                                                           END ON
e|-----------------------------------------------------|     ---
B|-----------------------------------------------------|     ---
G|-----------------------------------------9-9-9-------|     -6~
D|--7-7-7-7-7-7--6-6-6-6-6-6--7-7-7-7-7-7--9-9-9-8-8-8-| x4  -7~
A|--7-7-7-7-7-7--6-6-6-6-6-6--7-7-7-7-7-7--7-7-7-8-8-8-|     -7~
E|--5-5-5-5-5-5--4-4-4-4-4-4--5-5-5-5-5-5--------6-6-6-|..   -5~




--------------------------------------MISSING YOU------------------------------

STANDARD TUNING
TABBED BY ?


Intro

   A5|E5|D5    F#5 D5|E5|A5
E|-------------------------|
B|-------------------------|
G|----9--7-----11--7--9----|
D|-7--9--7-----11--7--9--7-|
A|-7--7--5-----9---5--7--7-|
E|-5---------------------5-|

Verse

   A5              C#5             D5      E5      A5
E|------------------------------------------------------------------|
B|------------------------------------------------------------------|
G|-----------------66666666666666667777777799999999-----------------|
D|-7777777777777777666666666666666677777777999999997777777777777777-|
A|-7777777777777777444444444444444455555555777777777777777777777777-|
E|-5555555555555555--------------------------------5555555555555555-|

Pre-chorus

   D5 A5   E5 A5      D5      E5 
E|------------------|------------------|
B|------------------|------------------|
G|-777-----999------|-7777777799999999-|
D|-7777777799977777-|-7777777799999999-|
A|-5557777777777777-|-5555555577777777-|
E|----55555---55555-|------------------|
  |________x3______| |________x1______|

Chorus

   A5      E5      D5              A5      C#5     D5            E5
E|-----------------------------------------------------------------0-|
B|-----------------------------------------------------------------0-|
G|---------999999997777777777777777--------666666667777777777777-990-|
D|-7777777799999999777777777777777777777777666666667777777777777-990-|
A|-7777777777777777555555555555555577777777444444445555555555555-770-|
E|-55555555------------------------55555555------------------------0-|

Solo rhythm

   A5|E5|D5        F#5|D5|E5|A5
E|------------------------------------|
B|------------------------------------|
G|----9--7--777777711--7--9-----------|
D|-7--9--7--777777711--7--9--77777777-|
A|-7--7--5--55555559---5--7--77777777-|
E|-5-------------------------55555555-|



--------------------------------8TH AVENUE SERENADE----------------------------

STANDARD TUNING
TABBED BY ultimatelefty

Intro:
 
e|------------------------------------|
B|------------------------------------|
G|-11-11-9---11---14---11---9---------|
D|--0--0-0-0--0-0--0-0--0-0-0-0-11-11-|
A|-------------------------------0--0-|
E|------------------------------------|x4(After 2nd time, pause, 
                                         then bass and drums come in)


Verse:

e|-------------------------------------------0-------------------------------------|
B|-------------------------------------------0-------------------------------------|
G|-7-7777777---------------------------------0---------------7-777777777777777-----|
D|-7-7777777-7-7777777-5-555555555555555-2-2222222-5-5555555-7-777777777777777-7-7-|
A|-5-5555555-7-7777777-5-555555555555555-2-2222222-5-5555555-5-555555555555555-7-7-|
E|-----------5-5555555-3-333333333333333-0-0000000-3-3333333-------------------5-5-|x2

e|------------------------------------|
B|------------------------------------|
G|-11-11-9---11---14---11---9---------|
D|--0--0-0-0--0-0--0-0--0-0-0-0-11-11-|
A|-------------------------------0--0-|
E|------------------------------------|x4

e|-------------------------------------------0-------------------------------------|
B|-------------------------------------------0-------------------------------------|
G|-7-7777777---------------------------------0---------------7-777777777777777-----|
D|-7-7777777-7-7777777-5-555555555555555-2-2222222-5-5555555-7-777777777777777-7-7-|
A|-5-5555555-7-7777777-5-555555555555555-2-2222222-5-5555555-5-555555555555555-7-7-|
E|-----------5-5555555-3-333333333333333-0-0000000-3-3333333-------------------5-5-|

e|-------------------------------------------0-------------------------------------|
B|-------------------------------------------0-------------------------------------|
G|-7-7777777---------------------------------0---------------7-7777777777777777777-|
D|-7-7777777-7-7777777-5-555555555555555-2-2222222-5-5555555-7-7777777777777777777-|
A|-5-5555555-7-7777777-5-555555555555555-2-2222222-5-5555555-5-5555555555555555555-|
E|-----------5-5555555-3-333333333333333-0-0000000-3-3333333-----------------------|

Chorus:

e|-----0---------------------------------|
B|-----0---------------------------------|
G|-----0---------------7-777777777777777-|
D|-2-2222222-5-5555555-7-777777777777777-|
A|-2-2222222-5-5555555-5-555555555555555-|
E|-0-0000000-3-3333333-------------------|x2

e|-----0---------------|
B|-----0---------------|
G|-----0---------------|
D|-2-2222222-5-5555555-|
A|-2-2222222-5-5555555-|
E|-0-0000000-3-3333333-|x3

Post-Chorus:

e|------------------------------------|
B|------------------------------------|
G|-11-11-9---11---14---11---9---------|
D|--0--0-0-0--0-0--0-0--0-0-0-0-11-11-|
A|-------------------------------0--0-|
E|------------------------------------|x4

Bridge (or whatever you want to call it):

e|---------------------------------------------------------------------7-000000-|
B|------------------------------------12-12121212--1312-12121212121212-8-888888-|
G|-11-11-9---11-----------------------12-12121212121212-12121212121212-9-999999-|
D|--0--0-0-0--0-0-0--11-11-9---11-----12-12121212121212-12121212121212-9-999999-|
A|--------------------0--0-0-0--0-0-0-------------------------------------------|
E|------------------------------------------------------------------------------|

e|---------------------------------------------------|
B|-12-12121212121212---------------------------------|
G|-12-12121212121212-11-11-9---11---14-11-11-9-------|
D|-12-12121212121212--0--0-0-0--0-0--0--0--0-0-11-11-|
A|----------------------------------------------0--0-|
E|---------------------------------------------------|

e|---------------------------------------------------------------------7-000000-|
B|------------------------------------12-12121212--1312-12121212121212-8-888888-|
G|-11-11-9---11-----------------------12-12121212121212-12121212121212-9-999999-|
D|--0--0-0-0--0-0-0--11-11-9---11-----12-12121212121212-12121212121212-9-999999-|
A|--------------------0--0-0-0--0-0-0-------------------------------------------|
E|------------------------------------------------------------------------------|

e|----------------------------------------------|
B|-12-12121212121212----------------------------|
G|-12-12121212121212-11-11-9---11---14-11~~-----|
D|-12-12121212121212--0--0-0-0--0-0--0--0-------|
A|----------------------------------------------|
E|------------------------------------------12\-|

Chorus:

e|-----0---------------------------------|
B|-----0---------------------------------|
G|-----0---------------7-777777777777777-|
D|-2-2222222-5-5555555-7-777777777777777-|
A|-2-2222222-5-5555555-5-555555555555555-|
E|-0-0000000-3-3333333-------------------|x2

e|-----0---------------|
B|-----0---------------|
G|-----0---------------|
D|-2-2222222-5-5555555-|
A|-2-2222222-5-5555555-|
E|-0-0000000-3-3333333-|x3

Outro:

e|------------------------------------|
B|------------------------------------|
G|-11-11-9---11---14---11---9---------|
D|--0--0-0-0--0-0--0-0--0-0-0-0-11-11-|
A|-------------------------------0--0-|
E|------------------------------------|x4

End with:

e|----|
B|----|
G|-7\-|
D|-7\-|
A|-5\-|
E|----|

----------------------------------DRAMA QUEEN----------------------------------
TABBED BY PersonTV


Intro:
C Em Am Am7 F G

C         Em    Am    Am7
She is my drama queen
F                  G
She is so wild and reckless
C             Em    Am    Am7
There goes my drama queen
F                    G
She dangles from her necklace
Am      Am7    F
Daddy's little bundle of joy
Am       Am7 F
Out of a magazine
C             Em    Am    Am7
There goes my drama queen
F          G        C
She's old enough to bleed now

C             Em    Am    Am7
There goes my drama queen
F                 G
Her life is now unfolding
C             Em    Am    Am7
There goes my drama queen
F                  G
Do you think she's holding?
C             Em    Am    Am7
There goes my drama queen
F              G
Did you find a savior?
C             Em    Am    Am7
There goes my drama queen
F                 G
You better call a lawyer
Am      Am7    F
Daddy's little bundle of joy
Am       Am7 F
Out of a magazine
C             Em    Am    Am7
There goes my drama queen
F          G        C
She's old enough to bleed now

----------------------------------------X-KID----------------------------------

STANDARD TUNING
TABBED BY nashzz


  INTRO/VERSE
e|------------------------------------------------------------|
B|------------------------------------------------------------|
G|--9--99---9--99---9--99---9--99-----------------------------|  X 4
D|--9--99---9--99---9--99---9--99-----------------------------|  
A|--7--77---x--xx---x--xx---0--00-----------------------------| 
E|----------9--99---7--77-------------------------------------|
  
 PRE-CHORUS: " I fell in love..."
e|--------------------------------------------|
B|--------------------------------------------|
G|---9--99--9--99---9--99--9-99---------------|
D|---9--99--9--99---9--99--9-99---------------|
A|---7--77--x--xx---x--xx--0-00---------------|
E|----------7--77---9--99---------------------|

e|------------------------------------------------------|
B|------------------------------------------------------|
G|--9--99---9--99---9--99-------------------------------| 
D|--9--99---9--99---9--99---7777777777777777--9---------|  
A|--7--77---x--xx---x--xx---7777777777777777--9---------| 
E|----------9--99---7--77---5555555555555555--7---------|

          CHORUS
e|-------------------------------------------------|
B|-------------------------------------------------|
G|--------------44444444--66666666-----------------|
D|--2222222222--44444444--66666666--77777777--9----|
A|--2222222222==22222222==44444444==77777777=-9====|
E|--0000000000----------------------55555555--7----|

e|----------------------------------------------------------|
B|----------------------------------------------------------|
G|--------------44444444--66666666--------------------------|
D|--2222222222--44444444--66666666--77777777-777777777--9---|
A|--2222222222--22222222--44444444--77777777-777777777--9---|
E|--0000000000----------------------55555555-555555555--7---|


         VERSE
e|------------------------------------------------------------|
B|------------------------------------------------------------|
G|--9--99---9--99---9--99---9--99-----------------------------|  X 3
D|--9--99---9--99---9--99---9--99-----------------------------|  
A|--7--77---x--xx---x--xx---0--00-----------------------------| 
E|----------9--99---7--77-------------------------------------|

      PRE-CHORUS: " You fell in love.."

e|--------------------------------------------|
B|--------------------------------------------|
G|---9--99--9--99---9--99--9-99---------------|
D|---9--99--9--99---9--99--9-99---------------|
A|---7--77--x--xx---x--xx--0-00---------------|
E|----------7--77---9--99---------------------|

e|-------------------------------------------------------|
B|-------------------------------------------------------|
G|--9--99---9--99---9--99--------------------------------| 
D|--9--99---9--99---9--99---777777777-7777777--9---------|  
A|--7--77---x--xx---x--xx---777777777-7777777--9---------| 
E|----------9--99---7--77---555555555-5555555--7---------|

     CHORUS
e|-------------------------------------------------|
B|-------------------------------------------------|
G|--------------44444444--66666666-----------------|
D|--2222222222--44444444--66666666--77777777--9----|
A|--2222222222==22222222==44444444==77777777=-9====|
E|--0000000000----------------------55555555--7----|

e|---------------------------------------------------------|
B|---------------------------------------------------------|
G|--------------44444444--66666666-------------------------|
D|--2222222222--44444444--66666666--77777777-777777777-----|
A|--2222222222--22222222--44444444--77777777-777777777-----|
E|--0000000000----------------------55555555-555555555-----|


     BRIDGE

e|----------------------------|
B|----------------------------|
G|----------------------------|
D|--7-7-7-7--2--9999999999----| x 3
A|--7-7-7-7--2--9999999999----|
E|--5-5-5-5--0--7777777777----|


e|-------------------------------------------------------------|
B|-------------------------------------------------------------|
G|-------------------------------------------------------------|
D|-7-7-7-7-7-7-7-7-7-7-7-7-7-7-7-7-7-7-7-7-7-7-7-7-7-7----9----|
A|-7-7-7-7-7-7-7-7-7-7-7-7-7-7-7-7-7-7-7-7-7-7-7-7-7-7----9----|
E|-5-5-5-5-5-5-5-5-5-5-5-5-5-5-5-5-5-5-5-5-5-5-5-5-5-5----7----|
   . . . . . . . . . . . . . . . . . . . . . . . . . .



 SOLO(RHYTHM):
e|------------------------------------------------|
B|------------------------------------------------|
G|-99999999--66666666-----------------------------|  
D|-99999999--66666666--99999999-77777777----------|   X 2
A|-77777777--44444444--99999999-77777777----------|
E|---------------------77777777-55555555----------|
 
e|-----------------------------|
B|-----------------------------|
G|-----------------------------|
D|--7-7-7-7--2--9-999999999----| x 3
A|--7-7-7-7--2--9-999999999----|
E|--5-5-5-5--0--7-777777777----|

e|------------------------------|
B|------------------------------|
G|------------------------------|
D|--7-7-7-7--2--9-999999999--6--| 
A|--7-7-7-7--2--9-999999999--6--|
E|--5-5-5-5--0--7-777777777--4--|

 SOLO(LEAD):
e|----------------------------------------------------------------------------|
B|----0--0--0--0--0--0----0--0--0--0--0--0--0--0--0--0--0--0--0-0-0-0-0-0-0---|
G|---13-13-13-13-11/13---13-13-13-13-14-13-11-11-11-11-11-13-11-9-9-9-9-9-9---|
D|----X--X--X--X--X/-X----X--X--X--X--X--X--X--X--X--X--X--X--X-X-X-X-X-X-X---|
A|---11-11-11-11--9/11---11-11-11-11-12-11--9--9--9--9--9-11--9-7-7-7-7-7-7---|
E|----------------------------------------------------------------------------|

e|----------------------------------------------------------------------------|
B|----------------------------------------------------------17--12--1717171717|
G|--b-14-14br-14-13-------13-14--b14br-14-13------13---14---------------------|
D|-------------------14-14------------------14-14----14-----------------------|
A|----------------------------------------------------------------------------|
E|----------------------------------------------------------------------------|

e|--------------------------------------------------------------------------------|
B|-------------------------------------12-12--15brb-15brb--17-17-17-17-16-14-12-12|
G|14-14-14-14-13-11-9-8~-14-14-14-14-13-------------------------------------------|
D|--------------------------------------------------------------------------------|
A|--------------------------------------------------------------------------------|
E|--------------------------------------------------------------------------------|

e|----------------------------19-19-19--|
B|---17-17-17-17--16-19-19-19-----------|
G|--------------------------------------|
D|--------------------------------------|
A|--------------------------------------|
E|--------------------------------------|

      END SOLO~

e|------------------------------------------------------------|
B|------------------------------------------------------------|
G|--9--99---9--99---9--99---9--99-----------------------------|  X 2
D|--9--99---9--99---9--99---9--99-----------------------------|  
A|--7--77---x--xx---x--xx---0--00-----------------------------| 
E|----------9--99---7--77-------------------------------------|

e|------------------------------------------------------|
B|------------------------------------------------------|
G|--9--99---9--99---9--99-------------------------------| 
D|--9--99---9--99---9--99---7777777777777777--9---------|  
A|--7--77---x--xx---x--xx---7777777777777777--9---------| 
E|----------9--99---7--77---5555555555555555--7---------|

     CHORUS
e|-------------------------------------------------|
B|-------------------------------------------------|
G|--------------44444444--66666666-----------------|
D|--2222222222--44444444--66666666--77777777--9----| X 3
A|--2222222222==22222222==44444444==77777777=-9====|
E|--0000000000----------------------55555555--7----|

e|-----------------------------------------------------------------|
B|-----------------------------------------------------------------|
G|--------------44444444--66666666---------------------------------|
D|--2222222222--44444444--66666666--77777777-7777777-77777777-9----| 
A|--2222222222==22222222==44444444==77777777=7777777-77777777-9====|
E|--0000000000----------------------55555555-5555555-55555555-7----|


     OUTRO
e|------------------------------------------|
B|------------------------------------------|
G|--9--99---9--99---9--99---9--9-9----------| 
D|--9--99---9--99---9--99---9--9-9----2-----|  
A|--7--77---x--xx---x--xx---0--0-X----2-----| 
E|----------9--99---7--77--------7-0~-0-----|


--------------------------------SEX, DRUGS & VIOLENCE--------------------------

STANDARD TUNING
TABBED BY ?


Intro

   E5      A5 B5      E5      C#5  B5
E|------------------|------------------|
B|------------------|------------------|
G|-999999999--------|-9999999996-4-444-|
D|-9999999997-9-999-|-9999999996-4-444-|
A|-7777777777-9-999-|-7777777774-2-222-|
E|----------5-7-777-|------------------|

Verse

   E       A5      E5     A5|G#5|E5    E       A5      B5    B5  E5  B5
E|-00000000--------------------------|-00000000-------------------------|
B|-00000000--------------------------|-00000000-------------------------|
G|-11111111--------99999999----------|-11111111------------------9------|
D|-2222222277777777999999997-76-2-22-|-222222227777777799999999-99-9-99-|
A|-2222222277777777777777777-76-2-22-|-222222227777777799999999-97-9-99-|
E|-0000000055555555--------5-54-0-00-|-000000005555555577777777-7--7-77-|

 

Pre-chorus

   A5      B5      A5      B5      A5      B5      C#m               
E|------------------------------------------------------------------|
B|-------------------------------------------------5555555555555555-|
G|-------------------------------------------------6666666666666666-|
D|-7777777799999999777777779999999977777777999999996666666666666666-|
A|-7777777799999999777777779999999977777777999999994444444444444444-|
E|-555555557777777755555555777777775555555577777777-----------------|

  A5      B5      G#5     C#5     A5      B5
E|--------------------------------------------------|
B|--------------------------------------------------|
G|-------------------------66666666-----------------|
D|-777777779999999966666666666666667777777799999999-|
A|-777777779999999966666666444444447777777799999999-|
E|-555555557777777744444444--------5555555577777777-|

Post-chorus

   E   B   C#m G#m A   E   B5
E|-7---7---4---4---5---7-------------------|
B|-9---7---5---4---5---9-------------------|
G|-9---8---6---4---6---9-------------------|
D|-9---9---6---6---7---9---999999999-9-9-9-|
A|-7---9---4---6---7---7---999999999-9-9-9-|
E|-----7-------4---5-------777777777-7-7-7-|

Bridge

   E5  A5 B5   E5  C#5   B5
E|-----------------------------|
B|-----------------------------|
G|-9-----------9---------------|
D|-9---7779-9999---1111119-999-|
A|-7---7779-9997---1111119-999-|
E|-----5557-777----9-9-9-7-777-|

Ending

   A5   B5     A5    B5    E5  Em7
E|-----------|--------------------|
B|-----------|-----------------8\-|
G|-----------|-------------9---7\-|
D|-7-7-7-9---|-7-7-7-9-9-9-9---9\-|
A|-7-7-7-9---|-7-7-7-9-9-9-7---7\-|
E|-5-5-5-7---|-5-5-5-7-7-7--------|


--------------------------------------LITTLE BOY NAMED TRAIN-------------------

STANDARD TUNING
TABBED BY Carlosss_Uno

Intro:

Guitar 1:

e|--------------------------------------------------------------|
B|--------------------------------------------------------------|
G|---111111111111---------------------1111----------------------|
D|---111111111111--1111--99----1111---1111----------------------| 
A|---9-9-9-9-9-9---1111--99----1111----9-9----------------------|
E|------------------9-9--77-----9-9-----------------------------|

Guitar 2 (comes in after Guitar 1 plays their part 3x):

e|---------------------------------------------------------------|
B|---11-11-11-11-----12-12-11-11--11-11-11-11----12-11-----------|
G|---11-11-11-11--11-11-11-11-11--11-11-11-11-11-11-11-13-11-----|
D|----------------11--------------------------11-------13-11-----|
A|---------------------------------------------------------------|
E|---------------------------------------------------------------|

Verse 1:

e|---------------------------------------------------------------|
B|---------------------------------------------------------------|
G|------------------------------------6-6666666------------------|
D|-44444444444444444444444444444444---6-6666666------------------|
A|-44444444444444444444444444444444---4-4444444------------------|
E|-22222222222222222222222222222222------------------------------|

Where did you come from?
Where have you been?
Looks like you fell into the trash bin

e|---------------------------------------------------------------|
B|---------------------------------------------------------------|
G|---44444444444-----------44444444444444444444------------------|
D|---44444444444----22-----44444444444444444444----4-44444444444-|
A|---22222222222----22-----22222222222222222222----4-44444444444-|
E|------------------00-----------------------------2-22222222222-|

I'm catching train, I'm crashing a car
Back in for daylight shooting for the stars

Pre-Chorus 1:

e|---------------------------------------------------------------|
B|---------------------------------------------------------------|
G|----6666666666666666--4444444----------------------------------|
D|----6666666666666666--4444444---4-4444444----------------------|
A|----4444444444444444--2222222---4-4444444----------------------| x2
E|--------------------------------2-2222222----------------------|

Like a lifelong daisy chain
Of my imagination
A rat inside a maze
I got no destination

Chorus 1:

e|----------------------------------------------------|
B|----------------------------------------------------|
G|---44444--------------------------------------------|
D|---44444---22---4-4444444---------------------------| x3
A|---22222---22---4-4444444---------------------------|
E|-----------00---2-2222222---------------------------|

Cause I'm a little boy named Train
Ask me again, I'll tell you the same
Little boy named Train

     *******************************
e|----------------------------------------------------------------|
B|----------------------------------------------------------------|
G|---6666666666666666666666666666666------------------------------|
D|---6666666666666666666666666666666------------------------------|
A|---4444444444444444444444444444444------------------------------|
E|----------------------------------------------------------------|

Don't know where I come from
But I know where I have been

Repeat Intro


Post-Chorus 1:
e|---------------------------------------------------------------|
B|---------------------------------------------------------------|
G|------------------------------------6-66666666666--------------|
D|-44444444444444444444444444444444---6-66666666666--------------|
A|-44444444444444444444444444444444---4-44444444444--------------|
E|-22222222222222222222222222222222------------------------------|

Serious people are funny to me
Funny people seem so serious

e|---------------------------------------------------------------|
B|---------------------------------------------------------------|
G|---44444444444-----------44444444444444444444------------------|
D|---44444444444----22-----44444444444444444444----4-44444444444-|
A|---22222222222----22-----22222222222222222222----4-44444444444-|
E|------------------00-----------------------------2-22222222222-|

I'm always lost and nothing will change
Give me directions and I'll get lost again

Pre-Chorus 2:
e|---------------------------------------------------------------|
B|---------------------------------------------------------------|
G|----6666666666666666--4444444----------------------------------|
D|----6666666666666666--4444444---4-4444444----------------------|
A|----4444444444444444--2222222---4-4444444----------------------| x2
E|--------------------------------2-2222222----------------------|

Like a lifelong daisy chain
Of my imagination
A rat inside a maze
I got no destination

Chorus 2:



e|----------------------------------------------------|
B|----------------------------------------------------|
G|---44444--------------------------------------------|
D|---44444---22---4-4444444---------------------------| x3
A|---22222---22---4-4444444---------------------------|
E|-----------00---2-2222222---------------------------|

Cause I'm a little boy named Train
Ask me again, I'll tell you the same
Little boy named Train

     *********************************
e|----------------------------------------------------------------|
B|----------------------------------------------------------------|
G|---6666666666666666666666666666666666---------------------------|
D|---6666666666666666666666666666666666---------------------------|
A|---4444444444444444444444444444444444---------------------------|
E|----------------------------------------------------------------|

Don't know where I come from
But I know where I have been

Post-Chorus 2:

Guitar 1:

e|----------------------------------------------------------------|
B|----------------------------------------------------------------|
G|---111111111111----------------------1111-----------------------|
D|---111111111111---1111---99---1111---1111-----------------------| x4
A|----9-9-9-9-9-9---1111---99---1111----9-9-----------------------|
E|-------------------9-9---77----9-9------------------------------|

Guitar 2 (comes in after Guitar 1 plays their part 2x):


Solo:
Guitar 1 replays the verse

Guitar 2:
e|---------------------------------------------------------------|
B|---11-11-11-11-----12-12-11-11--11-11-11-11----12-11-----------|
G|---11-11-11-11--11-11-11-11-11--11-11-11-11-11-11-11-13-11-----|
D|----------------11--------------------------11-------13-11-----|
A|---------------------------------------------------------------|
E|---------------------------------------------------------------|

e|---------------------------------------------------------------|
B|---------------------------------------------------------------|
G|---------------------------------------------------------------|
D|---8-8-8-8-4-9-9-8-8-8-8-8-8-8-4-9-9-8-4-6-6-------------------|
A|---------------------------------------------------------------|
E|---------------------------------------------------------------|

e|---------------------------------------------------------------|
B|---------------------------------------------------------------|
G|---8-8-8-8-4-9-9-8-8-8-8-8-8-8-4-9-9-8-4-3-3-------------------|
D|---------------------------------------------------------------|
A|---------------------------------------------------------------|
E|---------------------------------------------------------------|


Pre-Chorus 3:

e|---------------------------------------------------------------|
B|---------------------------------------------------------------|
G|----6666666666666666--4444444----------------------------------|
D|----6666666666666666--4444444---4-4444444----------------------|
A|----4444444444444444--2222222---4-4444444----------------------| x2
E|--------------------------------2-2222222----------------------|

Like a lifelong daisy chain
Of my imagination
A rat inside a maze
I got no destination

Chorus 3:

.

e|----------------------------------------------------|
B|----------------------------------------------------|
G|---44444--------------------------------------------|
D|---44444---22---4-4444444---------------------------| x3
A|---22222---22---4-4444444---------------------------|
E|-----------00---2-2222222---------------------------|
Cause I'm a little boy named Train
Ask me again, I'll tell you the same
Little boy named Train

     **************************************************************
e|--------------------------------------------------------------------|
B|--------------------------------------------------------------------|
G|---66666666666666666666666666666666666666666666666666666666666666---|
D|---66666666666666666666666666666666666666666666666666666666666666---|
A|---44444444444444444444444444444444444444444444444444444444444444---|
E|--------------------------------------------------------------------|
Don't know where I come from
But I know where I have been
I said I don't know where I come from
But I know where I have been

Outro:

Guitar 1:

e|----------------------------------------------------------|
B|----------------------------------------------------------|
G|---111111111111----------------------1111-----------------|
D|---111111111111---1111---99---1111---1111-----------------| x4
A|----9-9-9-9-9-9---1111---99---1111----9-9-----------------|
E|-------------------9-9---77----9-9------------------------|

Guitar 2 (comes in after Guitar 1 plays their part 2x):

e|---------------------------------------------------------------|
B|---11-11-11-11-----12-12-11-11--11-11-11-11----12-11-----------|
G|---11-11-11-11--11-11-11-11-11--11-11-11-11-11-11-11-13-11-----|
D|----------------11--------------------------11-------13-11-----|
A|---------------------------------------------------------------|
E|---------------------------------------------------------------|

Both Guitars:

e|--------------------------------------------------------------|
B|--------------------------------------------------------------|
G|---11---------------------------------------------------------|
D|---11---------------------------------------------------------|
A|----9---------------------------------------------------------|
E|--------------------------------------------------------------|

------------------------------------------AMANDA-------------------------------

STANDARD TUNING
TABBED BY

MAIN VERSE
0:00    F#Maj           A#Min           G#Min              C#Maj
e|------(2)~~~~~~~------(6)~~~~~~~------(4)----------------(9)---------------|
B|-2-2-2-2-2-2-2-2/6-6-6-6-6-6-6-6\4-4-4-4-4-4-4-4/9--9--9--9--9--9--9--9----|
G|-3-3-3-3-3-3-3-3/6-6-6-6-6-6-6-6\4-4-4-4-4-4-4-4/10-10-10-10-10-10-10-10---|
D|-4-4-4-4-4-4-4-4/8-8-8-8-8-8-8-8\6-6-6-6-6-6-6-6/11-11-11-11-11-11-11-11---|    x4
A|-4-4-4-4-4-4-4-4/8-8-8-8-8-8-8-8\6-6-6-6-6-6-6-6/11-11-11-11-11-11-11-11---|
E|-2-2-2-2-2-2-2-2/6-6-6-6-6-6-6-6\4-4-4-4-4-4-4-4/9--9--9--9--9--9--9--9----|




I THINK THESE ARE RIGHT.. THE LAST CHORD I HAVE D6, WHICH SOUNDS RIGHT...
ON ANOTHER TAB, SOME HAD BMin, WHICH ALSO SOUNDS RIGHT BUT IT DOSENT HAVE A LOW 'D' NOTE.. 
WHICH I CAN CLEARLY HEAR WHEN ITS RINGING ON.... SO:
0:24 WEIRD CHORD PART
          F#Maj                 Edom7            D#min          D6 
e|------------------------------------------(6)6)6)6)6)6)6)6)----------------|
B|-11-11-11-11-11-11-11-11--5-5-5-5-5-5-5-5--7-7-7-7-7-7-7-7--3~~~~~~~-------|
G|-11-11-11-11-11-11-11-11--7-7-7-7-7-7-7-7--8-8-8-8-8-8-8-8--4~~~~~~~-------|
D|-11-11-11-11-11-11-11-11--6-6-6-6-6-6-6-6--8-8-8-8-8-8-8-8--4~~~~~~~-------|
A|-9--9--9--9--9--9--9--9---7-7-7-7-7-7-7-7--6-6-6-6-6-6-6-6--5~~~~~~~-------|
E|---------------------------------------------------------------------------|









0:33 POST CHORUS PART (YOU COULD DO THE HIGHER BAR CHORD BUT.. ITS A RUSH)
e|---------------------------------------------------------------------------|
B|-2-2-2-2-2-2-2-2--6-6-6-6-6-6-6-6--2-2-2-2-2-2-2-2--3/6-6-6-6-6-6-6--------|
G|-3-3-3-3-3-3-3-3--6-6-6-6-6-6-6-6--3-3-3-3-3-3-3-3--3/6-6-6-6-6-6-6--------|
D|-4-4-4-4-4-4-4-4--6-6-6-6-6-6-6-6--4-4-4-4-4-4-4-4--3/6-6-6-6-6-6-6--------|
A|-4-4-4-4-4-4-4-4--4-4-4-4-4-4-4-4--4-4-4-4-4-4-4-4--1/4-4-4-4-4-4-4--------|
E|-2-2-2-2-2-2-2-2-------------------2-2-2-2-2-2-2-2-------------------------|

PLAY MAIN VERSE X4




                          PLAY WEIRD CHORD PART, THEN



1:10 CATCHY RHYTHM PART              THIS PART PLAY X4 ↓
e|---------------------------------|----------------------|
B|-2-2-2-2-2-2-2-2--6-6-6-6-6-6-6-6|----------------------|
G|-3-3-3-3-3-3-3-3--6-6-6-6-6-6-6-6|-------------4--4-----|
D|-4-4-4-4-4-4-4-4--6-6-6-6-6-6-6-6|--4--4-2--2--4--4-2-2-|
A|-4-4-4-4-4-4-4-4--4-4-4-4-4-4-4-4|--4--4-2--2--2--2-2-2-|
E|-2-2-2-2-2-2-2-2-----------------|--2--2-0--0-------0-0-|





1:25 PRE-SOLO INTERLUDE
GTR1
e|------------------------------------------------------------------------|
B|------------------------------------------------------------------------|
G|-------------------------------------------------------------------\\---|
D|-4-----------------------8-6--9-9---------------9---9-11-11~-------\\---| X2 (WITH BUILD UP &
A|-4-----------------------8-6--9-9---------------9---9-11-11~-------\\---| POWERSLIDE    
E|-2-----------------------6-4--7-7---------------7---7-9--9~~-------\\---|AT THE END OF 2ND REPEAT)
|GTR2
e|------------------------------------------------------------------------|
B|-11--11--11--11--11--11-11-9--1212--12--12--12--12--12--14--14----------|
G|---11--11--11--11--11---11-11-111111--11--11--11--11--11--11------------|
D|------------------------------------------------------------------------| X2
A|------------------------------------------------------------------------|
E|------------------------------------------------------------------------|





1:37 SOLO (guitar 2 plays 'main verse' rhythm for this.
e|--------2~-2---1-1----------------------------1-1-----1--------------|
B|-----------4b¼-2-2---8//14\\8//14-----------2~2-2-4~--2--2-2---------|
G|-----3---------------9//15\\9//15-----------3~-----------3-3-3p1-----|
D|---4-----------------------------------------------------------------| 
A|---------------------------------------------------------------------|
E|------------------------------------14\\\\1--------------------------|
|
e|--------2~-2--1-1-----------------------------------------------------------------------|
B|--------2~-4¼-2-2-----------------------------------------------------------------------|
G|----1h3---------------------------------------------------------------------------------|
D|--4---------------------------------------9/11-11-13\11-11\9--9\8--8/9--9/11-11-11-11~--|
A|------------------------------------------X-X--X--X--X--X--X--X\X--X/X--X/X--X--X--X----|
E|---------------------14~-----14//20\\4----7/9--9--11\9--9-\7--7\6--6/7--7/9--9--9--9~---|
|
e|-6-6-6-6-/7-7-7-7-/9--9--9--9--9--9--9--/11-11\9--9-\7--7\6-6------------------|
B|-7-7-7-7-/9-9-9-9-/11-11-11-11-11-11-11-/12-12\11-11\9--9\7-7---6br-p4-2-------|
G|-------------------------------------------------------------------------------|
D|-------------------------------------------------------------------------------|
A|-------------------------------------------------------------------------------|
E|-------------------------------------------------------------------------------|
|
e|-2--2---1----1--1-2---1----1--1-2---1-------------------------------|
B|-2--4b¼-2-2--2--2-4b¼-2-2--2--2-4b¼-2-2-----------------------------|
G|----------3-------------3-------------3-3---------------------------|
D|----------------------------------------4---------------------------|
A|--------------------------------------------8br*--------------------|
E|-------------------------------------------------6~---4~--2~~~~~----|
*- artificial harmonic




                           PLAY WEIRD CHORD PART

2:10 (OUTRO) SAME AS CATCHY PART                          END ON
e|---------------------------------|----------------------|---
B|-2-2-2-2-2-2-2-2--6-6-6-6-6-6-6-6|----------------------|---
G|-3-3-3-3-3-3-3-3--6-6-6-6-6-6-6-6|-------------4--4-----|---
D|-4-4-4-4-4-4-4-4--6-6-6-6-6-6-6-6|--4--4-2--2--4--4-2-2-|-4-
A|-4-4-4-4-4-4-4-4--4-4-4-4-4-4-4-4|--4--4-2--2--2--2-2-2-|-4-
E|-2-2-2-2-2-2-2-2-----------------|--2--2-0--0-------0-0-|-2-



---------------------------------------------WALK AWAY-------------------------
STANDARD TUNING
TABBED BY deathfromala

0:00 INTRO(cleanish)
hard to get right but you will after practice.
e|-333--3-----2---------------2-333---3-----2------------|
B|-333--3-----3---1-----1-----3-333---3-----3---1~-------|
G|-000--0-----2---0-----0-----2-000---0-----2---0~-------|
D|-000--0-----0-0-2-----2---0---000---0-----0-0-2~-------|
A|-222--2---------3-3-3-3-3-----222---2---------3~-------|
E|-333--3-3-3-------------------333-3-3-3-3--------------|



0:08 VERSE
e|-3---3-----2---------------2-333---3-----2-------------2-|     SORRY, I COULD'NT
B|-3---3-----3---1-----1-----3-333---3-----3---1-----1---3-|     FIT IT ALL IN ONE LINE.
G|-0---0-----2---0-----0-----2-000---0-----2---0-----0---2-|
D|-0---0-0---0-0-2-----2---0---000---0-----0-0-2-----2-0---|
A|-2---2---0-----3-3-3-3-3-----222---2---------3-3-3-3-----|
E|-3-3-3-----------------------333-3-3-3-3-----------------|..
|
e|-0~--0---2-------------3---2~---2-------2-----------22---|
B|-0~--0---3---1-----1---3---3~---3-------3-------3-3-33---|
G|-0~--0---2---0-----0---0---2~-2-2-2-2-2-2-2-2-2-2-2-22---|
D|-2~--2-----0-2-----2---0---0~-0-0-0-0-0-0-0-0-0-0-0-00---| X2
A|-2~2-2-2-----3-3-3-3---2-0-------------------------------|
E|---------------------3-3---------------------------------|



0:41 PALM MUTED BIT
e|-------------------------------------------------------------------------------------------------|
B|-------------8-------------------8-----------8---------------------------------------------------|
G|-9-9-9-9-9-9-9-9-5-5-5-5-5-5-5-5-9-9-9-9-9-9-9-9-2-2-2-2-2-2-2-2-5-5-5-5-5-5-5-5-7-7-7-7-7-------|
D|-9-9-9-9-9-9-9-9-5-5-5-5-5-5-5-5-9-9-9-9-9-9-9-9-2-2-2-2-2-2-2-2-5-5-5-5-5-5-5-5-7-7-7-7-7-R-R-R-|
A|-7-7-7-7-7-7-7-7-3-3-3-3-3-3-3-3-7-7-7-7-7-7-7-7-0-0-0-0-0-0-0-0-3-3-3-3-3-3-3-3-5-5-5-5-5-------|
E|-------------------------------------------------------------------------------------------------|
   * * * * * * * * * * * * * * * * * * * * * * * * * * * * * * * * * * * * ' '



0:53 CHORUS (AND NOW 2ND VERSE)
e|------------------------------------------------------------------------|
B|-------------------------------------------------8--8-8-8---------------|
G|----------7~-5~-5-5-5-7~----------7~-5~-5-5-5-7~-9~-9-9-9-7~-5~-5-5-5---|
D|-5~-5-5-5-7~-5~-5-5-5-7~-5~-5-5-5-7~-5~-5-5-5-7~-9~-9-9-9-7~-5~-5-5-5-5~|
A|-5~-5-5-5-5~-3~-3-3-3-5~-5~-5-5-5-5~-3~-3-3-3-5~-7~-7-7-7-5~-3~-3-3-3-5~|
E|-3~-3-3-3----------------3~-3-3-3-------------------------------------3~|

-----------------------------|
-----------------------------|
-7~-7-7-7--7-7-7--7-7-7--7-7-|
-7~-7-7-7--7-7-7--7-7-7--7-7-|
-5~-5-5-5--5-5-5--5-5-5--5-5-|
-----------------------------|


1:09 (2nd PART OF CHORUS)                                       THIS PART PLAY X2 \/
e|-------------------------------------------------------------|---------------------------|
B|-8-8-8-8--8-8-8----------------------------------------------|---------------------------|
G|-9-9-9-9--9-9-9--7-7-7-7--7-7-7------------------5-5-5-5----7|----------7~-5~-5-5-5-7~---|
D|-9-9-9-9--9-9-9--7-7-7-7--7-7-7--5-5-5-5--5-5-5--5-5-5-5----7|-5~-5-5-5-7~-5~-5-5-5-7~---|
A|-7-7-7-7--7-7-7--5-5-5-5--5-5-5--5-5-5-5--5-5-5--3-3-3-3----5|-5~-5-5-5-5~-3~-3-3-3-5~---|
E|---------------------------------3-3-3-3--3-3-3--------------|-3~-3-3-3------------------|




                           1:24, PLAY CHORUS (WHICH IS NOW THE 2ND VERSE) X2


1:54 PRECHORUS
e|-------------------------------------------------------------------------------------------------|
B|-8-8-8-8-8-8-8-8-5-5-5-5-5-5-5-5-8-8-8-8-8-8-8-8-2-2-2-2-2-2-2-2-5-5-5-5-5-5-5-5-7-7-7-7-7-------|
G|-9-9-9-9-9-9-9-9-5-5-5-5-5-5-5-5-9-9-9-9-9-9-9-9-2-2-2-2-2-2-2-2-5-5-5-5-5-5-5-5-7-7-7-7-7-------|
D|-9-9-9-9-9-9-9-9-5-5-5-5-5-5-5-5-9-9-9-9-9-9-9-9-2-2-2-2-2-2-2-2-5-5-5-5-5-5-5-5-7-7-7-7-7-R-R-R-|
A|-7-7-7-7-7-7-7-7-3-3-3-3-3-3-3-3-7-7-7-7-7-7-7-7-0-0-0-0-0-0-0-0-3-3-3-3-3-3-3-3-5-5-5-5-5-------|
E|-------------------------------------------------------------------------------------------------|




            2:07, PLAY CHORUS, THEN 2ND PART OF CHORUS (WITHOUT RESTS IN EACH CHORD PROGRESSION)
                     AND THEN A BIG POWER SLIDE AT THE END OF ALL OF THAT :).. THEN THIS



2:38(SOLO)  PLAY THIS PART X2 \/               X1                              X1
e|--|-----------------------------|-----------------------------|--------------------------------|
B|/9|10--9-10~-10-9\7-7-7-7~-7-7/9|10--9-10~-10-9\7-7-7-7~-7-7/9|9~-9-9-9~-9-9-9~-9-10-9-9-9\7---|
G|/9|9---9-9~~-9--9\7-7-7-7~-7-7/9|7---7-7~~-7--9\7-7-7-7~-7-7/9|9~-9-9-9~-9-9-9~-9-9--9-9-9\7---|
D|--|-----------------------------|-----------------------------|9)(9)9)9)(9)9)9)(9)9)(9)9)9)7)--|
A|--|-----------------------------|-----------------------------|--------------------------------|
E|--|-----------------------------|-----------------------------|--------------------------------|..
|
|
2:54        PLAY THIS PART X2 \/               X1                              X1
e|-------------------------------|-----------------------------|--------------------------------|
B|-------------9\7-7-7-7~-7-7/9--|10--9-10~-10-9\7-7-7-7~-7-7/9|9~-9-9-9~-9-9-9~-9-9-9----\\----|
G|6---6-6~~-6--9\7-7-7-7~-7-7/9--|7---7-7~~-7--9\7-7-7-7~-7-7/9|9~-9-9-9~-9-9-9~-9-9-9----\\----|
D|7---7-7~~-7--------------------|-----------------------------|9)(9)9)9)(9)9)9)(9)9)9)---\\----|
A|-------------------------------|-----------------------------|--------------------------------|
E|-------------------------------|-----------------------------|--------------------------------|
|
|
RHYTHM FOR SOLO (just like chorus but with new key)                                   x2
e|-------------------------------------------------------------------------------|
B|-------------------------------------------------10--10-10-10------------------|
G|----------9~-7~-7-7-7-9~----------9~-7~-7-7-7-9~-11~-11-11-11-9~-7~-7-7-7----9~|
D|-7~-7-7-7-9~-7~-7-7-7-9~-7~-7-7-7-9~-7~-7-7-7-9~-11~-11-11-11-9~-7~-7-7-7-7~-9~|
A|-7~-7-7-7-7~-5~-5-5-5-7~-7~-7-7-7-7~-5~-5-5-5-7~-9~--9--9--9--7~-5~-5-5-5-7~-7~|
E|-5~-5-5-5----------------5~-5-5-5-----------------------------------------5~---|

------------------------|
------------------------|
-9-9-9--9-9-9--9-9-9--9~|
-9-9-9--9-9-9--9-9-9--9~|
-7-7-7--7-7-7--7-7-7--7~|
------------------------|





3:10 AFTER SOLO PRECHORUS (like 2nd part of chorus but with new notes)
e|---------------------------------------------------------------------------|
B|---------------------------------------------------------------------------|
G|-11-11-11-11-11-11-11-11-9-9-9-9-9-9-9-9-----------------7-7-7---7~-9~-----|
D|-11-11-11-11-11-11-11-11-9-9-9-9-9-9-9-9-7-7-7-7-7-7-7-7-7-7-7---7~-9~-----|
A|-9--9--9--9--9--9--9--9--7-7-7-7-7-7-7-7-7-7-7-7-7-7-7-7-5-5-5---5~-7~-----|
E|-----------------------------------------5-5-5-5-5-5-5-5-------------------|
   *  *  *  *  *  *  *  *  * * * * * * * * * * * * * ' ' '      



3:18 OUTRO  X4 \/             END WITH..
e|---------------------------|------------|
B|---------------------------|------------|
G|----------9~-7~-7-7-7-9~---|-7--9--6~---|
D|-7~-7-7-7-9~-7~-7-7-7-9~---|-7--9--7~---|
A|-7~-7-7-7-7~-5~-5-5-5-7~---|-5--7--7~---|
E|-5~-5-5-5------------------|-------5~---|


---------------------------------------------DIRTY ROTTEN BASTARDS-------------

STANDARD TUNING 
TABBED BY RockinRyan13

INTRO:
e|-----------------------------------------------------------------------|
B|-----------------------------------------------------------------------|
G|----------3-----------------3--------5---------------------------------|
D|-3--------3--(x2)--3--------3--(x2)--5--(x2)---------------------------|
A|-3--(x8)--1--------3--(x2)--1--------3---------------------------------|
E|-1-----------------1---------------------------------------------------|


VERSE:

e|------------------------------------------------------------------|
B|------------------------------------------------------------------|
G|----------3----------------------------5--------------------------|
D|-3--------3--(x2)--3----------3--------5--(x4)--------------------|
A|-3--(x4)--1--------3--(x2)----3--(x4)--3--------------------------|
E|-1-----------------1----------1-----------------------------------|

e|------------------------------------------------------------------|
B|------------------------------------------------------------------|
G|----------3----------------------------5--------------------------|
D|-3--------3--(x2)--3----------3--------5--(x2)---3----------------|
A|-3--(x4)--1--------3--(x2)----3--(x2)--3---------3--(x3)----------|
E|-1-----------------1----------1------------------1----------------|

CHORUS:
e|-----------------------------------------------------------------------|
B|-----------------------------------------------------------------------|
G|-3-----------------3-----------------3-------------------------5-------|
D|-3--(x4)--3--------3--(x4)--3--------3--(x4)--3--------5-------5--(x3)-|
A|-1--------3--(x4)--1--------3--(x4)--1--------3--(x4)--5-(x4)--3-------|
E|----------1-----------------1-----------------1--------3---------------|


BACK TO INTRO (LEADS INTO PART II)

INTRO:
e|-----------------------------------------------------------------------|
B|-----------------------------------------------------------------------|
G|----------3-----------------3--------5---------------------------------|
D|-3--------3--(x2)--3--------3--(x2)--5--(x2)---------------------------|
A|-3--(x8)--1--------3--(x2)--1--------3---------------------------------|
E|-1-----------------1---------------------------------------------------|

e|-----------------------------------------------------------------------|
B|-----------------------------------------------------------------------|
G|----------3-----------------3--------5---------------------------------|
D|-3--------3--(x2)--3--------3--(x2)--5--(KEEP STRUMMING)---------------|
A|-3--(x8)--1--------3--(x2)--1--------3---------------------------------|
E|-1-----------------1---------------------------------------------------|


PART II
e|-----------------------------------------------------------------------|
B|-----------------------------------------------------------------------|
G|------------------------------------------------5----------------------|
D|-8-8-x--8-8-8-x---------3--------8-8-8-x--------5--(x16)---------------|
A|-8-8-x--8-8-8-x--(x12)--3--(x16--8-8-8-x-(x8)---3----------------------|
E|-6-6-x--6-6-6-x---------1--------6-6-6-x-------------------------------|


PART III                         listen for the strumming to this part
e|-------------------------------------------------------------------------|
B|-------------------------------------------------------------------------|
G|-5-----8---------10---------------10-----------10------------------------|
D|-5--6--8--8--10--10--(BASS PART)--10--8-10-----10--12-10-8-10-12-10------|
A|-3--6--6--8--10--8----------------8---8-10-----8---12-10-8-10-12-10-(x4)-|
E|----4-----6--8------------------------6-8----------10-8--6-8--10-8-------|

       "All F*cked up...."   
e|----------------------------------------------------|
B|----------------------------------------------------|
G|-10---------------------------------------10--------|
D|-10----------------------12-10-8-10-8-10--10--(x4)--|
A|-8-----------------------12-10-8-10-8-10--8---------|
E|-------------------------10-8--6-8--6-8-------------|

      "I've got the urge..." listen for strumming
e|----------------------------------------------------|
B|----------------------------------------------------|
G|-----8----------8-----------------------------------|
D|-----8----10----8----10-----------------------------|
A|-----6----10----6----10-----------------------------|
E|----------8----------8------------------------------|

      "Juliet a homicide...."
e|------------------------------------------|
B|------------------------------------------|
G|-10--------------------10-----------------|
D|-10--12-10-8-10-12-10--10--(x4)-----------|
A|-8---12-10-8-10-12-10--8------------------|
E|-----10-8--6-8--10-8----------------------|

     "??? best friends ashes..."
e|--------------------------------------------------|
B|--------------------------------------------------|
G|----------------------------------------10--------|
D|-----------------------12-10-8-10-8-10--10--(x4)--|
A|-----------------------12-10-8-10-8-10--8---------|
E|-----------------------10-8--6-8--6-8-------------|

      "i've got the urge..."
e|----------------------------------------------------|
B|----------------------------------------------------|
G|-----8----------8-----------------------------------|
D|-----8----10----8----10-----------------------------|
A|-----6----10----6----10-----------------------------|
E|----------8----------8------------------------------|


      "Juliet a homicide...."
e|------------------------------------------|
B|------------------------------------------|
G|-10--------------------10-----------------|
D|-10--12-10-8-10-12-10--10--(x4)-----------|
A|-8---12-10-8-10-12-10--8------------------|
E|-----10-8--6-8--10-8----------------------|


     Bass Fills
e|--------------------------------------------------|
B|--------------------------------------------------|
G|----------------------------------------10--------|
D|-----------------------12-10-8-10-8-10--10--(x4)--|
A|-----------------------12-10-8-10-8-10--8---------|
E|-----------------------10-8--6-8--6-8-------------|


     "guitar solo.."
e|----------------------------------------------------|
B|----------------------------------------------------|
G|-----8----------8-----------------------------------|
D|-----8----10----8----10-----------------------------|
A|-----6----10----6----10-----------------------------|
E|----------8----------8------------------------------|


      "guitar solo cont.."
e|------------------------------------------|
B|------------------------------------------|
G|-10--------------------10-----------------|
D|-10--12-10-8-10-12-10--10--(x4)-----------|
A|-8---12-10-8-10-12-10--8------------------|
E|-----10-8--6-8--10-8----------------------|


SOLO

e|-6---6---6-----------------6---6---8-----|
B|-9b--9b--9b--8-6-5----6h9--9b--9b--11b---|
G|-----------------------------------------|
D|-----------------------------------------|
A|-----------------------------------------|
E|-----------------------------------------|

|------------------------------------------|
|-11p8----8-11p8----8-11p8----8-11p8----8--|
|------10--------10--------10--------10----|
|------------------------------------------|
|------------------------------------------|
|------------------------------------------|

|-------------------------------------------------|
|-16p13----13-16p13----13-16p13----13-16p13----13-|
|-------13----------13----------13----------13----|
|-------------------------------------------------|
|-------------------------------------------------|
|-------------------------------------------------|

|-13---13---13---|
|-16b--16b--16b--|
|----------------|
|----------------|
|----------------|
|----------------|

|-------------------------------------------------|
|-16p13----13-16p13----13-16p13----13-16p13----13-|
|-------13----------13----------13----------13----|
|-------------------------------------------------|
|-------------------------------------------------|
|-------------------------------------------------|

|-------------------------------------------------------|
|------------------------13----13----13----13-15b-15-13-|
|-15b-15-13--------------13----13----13----13-15b-15-13-|
|---------------13-13h15----15----15----15--------------|
|-------------------------------------------------------|
|-------------------------------------------------------|

|-------------------------------------------------|
|-16p13----13-16p13----13-16p13----13-16p13----13-|
|-------13----------13----------13----------13----|
|-------------------------------------------------|
|-------------------------------------------------|
|-------------------------------------------------|

|-13---13---13---|
|-16b--16b--16b--|
|----------------|
|----------------|
|----------------|
|----------------|


     "California's burning to the ground"
e|----------------------------------------------------|
B|----------------------------------------------------|
G|--10--------8-----------------8-8-----8-8-----8-8---|
D|--10--(x8)--8--(x8)--8--------8-8-8-8-8-8-8-8-8-8-8-| (x2)
A|--8---------6--------8--(x4)--6-6-8-8-6-6-8-8-6-6-8-|
E|---------------------6------------6-6-----6-6-----6-|


     "tooooniiiight..."
e|----------------------------------------------------|
B|----------------------------------------------------|
G|--5---------5---8---10------------------------------|
D|--5--(x16)--5-6-8-8-10------------------------------|
A|--3---------3-6-6-8-8-------------------------------|
E|--------------4---6---------------------------------|



*THE CHORD STRUCTURE FOR THIS PART OF THE SONG IS THE SAME AS THE FIRST PART*


RIFF     
e|--------------------------------------------------------------------------|
B|--------------------------------------------------------------------------|
G|----------5----7-7-7-5-5--------------5-----------------5-----7-7-7-5-5---|
D|--7-7-7-8---------------------7-7-7-8---7-5~~~--7-7-7-8-------------------|
A|-------------8------------8--------------------------------8------------8-|
E|--------------------------------------------------------------------------|


     
e|-------------------/13--|
B|------------------------|
G|------------------------|
D|--7-7-5-5-5-------------|
A|------------------------|
E|------------------------|


     "1..2..3..."         "way, carried away...." (not 100% sure on chords)
e|--------------------------------------------------------------------------|
B|--------------------------------------------------------------------------|
G|--5---------7-----------------5-5-------5-5-------5-5-------7-7-7---------|
D|--5--(X6)---7--(x6)-------5---5-5--3-5--5-5--3-5--5-5--3-5--7-7-7--(X3)---|
A|--3---------5-------------5---3-3--3-5--3-3--3-5--3-3--3-5--5-5-5---------|
E|--------------------------3--------1-3-------1-3-------1-3----------------|


RIFF:
e|----------------------------------|
B|-----5----------------------------|
G|---7---7-5-7--5-4-2-4--2-4-2-0----|
D|----------------------------------|
A|----------------------------------|
E|----------------------------------|


--------------------------------------------99 REVOLUTIONS---------------------

STANDARD TUNING
TABBED BY deathfromala

Introduction 1
Lead part 
e|-----------------------------------------------------|
B|-----------------------------------------------------|
G|-5555555555555555-12121212121212121212121212121212---|
D|------------------10101010101010101010101010101010---|
A|--------------------------tens-&-twelves-------------|
E|-----------------------------------------------------|..

AlL IN


Introduction 2
Lead part
e|----------------------------------------------------------------------------------------|   |-----|
B|-13~-13-15~-13-13-13---12~-12-13~-12-12-12---10~-10-11~-10-10-10/--12~-12-13~-12-12-12--|   |-13~~|
G|-12~-12-12~-12-12-12---12~-12-12~-12-12-12---10~-10-10~-10-10-10/--12~-12-12~-12-12-12--|x2 |-----|
D|----------------------------------------------------------------------------------------|x2 |-----|
A|----------------------------------------------------------------------------------------|   |-----|
E|----------------------------------------------------------------------------------------|   |-----|
Introduction 2
Rhythm part
e|-----------------------------------------------------------------------------------------|
B|-----------------------------------------------------------------------------------------|
G|---5-5-5-5-5-5-5-5-----------------------------------------------------------------------|
D|---5-5-5-5-5-5-5-5-------5-5-5-5-5-5-5-5-------3-3-3-3-3-3-3-3-------5-5-5-5-5-5-5-5-----|x2
A|---3-3-3-3-3-3-3-3-------5-5-5-5-5-5-5-5-------3-3-3-3-3-3-3-3-------5-5-5-5-5-5-5-5-----|x2
E|-------------------------3-3-3-3-3-3-3-3-------1-1-1-1-1-1-1-1-------3-3-3-3-3-3-3-3-----|




Verse 1                                            1st, 2nd & 3rd Ending
e|------------------------------------------------|--------------------|
B|------------------------------------------------|--------------------|
G|-5-5-5-5-5-5-5-5--------------------------------|-5-5-5-5-5-5-5-5-5~~|
D|-5-5-5-5-5-5-5-5-5-5-5-5-5-5-5-5-3-3-3-3-3-3-3-3|-5-5-5-5-5-5-5-5-5~~|
A|-3-3-3-3-3-3-3-3-5-5-5-5-5-5-5-5-3-3-3-3-3-3-3-3|-3-3-3-3-3-3-3-3-3~~|
E|-----------------3-3-3-3-3-3-3-3-1-1-1-1-1-1-1-1|--------------------|..
   * * * * * * * * * * * * * * * * * * * * * * * *  *   * *   *   *
 4th Ending
e|-------------------------------------|
B|-------------------------------------|
G|-------------------------------------|
D|-5~-5-5-5~-5-5-5~-5-5-5~-5-5-5~5~5~5~|
A|-5~-5-5-5~-5-5-5~-5-5-5~-5-5-5~5~5~5~|
E|-3~-3-3-3~-3-3-3~-3-3-3~-3-3-3~3~3~3~|
      * *    * *    * *    * *


Chorus 1
e|-------------------------------------------------------------------|
B|-------------------------------------------------------------------|
G|---5-5-5-5-5-5-5-5-5-5-5-5-5-5-5-5---------------------------------|
D|---5-5-5-5-5-5-5-5-3-3-3-3-3-3-3-3-3-3-3-3-3-3-3-3-5-5-5-5-5-5-5-5-|
A|---3-3-3-3-3-3-3-3-3-3-3-3-3-3-3-3-3-3-3-3-3-3-3-3-5-5-5-5-5-5-5-5-|
E|-----------------------------------1-1-1-1-1-1-1-1-3-3-3-3-3-3-3-3-|...
2nd part of chorus
e|---------------------------------------------------------------------|
B|---------------------------------------------------------------------|
G|---5-5-5-5-5-5-5-5-------------------------------------------------5~|x2
D|---5-5-5-5-5-5-5-5-5-5-5-5-5-5-5-5-3-3-3-3-3-3-3-3-5-5-5-5-5-5-5-5-5~|x2
A|---3-3-3-3-3-3-3-3-5-5-5-5-5-5-5-5-3-3-3-3-3-3-3-3-5-5-5-5-5-5-5-5-3~| 
E|-------------------3-3-3-3-3-3-3-3-1-1-1-1-1-1-1-1-3-3-3-3-3-3-3-3---|
                                                     *   * *   *   * 


                       ____________________________
                         PLAY INTRODUCTION PART 2 
                               ONE TIME ONLY     
     

                          ________________________
                                PLAY VERSE 1 

                         _________________________
                             PLAY CHORUS AGAIN X2


SOLO PART (EVERY 2ND GROUP OF BENDS IS QUICKER)
e|-----------------------------------------------------------------------------------------------|
B|-10-10-10~~--12-12-12~~--14-14-14~~--16-16-16~~--18-18-18~~--16-16-16~~--14-14-14~~--16~~--15~~|
G|-12b12b12b~--14b14b14b~--16b16b16b~--18b18b18b~--20b20b20b~--18b18b18b~--16b16b16b~--18b~--17b~|
D|-----------------------------------------------------------------------------------------------|
A|-----------------------------------------------------------------------------------------------|
E|-----------------------------------------------------------------------------------------------|



''WE LIVE IN TROUBLED TIMES''
e|---------|---------------------------|
B|---------|-first ending--------------|
G|---------|---------------------------|
D|--3------|-5-5-555-5-5-5-5-5-5-5-----|
A|--3-(X32)|-5-5-555-5-5-5-5-5-5-5-----|
E|--1------|-3-3-333-3-3-3-3-3-3-3-----|                  
2nd ending
e|-------------------------------------|
B|-------------------------------------|
G|-------------------------------------|
D|-5~-5-5-5~-5-5-5~-5-5-5~-5-5-5~5~5~5~|x2
A|-5~-5-5-5~-5-5-5~-5-5-5~-5-5-5~5~5~5~|
E|-3~-3-3-3~-3-3-3~-3-3-3~-3-3-3~3~3~3~|
      * *    * *    * *    * *




                __________________________________
                      DRUMS..THEN BASS..THEN:
          

                  _______________________________
                  PLAY WHOLE INTRODUCTION 1, ONCE


                __________________________________
                       PLAY CHORUS AGAIN X2


                 _________________________________
                  PLAY INTRODUCTION PART 2 TWICE



''9, 9, TO 1''
e|-----------------------------------------------------|
B|-----------------------------------------------------|
G|--5~------------------5~---4~------------------------|
D|--5~---5~---3~---5~---5~---5~---3~---5~--------------|
A|--3~---5~---3~---5~---3~---5~---1~---5~--------------|
E|-------3~---1~---3~--------3~---1~---3~--------------|


''YEAHHHHH''
e|--------------------------------------------------------|---------------------------|
B|--------------------------------------------------------|---------------------------|
G|-5-5-5~--------5-5-5~--------5-5-5~--------5-5-5~-------|---------5-5-5-5-5~--------|
D|-5-5-5~-5-5-5~-5-5-5~-5-5-5~-5-5-5~-5-5-5~-5-5-5~-5-5-5~|5~-------5-5-5-5-5~--------|
A|-3-3-3~-5-5-5~-3-3-3~-5-5-5~-3-3-3~-5-5-5~-3-3-3~-5-5-5~|5~-------3-3-3-3-3~--------|
E|--------3-3-3~--------3-3-3~--------3-3-3~--------3-3-3~|3~-------------------------|


--------------------------------------------THE FORGOTTEN----------------------

STANDARD TUNING
TABBED BY 98lyng

e|--------------------------------------------------------------------------|
B|-----------------------------------5-7-7--5------------------------5------|
G|--2-4b6r4p2--4--4b6r4p2------4/6------------6--6b7r6p4--------------------|
D|--------------------------4---------------------------------7p5h6---------|
A|--------------------------------------------------------------------------|
E|--------------------------------------------------------------------------|

The solo is played 2 times.

-------------------------------------------------------------------------------
-------------------------------------------------------------------------------


                                    ENJOY!
2 comments total.
0 reply
SimounZon wrote on May 31 2013, 12:11 pm

The intro of Missing you is a bit wrong and They are using Open CHords for the verse of Sex,Drugs And Violence can't post the correction cause im not sure about my tab but i see in cuatro they are using open chords in verse and then in chorus power chords..... and the rest it GOOD!!!

0 reply
bkh12590 wrote on April 10 2014, 07:10 pm

99 Revolutions intro is wrong.

e|-------------------------------
B|---------------------------------8-8-8-8-8-8-8-8-8-8-8-8-8-8-8-8
G|-5-5-5-5-5-5-5-5-5-5-5-5-5-5-5-5-5-5-5-5-5-5-5-5-5-5-5-5-5-5-5-5
D|-------------------------------
A|-------------------------------
E|-------------------------------

I want to post or [tab]
guest
You may want to rate the tab now too:
select rating
Please do not post tabs as comments. Select "correction" instead!