Oops, an error
Loading. Please wait.

Uno Bass Tab

ver1
ver1

Album

More versions @911Tabs.com
1,036 views 21 this week
1 commentread comment
1 2 3 4 5
excellent!
x 4
add to favorites launch autoscroll
font size
0
reset
Autoscroll
+/-
esc
set tempo
stop
Contributor
WARNING: You are trying to view
                                    content from Ultimate-Guitar.com
                                    in an unauthorized application,
                                    which is prohibited.

                                    Please use an official Ultimate
                                    Guitar Tabs application for iPhone,
                                    iPad or Android to access legitimate
                                    chords, guitar, bass, and drum tabs
                                    from Ultimate-Guitar.com database.

                                    Type "ultimate guitar tabs" in Apple
                                    App Store's or Android Market's
                                    search to find the application.
Artist: Green Day
Album: ¡Uno!
Tuning: EADG
Submitter: drummer_63

1: Nuclear Family   7: Loss Of Control
2: Stay The Night   8: Troublemaker
3: Carpe Diem       9: Angel Blue
4: Let Yourself Go  10: Sweet 16
5: Kill The Dj      11: Rusty James
6: Fell For You     12: Oh Love

===============================================================================
Nuclear Family
===============================================================================

Intro
G|----|
D|----|
A|-7~-|
E|----|

G|-------------------------------------|
D|-------------------------------------|
A|-7777777777777777----------777------7|
E|------------------55555555-----7-77--|

Verse 1
G|---------------------|
D|---------------------|
A|----------777------7-| 
E|-5-555555-----7-77---|

Chorus
G|----------------------------------------------|
D|------------------777777777777-6-4-2-22-22-22-|
A|----------------------------------------------|
E|-5555555555555555-----------------------------|

G|-----------------------------------------------|
D|------------------777777777777-6-4-4444-4444-2-|
A|-----------------------------------------------|
E|-5555555555555555------------------------------|

Verse 2 
G|-------------------------------------|    
D|-------------------------------------|    
A|----------777------7-677-677-677-677-|   
E|-5-555555-----7-77-------------------|    

Bridge
G|-------------------------------------|
D|-------------------------------------|
A|-677-677-677-677----------777------7-|
E|-----------------5-555555-----7-77---|

G|------------------------------------------|
D|------------------------------------------|
A|-77-66-44-22-00------------------777------|
E|----------------44-22-0-5-555555-----7-77-|

Outro                    
G|----------------|    
D|----------------|     
A|-77-7777-77-777-|   
E|----------------|         

End with
G|-----|
D|-----|
A|-/7--|
E|-----|



Intro x2
Verse x4
Chorus x1
Verse 2 x2
Verse 1 x2
Chorus x1
Bridge x1
Chorus x1
Verse x4
Chorus x1
Outro x8

===============================================================================
Stay The Night
===============================================================================

Intro 0:24
G|--------------------------------------|
D|--------------------------------------|
A|-5-5555555------5-55------------------|
E|-----------5-55------3-3333-5-5555555-|

Verse
G|-----------------------------------------------------------------------|
D|-----------------------------------------------------------------------|
A|-5555555555555555------------------5555555555555555--------------------|
E|------------------3333333333333333------------------33333333-55555555--|

Pre-chorus
G|----------------------------------|
D|----------------------------------|
A|-222222----------4555555----------|
E|--------23333333---------45555555-|

G|------------------------------------------|
D|------------------------------------------|
A|-122222----------4555555------------------|
E|--------23333333---------4555555555555555-|

Chorus
G|--------------------------------------|
D|--------------------------------------|
A|-5-5555555------5-55------------------|
E|-----------5-55------3-3333-5-5555555-|

Bridge 1 
G|-------11-------|
D|-0--------12----|
A|-------------12-|
E|----------------|

G|------11----------------------|
D|-0-------12-------11-11-12-14-|
A|------------12----------------|
E|------------------------------|

G|-14-12-11-------11-12-|
D|----------------------|
A|----------10-10-------|
E|----------------------|

G|-------------------|
D|-11-11-12-14-12-11-|
A|-------------------|
E|-------------------|

Bridge 2
G|---------------------|
D|------5555-----------|
A|-2222------5555------| 
E|----------------5555-|

G|---------------------|
D|------5555------7777-|
A|-2222------5555------| 
E|---------------------|

G|---------------------|
D|------5555-----------|
A|-2222------5555------| 
E|----------------5555-|

G|------------------------------|
D|------5555------7777777777777-|
A|-2222------5555---------------| 
E|------------------------------|

Outro
G|--------11-------|
D|--0--------12----|
A|--------------12-|
E|-----------------|

G|---------11----------------------|
D|--0---------12-------11-11-12-14-|
A|---------------12----------------|
E|---------------------------------|

G|---------11----------------11-12------|
D|--0---------12------------------------|
A|---------------12----10-10------------|
E|--------------------------------------|

G|---------------------|
D|--11-11-12-14-12-11--|
A|---------------------|
E|---------------------|

Play until the end of the song
G|-----|
D|-----|
A|--5--|
E|-----|



Intro x2
Verse x2
Pre-Chorus x1
Chorus x4
Intro x1
Verse x2
Pre-Chorus x1
Chorus x4
Bridge 1 x1
Intro x4
Bridge 2 x1
Chorus x4
Outro x1

===============================================================================
Carpe Diem
===============================================================================

Intro
G|----------------------------------------|
D|----------------------------------------|
A|-4-44-44--------4-4-4-4-44-44-------4-4-|
E|----------0-2-4---------------0-4-2-----|

Verse
G|----------------------------|
D|----------------------------|
A|--4-----4-----4----4--------|
E|-4-----4-----4------4444444-|

Pre-chorus
G|-----------------------------|
D|-----------------------------|
A|-4--------4--------4---------|
E|--4444444--4444444--44444444-|

Chorus
G|---------------------------------------|
D|---------------------------------------|
A|-4-44-44-------4-4-4-4-44-44-------4-4-|
E|---------0-2-4---------------0-4-2-----|

G|---------------------------------------|
D|---------------------------------------|
A|-4-44-44-------4-4-4-4-44-44-------4-4-|
E|---------0-2-4---------------0-4-2-----|

G|-------------------------------------------------------|
D|-------------------------------------44444444----------|
A|----------44444444----------44444444----------44444444-|
E|-22222222----------22222222----------------------------|

G|---------------|
D|---------------|
A|---------------|
E|-044-044-04444-|

Solo
G|---------------------------------------|
D|---------------------------------------|
A|-4-44-44-------4-4-4-4-44-44-------4-4-|
E|---------0-2-4---------------0-4-2-----|

Bridge
G|---------------------------------------------------------|
D|-------------------444333111-----------------------------|
A|----------44444444-----------444333111----------44444444-|
E|-22222222------------------------------22222222----------|

G|------------------|
D|------------------|
A|------------------|
E|-044-044-04444----|

G|-------------------------------------------|
D|-------------------------------------------|
A|4---(Guitar Only)-44~--(Guitar Only)-----4-|
E|-------------------------------------4-2---|

Outro
G|----------------------------------------| 
D|----------------------------------------|
A|-4-44-44--------4-4-4-4-44-44-------4-4-|  
E|----------0-2-4---------------0-4-2-----| 

G|-------|
D|-------|
A|-----4-| 
E|-4-2---|



Intro x2
Verse x4
Pre-chorus x1
Chorus x1
Verse x4
Pre-chorus x1
Chorus x1
Solo x2
Bridge x1
Outro x4

===============================================================================
Let Yourself Go
===============================================================================

Intro
G|--------|
D|--------|
A|--5-----|
E|3---5---|

Chorus
G|-----------------------------------------------------------------| 
D|----------------------------------------5555555-7777777777777777-|
A|-5555555------------------------5555555--------------------------|
E|---------3333333-55555555555555----------------------------------|

Post-Chorus
G|-------------------|
D|-5-6-7--5-6-7------|
A|---------------5---|
E|-------------3---5-|

Verse
G|-------|
D|-------|
A|---5---|
E|-3---5-|

Bridge
G|-----------------------------------------|
D|-5-6-7--5-6-7--5-6-7--5-6-77777777777777-|
A|-----------------------------------------|
G|-----------------------------------------|

Guitar Solo 
G|------------------------------------------------------------------| 
D|-----------------------------------------5555555-7777777777777777-|
A|-5555555-------------------------5555555--------------------------|
E|---------3333333-555555555555555----------------------------------|

Interlude
G|-----------------------|
D|-----------------------|
A|-5--5--5--5--5—5555555-|
E|-----------------------|

Outro
G|------------| x1
D|567---------|
A|-------5----|
E|-----3---5--|



Intro x7
Chorus x2
Post-Chorus x1
Verse x4
Chorus x2
Bridge x1
Guitar Solo x2
Interlude x1
Chorus x4
Outro x1

===============================================================================
Kill The DJ
===============================================================================
Intro
G|----------------------|
D|----------------------|
A|----------------------|
E|-5-5-5-5-5-5-5--5-5-3-|

G|-----------------------------------------------------------|
D|-----------------------------------------------------------|
A|-------------5-5-5------------------------5-5-5------------|
E|-5-5--5-5-5---------3-3-3-3-0-5-5--5-5-5---------3-3-3-3-0-|

Verse
G|-----------------------------------------------------------|
D|-----------------------------------------------------------|
A|-------------5-5-5------------------------5-5-5------------|
E|-5-5--5-5-5---------3-3-3-3-0-5-5--5-5-5---------3-3-3-3-0-|

Pre-Chorus
G|--------------------------------------------------------|
D|----------5-----------------------------5---------------|
A|-7-7--7-7---7-6-5-5--5-5-3-5-6-7-7--7-7---7-6-5-5-5-5-5-|
E|--------------------------------------------------------|

Chorus
G|---------------------------------------------------------------------|
D|---------------------------------------------------------7-5---5-----|
A|-----------3---3-5-5-5-5-------------------3---3-5-5-5-5-----7---7-5-|
E|-5-5-5-3-5---5-----------3-3-3-0-5-5-5-3-5---5-----------------------|

G|-----------------------------------------------------|
D|-----------------------------------------------------|
A|-----------3---3-5-5-5-5-----------------------------|
E|-5-5-5-3-5---5-----------3-3-3-0-5-5-5-5-5-5-5-5-5-3-|

Post-Chorus
G|-----2-5----------------------------------------------------------|
D|-3-3---------2-5--------------------------------------------------|
A|---------3-3---------2-5-----------0-3---3-2-5-3-7-7-7-7-7--------|
E|-----------------3-3-----5-5-3-1-1-----1--------------------5-5-3-|

Interlude
G|---------------------------------------------------------------|
D|---------------------------------------------------7-5---5-----|
A|-------------5-5-5------------------------5-5-5--5-----7---7-5-|
E|-5-5--5-5-5---------3-3-3-3-0-5-5--5-5-5-----------------------|

Bridge
G|---------------------|
D|---------------------|
A|---------------------|
E|-5~------5---5-5-3---|

Solo
G|---------------------------------------------------------------------|
D|---------------------------------------------------------7-5---5-----|
A|-----------3---3-5-5-5-5-------------------3---3-5-5-5-5-----7---7-5-|
E|-5-5-5-3-5---5-----------3-3-3-0-5-5-5-3-5---5-----------------------|

Breakdown
G|---------------------------------|
D|-7-7-7-7-7-7-7-7-7-7-7-7-7-7-7-7-|
A|---------------------------------|
E|---------------------------------|

G|----------------------------------------------------------------------------|
D|-7-7-7-7-7-7-7-7-77775555-------77775555---------77775555-------------------|
A|-------------------------888877---------88887777---------88887777-----------|
E|-----------------------------------------------------------------5----5-5-3-|

Ending
G|----|
D|----|
A|----|
E|-5~-|



Intro x1
Verse x2
Pre-Chorus x1
Chorus x1
Post-Chorus x1
Interlude x1
Verse x2
Pre-Chorus x1
Chorus x1
Post-Chorus x1
Bridge x1
Solo x2
Post-Chorus x1
Breakdown x1
Chorus x1
Ending x1

===============================================================================
Fell For You
===============================================================================

Intro 0:06
G|------------------------------------|
D|------------------------------------|
A|------------------55555555-77777777-|
E|-5555555555555555-------------------|

Verse
G|-------------------|
D|-------------------|
A|-55555555-77777777-|
E|-------------------|

Pre-Chorus 1
G|--------------------|
D|--------------------|
A|-55555555-777777----|
E|-----------------55-|

Pre-Chorus 2
G|---------------------------|
D|---------------------------|
A|-55555555-7777777777777777-|
E|---------------------------|

Chorus
G|------------------------------------|
D|------------------------------------|
A|------------------55555555-77777777-|
E|-5555555555555555-------------------|

Bridge 1
G|-----------------------------------|
D|-----------------------------------|
A|-----------------------------------|
E|-2-222-222-22-00-55-555-55-5-55555-|

Bridge 2
G|----------------------------------------------Play-this-only-the-first-time-|
D|----------------------------------------------------------------------------|
A|-5555555555555555-7777777777777777-5555555555555555-(77777777777777--)------|
E|-------------------------------------------------------------------55-------|



Intro x2
Verse x3
Pre-Chorus 1 x4
Pre-Chorus 2 x1
Chorus x2
Bridge 1 x2
Bridge 2 x1
Verse x3
Pre-Chorus x4
Pre-chorus x1
Chorus x2
Bridge 1 x2
Bridge 2 x1
Chorus x2
Verse x2

===============================================================================
Lose Of Control
===============================================================================

Intro
G|------------------------------------------------|
D|------------5~-------5-7~-------7-9-------------|
A|-------------------------------------------44-2-|
E|-0~-------0-------------------------------------|

G|----------------------------------------------------------------------------|
D|----------------------------------------------------------------------------|
A|----------------------------------44-2----------------------------------44-2|
E|-5555555555555-44-2-0000000000000------5555555555555-44-2-0000000000000-----|

Verse
G|-----------------------------------|
D|-----------------------------------|
A|------------------7777777777777777-|
E|-5555555555555555------------------|

Pre-Chorus
G|---------------------------------------|
D|---------------------------------------|
A|----------------------5-77777777777777-|
E|-00-2-3333333333333-5------------------|

Chorus
G|----------------------------------|
D|----------------------------------|
A|-55555555555555555555555555555555-|
E|----------------------------------|

G|--------------------|
D|--------------------|
A|----5--------5------|
E|-55---5-0-55---55-0-|

G|----------------------------------|
D|----------------------------------|
A|-55555555555555555555555555555555-|
E|----------------------------------|

G|------------------------------------|
D|------------------------------------|
A|-77777777777777777777777777777-44-2-|
E|------------------------------------|

Post-Chorus
G|---------------------------------------|
D|---------------------------------------|
A|----------------------------------44-2-|
E|-5555555555555-44-2-0000000000000------|

Guitar Solo 1
G|---------------------------------------|
D|---------------------------------------|
A|----------------------------------44-2-|
E|-5555555555555-44-2-0000000000000------|

Guitar Solo 2
G|-----------------------------------|
D|-----------------------------------|
A|-----------------------------------|
E|-5555555555555-44-2-00000000000000-|

Outro
G|--------|
D|--------|
A|-44-2---|
E|------5-|



Intro x1
Verse x4
Pre-Chorus x1
Chorus x1
Post-Chorus x1
Verse x4
Pre-Chorus x1
Chorus x1
Guitar Solo x3
Guitar Solo x1
Pre-Chorus x1
Chorus x1
Post-Chorus x2
Outro x1

===============================================================================
Troublemaker
===============================================================================

Intro
G|----------------------------------------|
D|-------------677-----------------677----|
A|--------677-------5---------677-------5-|
E|-55677---------------55677--------------|x2

Verse
G|----------------------------------------|
D|-------------677-----------------677----|
A|--------677-------5---------677-------5-|
E|-55677---------------55677--------------|x4

Chorus
G|------------------------|
D|------------------------|
A|------------------------|
E|-5562~--------5562~-----|x2

Solo
G|---------------------------------------------|
D|-------------677-----------------677---------|
A|--------677-------5---------677-------5------|
E|-55677---------------55677---------------556-|

G|---------------------------------------------|
D|-------------677-----------------677---------|
A|--------677-------5---------677-------5------|
E|-55677---------------55677---------------001-|

G|-------------------------------|
D|-------------------------------|
A|-------------------------------|
E|-2-----------0012----------001-|

G|--------------------------------|
D|--------------------------------|
A|--------------------------------|
E|-2-----------0012----2------556-|

Bridge
G|----------------------------|
D|----------------------------|
A|----------------------------|
E|-7---------5567---------556-|

G|--------------------------|
D|--------------------------|
A|--------------------------|
E|-7---------5567---------7-|

End with this
G|------|
D|------|
A|------|
E|-5567-|



Intro x1
Verse x4
Chorus x2
Verse x4
Chorus x2
Solo x1
Bridge x1
Verse x4

===============================================================================
Angel Blue
===============================================================================

Intro 1                                           
G|------------------------------------------------------------|
D|------------------------------------------------------------|
A|------777----------777----------777--------9999999999999999-|
E|-777~-----777-5-7~-----777-5-7~-----777-5-------------------|

Intro 2                 Play at the end of Intro 2.
G|---------------------| |------------------|
D|---------------------| |------------------|
A|----------777--------| |-9999999999999999-|
E|-7-7-7777-----7-7775-| |------------------|
Verse
G|-----------------------------------------------------------|
D|-----------------------------------------------------------|
A|-----777-------7---999-----------777-------7---999-------7-|
E|-7-------777-5---------777-5-7-------777-5----------7-77---|

Chorus 1
G|------------------------------------------------------------------------|
D|------------------------------------------------------------------------|
A|-777777-----------------------------777777------------------------------|
E|--------5-777777-0-22222222222222-7--------5-777777-0-22222222222222-77-|

Chorus 2
G|----------------|
D|-2--------------|
A|----2-----------|
E|-------22222222-|

Solo
G|------------------------------------------------------------|
D|------------------------------------------------------------|
A|-2--------------------22222222-2-------------------22222222-|
E|----2--00000000-2--0--------------2--00000000-2--0----------|

Bridge
G|----------------------------------------------------------------------|
D|----------------------2-------2---------------------------------------|
A|------------------222---2-222---2-2-----------------------------------|
E|-5-5-5555-000-000-------------------5-5-5555-000-000-2222222222222222-|

Outro
G|---------------------|
D|---------------------|
A|----------777--------|
E|-7-7-7777-----7-7775-|



Intro 1 x1
Intro 2 x3
Verse x1
Chorus 1 x1
Chorus 2 x4
Intro 2 x3
Verse x1
Chorus 1 x1
Chorus 2 x4
Solo x1
Bridge x1
Rest until 2:13
Chorus 1 x1
Chorus 2 x4
Outro x4

===============================================================================
Sweet 16
===============================================================================

Intro
G|------------------------------|
D|-5555---5555---5555-----------|
A|------5------5------5-3-2-0-3-|
E|------------------------------|

Verse
G|---------------------|
D|---------------------|
A|---2~--5~--2~--5~-55-|
E|-3~--5~--3~--5~------|

G|-------------------------------------------------------------------------|
D|-55555555----------------------------55555555----------------------------|
A|----------------------------55555555----------------------------55555555-|
E|----------77777777-55555555-------------------77777777-55555555----------|

Chorus
G|-------------------------------------------------|
D|-------------------------------------------------|
A|-3333--------2222-777777-3333-555555------33-----|
E|------333333-------------------------3333----333-|

G|--------------------------------------|
D|--------------------------------------|
A|-3333--------2222-3333-55-3333-555555-|
E|------333333--------------------------|

G|-------------------------|
D|-------------------------|
A|-3333-555555-3333-555555-|
E|-------------------------|

Solo
G|-------------------------------------------------------------------------|
D|-55555555----------------------------55555555----------------------------|
A|----------------------------55555555----------------------------55555555-|
E|----------77777777-55555555-------------------77777777-55555555----------|

Outro
G|-----------------------------------|
D|---------------------------------5-|
A|------5------5------5-3-2-0-3------|
E|-3333---3333---3333----------------|



Intro x1
Verse x1
Chorus x1
Intro x1
Verse x1
Chorus x1
Intro x1
Solo x2
Chorus x1
Outro x1

===============================================================================
Rusty James
===============================================================================

Intro
G|---------------------------------|
D|---------------------------------|
A|-7~----7~----7~----7~------------|
E|---------------------------------|

G|---------------------------------|
D|---------------------------------|
A|-7777777777777777777777777777----|
E|---------------------------------|

Verse
G|------------------------------------------------------------------------|
D|------------------------------------------------------------------------|
A|-77777777-66666666------------------77777777----------------------------|
E|-------------------5555555555555555----------44444444-55555555-77777777-|

Pre-Chorus
G|-----------------------------------------------------------------|
D|-----------------------------------------------------------------|
A|-----------------------------------------------------------------|
E|-222222-444444-555555-777777-222222-444444-555555-77777777777777-|

Chorus 1
G|-------------------------------------------------------------------------|
D|-------------------------------------------------------------------------|
A|-77777777----------77777777----------44444444----------------------------|
E|----------77777777----------77777777----------44444444-55555555-77777777-|

Play at the end of the Chorus
G|------------|
D|------------|
A|------------|
E|-7777777777-|

Post-Chorus
G|---------------------------------|
D|---------------------------------|
A|-7777777777777777777777777777----|
E|---------------------------------|

Bridge
G|---------------------------------------------|
D|---------------------------------------------|
A|------------7777777777-----------------------|
E|-5555555555------------5555555555-7777777777-|

Solo
G|---------------------------------------------|
D|---------------------------------------------|
A|-7777777777----------------------------------|
E|------------4444444444-5555555555-7777777777-|

Chorus 2
G|-------------------------------------------------------------------|
D|-------------------------------------------------------------------|
A|-7--------------7--------------44444444----------------------------|
E|-------77777777-------77777777----------44444444-55555555-77777777-|



Intro x1
Verse x1
Pre-Chorus x1
Chorus 1 x2
Post-Chorus x1
Verse x1
Pre-Chorus x1
Chorus 1 x2
Bridge x1
Solo x2
Pre-Chorus x1
Chorus 2 x2
Chorus 1 x2
Post-Chorus x2

===============================================================================
Oh Love
===============================================================================

Pre-Chorus 0:51
G|--------------------------|
D|--------------------------|
A|-4-3-4---6666666666666666-|
E|-------4------------------|

Chorus
G|-----------------------------------------|
D|-----------------------------------------|
A|------6666------4444------6666------6666-|
E|-4444------4444------4444------4444------|

G|-------------------------------|
D|-------------------------------|
A|------6666------4444------6666-|
E|-4444------4444------4444------|

Verse               (Don’t play this part the last time)
G|------------------|-------------------|
D|------------------|-------------------|
A|---------4--------|-4-4-4-4--------4--|
E|-44--------44-----|----------4-4------|
                       
Pre-Chorus
G|-----------------------------------------------|
D|-----------------------------------------------|
A|--4--3--4-----6-6-6-6-6-6-6-6-6-6-6-6-6-6-6-6--|
E|-----------4-----------------------------------|

Chorus
G|-------------------------------------------------------------------|
D|-------------------------------------------------------------------|
A|----------6-6-6-6---------4-4-4-4---------6-6-6-6---------6-6-6-6--|
E|--4-4-4-4---------4-4-4-4---------4-4-4-4---------4-4-4-4----------|

G|--------------------------------------------------|
D|--------------------------------------------------|
A|----------6-6-6-6---------4-4-4-4---------6-6-6-6-|
E|--4-4-4-4---------4-4-4-4---------4-4-4-4---------|

Bridge
G|---------------------------------------------------------------|
D|---------------------------------------------------------------|
A|----------------4-4----4-4-------------4---44444444----------4-|
E|-4-4-4-4-4-4-2-------------4-4---4-4-2--------------44444444---|

G|----------------------------------|
D|----------------------------------|
A|--4-4---4-4---------6-8888888888--|
E|--------------4-4-----------------|

G|--------------------------|
D|--------------------------|
A|-4-3-4---6666666666666666-|
E|-------4------------------|

Solo
G|-----------------------------------------|
D|-----------------------------------------|
A|------6666------4444------6666------6666-|
E|-4444------4444------4444------4444------|

G|-------------------------------|
D|-------------------------------|
A|------6666------4444------6666-|
E|-4444------4444------4444------|

G|------------------|
D|------------------|
A|-4-3-4---66666666-|
E|-------4----------|

Rest Until 3:56

Outro                                                   
G|---------------------------------------------------|
D|---------------------------------------------------|
A|------6666------6666------6666------6666--------4--|
E|-4444------4444------4444------4444------4444-44-4-|



Pre-Chorus x1
Chorus x1
Verse x5
Pre-Chorus x1
Chorus x1
Bridge x1
Solo x1
Chorus x2
Outro 1
1 comment total.
0 reply
Mazr3y wrote on August 13 2013, 06:30 pm

Spot on all the way through. Pure art!

I want to post or [tab]
guest
You may want to rate the tab now too:
select rating
Please do not post tabs as comments. Select "correction" instead!