Oops, an error
Loading. Please wait.

Uno Tab

ver1
ver1

Album

More versions @911Tabs.com
18,360 views 66 this week
1 commentread comment
1 2 3 4 5
accurate
x 11
add to favorites launch autoscroll
font size
0
reset
Autoscroll
+/-
esc
set tempo
stop
Contributor
Difficulty
intermediate
WARNING: You are trying to view
                                    content from Ultimate-Guitar.com
                                    in an unauthorized application,
                                    which is prohibited.

                                    Please use an official Ultimate
                                    Guitar Tabs application for iPhone,
                                    iPad or Android to access legitimate
                                    chords, guitar, bass, and drum tabs
                                    from Ultimate-Guitar.com database.

                                    Type "ultimate guitar tabs" in Apple
                                    App Store's or Android Market's
                                    search to find the application.
Artist: Green Day
Album: ¡UNO!
Instrument: Guitar
Submitter: GuitarPunk94, georges409, JaretForsaken, Snazy30, iScottie

Feel free to rate + comment! Join the GreenDayCommunity(GDC) :-)




-----------------------------------------------------------------------------
                             Green Day - Nuclear Family
-----------------------------------------------------------------------------

Submitter: unknown ( http://www.guitaretab.com/g/green-day/328509.html )

"This is my first tab, so sorry if it's not up to scratch! Leave a comment if you think
any of it needs improvement or is just plain wrong.
Tempo:   175 (ish)
Intro

e|----------------------------------|
B|----------------------------------|   This bit is slightly less distorted
G|-9---9-999---9-999---9-9-9--------|   and this isn't the exact strumming
D|-9---9-999---9-999---9-9-9--------|   pattern of this particular bit, but
A|-7---7-777---7-777---7-7-7--------|   you can figure it out by listening
E|----------------------------------|   to the song

e|---------------------------------------------------------------|
B|---------------------------------------------------------------|
G|-9-9-9-9-9-9-9-9-9-9-9-9-9-9-9-9------------------9-9-9--------|
D|-9-9-9-9-9-9-9-9-9-9-9-9-9-9-9-9-7---7-7-7---7-7--9-9-9-9--99--|   X2
A|-7-7-7-7-7-7-7-7-7-7-7-7-7-7-7-7-7---7-7-7---7-7--7-7-7-9--99--|
E|---------------------------------5---5-5-5---5-5--------7--77--|

On the second time, another guitar plays this riff:

e|---------------------------------------------------------------|
B|---------------------------------------------------------------|
G|-9-9-9-9-9-9-9-9-9-9-8---8---4--------------------9-9-9--------|
D|-x-x-x-x-x-x-x-x-x-x-x---x---x---7-7-7-7-7-7-7-7--9-9-9-9--99--|
A|-7-7-7-7-7-7-7-7-7-7-6---6---2---7-7-7-7-7-7-7-7--7-7-7-9--99--|
E|---------------------------------5-5-5-5-5-5-5-5--------7--77--|

Verse 1, 2 and 3
         (Guitar Rest, Drum and Bass Fill)
e|---------------------------------------------------------------|
B|---------------------------------------------------------------|
G|-9------------------------------------------------9-9-9--------|    X4
D|-9-------------------------------7-7-7-7-7-7-7-7--9-9-9-9------|
A|-7-------------------------------7-7-7-7-7-7-7-7--7-7-7-9------|
E|---------------------------------5-5-5-5-5-5-5-5--------7------|


Chorus 1, 2 and 3

It's easy to figure out the strumming pattern of the chorus, just listen to the song. It
sounds a bit like a section of the verse from "Welcome to Paradise"

e|---------------------------------------------------------------|
B|---------------------------------------------------------------|
G|----------9----------------------------------------------------|
D|-7--------9-(x16)--7--------9----------------------------------|
A|-7-(x32)--7--------7-(x32)--9-(x16)----------------------------|
E|-5-----------------5--------7----------------------------------|

After second chorus play the verse riff twice, it's the Bass solo!


Guitar Solo:

Rhythm Guitarist play chorus during solo

 Lead plays:
[ Tab from: http://www.guitaretab.com/g/green-day/328509.html ]
e|----------------|----------------|----------------|----------------|
B|-5--5-5-5-5-5-5-|-5---5--4--2~---|-5--5-5-5-5-5-5-|-5---5--7--9~---|
G|-7b 7b7b7b7b7b7b|-7b-------------|-7b 7b7b7b7b7b7b|-7b-------------|
D|----------------|----------------|----------------|----------------|
A|----------------|----------------|----------------|----------------|
E|----------------|----------------|----------------|----------------|


e|---------------------|--------------------|
B|-9-9---10-10--12-12--|12----12-10-12-10---|
G|-9-9----9--9---9--9--|-9-----9--9--9--9---|
D|---------------------|--------------------|
A|---------------------|--------------------|
E|---------------------|--------------------|

e|---5--5--5--5--5|----------------|---5--5--5--5--5|--5--5--5--5--5-|
B|--5--5--5--5--5-|-5---5--4--2~---|--5--5--5--5--5-|-5--5--5--5--5--|
G|-7b 7b-7b-7b-7b-|7b--------------|-7b-7b-7b-7b-7b-|7b-7b-7b-7b-7b--|
D|----------------|----------------|----------------|----------------|
A|----------------|----------------|----------------|----------------|
E|----------------|----------------|----------------|----------------|

e|-----------7----|----------------|
B|----------7-7---|10b--(10b)(10b)-| Hold the last note and bend a few times
G|-9p7-7h-9b------|----------------| (three I think). You'll know when you
D|----9-----------|----------------|  listen to the song.
A|----------------|----------------|
E|----------------|----------------|

NOTE 3RD VERSE:

I think there a second guitar playing a fill with perhaps a harmonic pedal, I'm not
sure. If anyone does know just say so in the comments, it's a pretty cool effect in my opinion.

Outro:

Rhythm plays

e|----------------|    If you wanted to, you could add |--------|
B|----------------|    in these chords now and then.   |-9---10-|
G|-9--------------|                                    |-9----9-|
D|-9-(X64)--------|                                    |-9----9-|
A|-7--------------|                                    |-7----7-|
E|----------------|                                    |--------|

While lead plays

e|--------------------------------|
B|--------------------------------|
G|-9-9-9-9-9-9-9-9-9-9-8---8---4--|    X5
D|-x-x-x-x-x-x-x-x-x-x-x---x---x--|
A|-7-7-7-7-7-7-7-7-7-7-6---6---2--|
E|--------------------------------|

And then just:

e|-----|                                                  |-----|
B|-----|     A bend on the G string twice every bar       |-----|
G|-2b--|     and just finish up with:                     |-9---|
D|-----|                                                  |-9---|
A|-----|                                                  |-7---|
E|-----|                                                  |-----|

And thats it!!!! Pretty simple, but catchy as hell!"



-----------------------------------------------------------------------------
                             Green Day - Stay The Night
-----------------------------------------------------------------------------

Artist: Green Day
Album: ¡UNO!
Song: Stay The Night
Instrument: Guitar
Submitter: GuitarPunk94

Feel free to rate + comment! Join the GreenDayCommunity(GDC) :-)

Standard Tuning


Key:
-  - Nothing
.  - Palm mute
x  - Mute strings
/ - Slide up or down



 Intro:
|---------------------|-------------------|----------------|----------------|
|---------------------|-------------------|----------3-1-0-|----------------|
|11-12-14-12-11-9--11-|-11-12-14----------|-11-12-14-2-2-0-|----------------|
|12-12-12-12-12-12-12-|-12-12-12-11-12-14-|-12-12-12-------|-11-12-14-12-11-|
|---------------------|----------12-12-12-|----------------|-12-12-12-12-12-|
|---------------------|-------------------|----------------|----------------|

                           Verse 1:
|------------|------------|-------------|------------|
|------------|------------|-------------|------------|
|-7---7------|7---7-----7-|-7---77------|77---77-----|
|-7-7-7-5-7--|7-7-7-5-7-7-|-7-5-77-5-7--|77-5-77-5-7-|
|-5-7-5-5-7--|5-7-5-5-7-5-|-5-5-55-5-7--|55-5-55-5-7-|
|---5---3-5--|--5---3-5---|---3----3-5--|---3----3-5-|
                            . .  . . .    . .  . . .

 Pre-Chorus:          Chorus: (2x)
|------------|------------|-------------|------------|
|------------|------------|-------------|------------|
|-4---7-2-4--|-7------7---|7-----7---7--|------------|
|-4-5-7-2-4-5|-7-7----7-7-|7-5-7-7-7-7-5|-7----------|
|-2-5-5-0-2-5|-5-7----5-7-|5-5-7-5-7-5-5|-7----------|
|---3-------3|---5------5-|--3-5---5---3|-5----------|

              Verse 2:
|------------|-------------|-----------------|
|------------|-------------|--------5--------|
|7---7-----7-|-7---77------|77---77--7-7-----|
|7-7-7-5-7-7-|-7-5-77-5-7--|77-5-77---7--5-7-|
|5-7-5-5-7-5-|-5-5-55-5-7--|55-5-55------5-7-|
|--5---3-5---|---3----3-5--|---3---------3-5-|
               . .  . . .    . .  .      . .

 Pre-Chorus:          Chorus: (2x)
|------------|------------|-------------|------------|
|------------|------------|-------------|------------|
|-4---7-2-4--|-7------7---|7-----7---7--|------------|
|-4-5-7-2-4-5|-7-7----7-7-|7-5-7-7-7-7-5|-7----------|
|-2-5-5-0-2-5|-5-7----5-7-|5-5-7-5-7-5-5|-7----------|
|---3-------3|---5------5-|--3-5---5---3|-5----------|

 Bridge:
|---------------------|-------------------|----------------|----------------|
|---------------------|-------------------|----------3-1-0-|----------------|
|11-12-14-12-11-9--11-|-11-12-14----------|-11-12-14-2-2-0-|----------------|
|12-12-12-12-12-12-12-|-12-12-12-11-12-14-|-12-12-12-------|-11-12-14-12-11-|
|---------------------|----------12-12-12-|----------------|-12-12-12-12-12-|
|---------------------|-------------------|----------------|----------------|


 Solo/Breakdown:

 |2x***************************************| |4x****|
|------------|------------|-------------|----------------------|
|------------|------------|-------------|-----0-8-7-5----------|
|-11-9-11-12-|9-12--11-9-7|-11-9-7--7\6/|7/9-------------------|
|-x--x-x--x--|x-x---x--x-x|-x--x-x--xxxx|xxx----------77-------|
|-9--7-9--10-|7-10--9--7-5|-9--7-5--5\4/|5/7----------77-------|
|------------|------------|-------------|-------------55-------|
                                                      .
 Chorus: (2x)
|------------|-------------|------------|
|------------|-------------|------------|
|-7------7---|7-----7---7--|------------|
|-7-7----7-7-|7-5-7-7-7-7-5|-7----------|
|-5-7----5-7-|5-5-7-5-7-5-5|-7----------|
|---5------5-|--3-5---5---3|-5----------|

 Outro:
|---------------------|-------------------|----------------|----------------|
|---------------------|-------------------|----------3-1-0-|----------------|
|11-12-14-12-11-9--11-|-11-12-14----------|-11-12-14-2-2-0-|----------------|
|12-12-12-12-12-12-12-|-12-12-12-11-12-14-|-12-12-12-------|-11-12-14-12-11-|
|---------------------|----------12-12-12-|----------------|-12-12-12-12-12-|
|---------------------|-------------------|----------------|----------------|

|---------|
|---------|
|-7777-7\-|
|-7777-7\-|
|-5555-5\-|
|---------|



-----------------------------------------------------------------------------
                             Green Day - Carpe Diem
-----------------------------------------------------------------------------

Artist: Green Day
Album: ¡UNO!
Song: Carpe Diem
Instrument: Guitar
Submitter: GuitarPunk94

Feel free to rate + comment! Join the GreenDayCommunity(GDC) :-)

Standard Tuning


Key:
-  - Nothing
.  - Palm mute
~  - Let notes ring
11b - Bend string
x  - Mute strings
/ - Slide up or down



 Intro:
|------------|------------|------------|------------|
|------------|------------|------------|------------|
|-6-----6-6--|---6-6-----6|-6-----6----|------------|
|-6-4-6-6-6-6|-4-6-6-4-6-6|-6-6-4-6----|------------|
|-4-4-6-4-4-6|-4-4-4-4-6-4|-4-6-4-4----|------------|
|---2-4-----4|-2-----2-4--|---4-2------|------------|

 Verse 1:
 |2x********************************************|
|------------|------------|------------|------------|
|------------|------------|------------|------------|
|---6-6---6-6|---6-6-6----|-6-6---6-6--|-6-6-6------|
|-6-6-6-6-6-6|-6-6-6-6-6-6|-6-6-6-6-6-6|-6-6-6-6----|
|-6-4-4-6-4-4|-6-4-4-4-6-6|-4-4-6-4-4-6|-4-4-4-6----|
|-4-----4----|-4-------4-4|-----4-----4|-------4----|
      .     .      .          .     .      .

 Chorus:
|------------|------------|------------|------------|
|------------|------------|------------|------------|
|-6---6----6-|----6-6-----|6-6-----6-6-|----6-------|
|-6-6-6-6--6-|4-6-6-6-6-4-|6-6-4-6-6-6-|6-4-6-------|
|-4-6-4-6--4-|4-6-4-4-6-4-|4-4-4-6-4-4-|6-4-4-------|
|---4---4----|2-4-----4-2-|----2-4-----|4-2---------|

 Bridge:
|------------|-------------|-------------|------------|
|------------|-------------|-------------|------------|
|---6-66/8656|---6-66/86810|-11-6--------|------------|
|-4-6-xxxxxxx|-4-6-xxxxxxx-|-x--6-6------|------------|
|-4-4-44/6434|-4-4-44/6468-|-9--4-6------|------------|
|-2----------|-2-----------|------4------|------------|

 Verse 2:
 |2x********************************************|
|------------|------------|------------|------------|
|------------|------------|------------|------------|
|---6-6---6-6|---6-6-6----|-6-6---6-6--|-6-6-6------|
|-6-6-6-6-6-6|-6-6-6-6-6-6|-6-6-6-6-6-6|-6-6-6-6----|
|-6-4-4-6-4-4|-6-4-4-4-6-6|-4-4-6-4-4-6|-4-4-4-6----|
|-4-----4----|-4-------4-4|-----4-----4|-------4----|
      .     .      .          .     .      .

 Chorus:
|------------|------------|------------|------------|
|------------|------------|------------|------------|
|-6---6----6-|----6-6-----|6-6-----6-6-|----6-------|
|-6-6-6-6--6-|4-6-6-6-6-4-|6-6-4-6-6-6-|6-4-6-------|
|-4-6-4-6--4-|4-6-4-4-6-4-|4-4-4-6-4-4-|6-4-4-------|
|---4---4----|2-4-----4-2-|----2-4-----|4-2---------|

 Bridge:
|------------|-------------|-------------|------------|
|------------|-------------|-------------|------------|
|---6-66/8656|---6-66/86810|-11-6--------|------------|
|-4-6-xxxxxxx|-4-6-xxxxxxx-|-x--6-6------|------------|
|-4-4-44/6434|-4-4-44/6468-|-9--4-6------|------------|
|-2----------|-2-----------|------4------|------------|

 Solo:
|------------|------------|------------|--------------|
|-9---12b-9--|9--9------9-|---12b-12-12|b-9---9--9----|
|-11b-----11b|11-10-----11|b-----------|--11b-11-10---|
|------------|------11----|------------|------------11|
|------------|------------|------------|--------------|
|------------|------------|------------|--------------|

 Bridge:
|------------|------------|------------|------------|
|------------|------------|---6--------|------------|
|------------|-----------6|8686-11~11\6|6-----------|
|-4/11-11-13-|11-10-11-4-6|6666-x~-x\-6|6-6---------|
|-xxx--------|---------4-4|4444-9~-9\-4|4-6---------|
|-2/9~-------|---------2--|------------|--4---------|
                       . . ....       .

 Intro:
|------------|------------|------------|------------|
|------------|------------|------------|------------|
|-6-----6-6--|---666-----6|-6-----6----|------------|
|-6-4-6-6-6-6|-4-666-4-6-6|-6-6-4-6----|------------|
|-4-4-6-4-4-6|-4-444-4-6-4|-4-6-4-4----|------------|
|---2-4-----4|-2-----2-4--|---4-2------|------------|

 Chorus:
 |2x*******************************|
|------------|------------|------------|------------|
|------------|------------|------------|------------|
|-6-----6-6--|---6-6-----6|-6-----6----|------------|
|-6-4-6-6-6-6|-4-6-6-4-6-6|-6-6-4-6----|------------|
|-4-4-6-4-4-6|-4-4-4-4-6-4|-4-6-4-4----|------------|
|---2-4-----4|-2-----2-4--|---4-2------|------------|



-----------------------------------------------------------------------------
                             Green Day - Let Yourself Go
-----------------------------------------------------------------------------

Submitter: georges409 ( http://tabs.ultimate-guitar.com/g/green_day/let_yourself_go_ver2_tab.htm )

"Hey everyone, this is the tab as interpreted by me for the
live version of "let yourself go" from Red 7. This tab is
mainly those who have watched my youtube cover and want to
know how I played it. At the time this was written Uno had
not even come out yet so there may be a few slip ups here and
there but this is probably 90% correct :) My  cover is here:
http://www.youtube.com/watch?v=Iq6BHkqfMzc&feature=plcp

Intro/Verses:

e|-------------------------------------|
B|-------------------------------------|
G|---7---------------------------------|
D|-5-7-7--7-7-7-7-7-7-7-7-7-7-7-7-7-7--| X5 (Last time end on A power chord)
A|-3-5-7--x-x-x-x-x-x-x-x-x-x-x-x-x-x--|
E|-3---5--5-5-5-5-5-5-5-5-5-5-5-5-5-5--|


Chorus:

e|---------------------------------------------|
B|---------------------------------------------|
G|-7--7--7-7-7-7-------------------------------|
D|-7--7--7-7-7-7-5--5--5-5-5-5--7--7--7-7-7-7--| X4
A|-5--5--5-5-5-5-5--5--5-5-5-5--7--7--7-7-7-7--|
E|---------------3--3--3-3-3-3--5--5--5-5-5-5--|

Post Chorus(Gotta let me go, gotta let it go)

e|-------------------------------------|
B|-------------------------------------|
G|-------------------------------------|
D|-5-6-7--x-x-x-x-x-x-x-x-x-x-x-x-x-x--| X2
A|-5-6-7--x-x-x-x-x-x-x-x-x-x-x-x-x-x--|
E|-3-4-5--x-x-x-x-x-x-x-x-x-x-x-x-x-x--|

Solo(Part 1):

e|----------------------------|
B|----------------------------|
G|-7--12--9-7-6----7--12--14--|
D|-x--x---x-x-x----x--x---x---|Figure out strumming yourself :P
A|-5--10--7-5-4----5--10--12--|
E|----------------------------|

Solo (Part 2):

e|-----------------------10-10-----10-10-----10-10-----10-10-----10-10--------|
B|-----------------------10-10-----10-10-----10-10-----10-10-----10-10--------|
G|-10-10h12p10----10h12b-------12^-------12^-------12^-------12^------12^-----|
D|-------------12-------------------------------------------------------------|
A|----------------------------------------------------------------------------|
E|----------------------------------------------------------------------------|

e|------------------------------------------------------10-----10-------------|
B|-------------------13b-13b-13b-13b-13br10-------------10-----10-------------|
G|-12br-10h12p10-----------------------------12br----------12^---12^----------|
D|---------------12-------------------------------14p12-----------------------|
A|----------------------------------------------------------------------------|
E|----------------------------------------------------------------------------|

e|-10-10-----10-10-----10----------------------------------|
B|-10-10-----10-10-----10--10--10--10---14-14-14-----------|
G|-------12^-------12^-----12b-12b-12b--16-16-16br-16p14v--|
D|---------------------------------------------------------|
A|---------------------------------------------------------|
E|---------------------------------------------------------|

Post Solo(interlude bit/"******* with my head now")

e|---------------------------------|
B|---------------------------------|
G|----*-*-*-*-*-*-*-*-*-*-*-*-*-*--|
D|-7--7-7-7-7-7-7-7-7-7-7-7-7-7-7--|
A|-7--7-7-7-7-7-7-7-7-7-7-7-7-7-7--|
E|-5--5-5-5-5-5-5-5-5-5-5-5-5-5-5--|"



-----------------------------------------------------------------------------
                             Green Day - Kill The DJ
-----------------------------------------------------------------------------

Submitter: JaretForsaken ( http://tabs.ultimate-guitar.com/g/green_day/kill_the_dj_ver2_tab.htm )

"Awesome song! Tabbed by Jaret
-15.8.2012
-I'm not sure if this is 100% right
-fixed chorus after watching live performance.. still not 100% sure about the verse
-Lyrics on bottom!
-Song order on bottom

Intro
e|--------------------------------|
b|--------------------------------|
g|--------------------------------|
D|--------------------------------|
A|--------------------------------|
E|5-5-5-5-5-5-5-553---------------|

Verse (Walkin' after dark, in the New York..)
e|----------------------------------------------------------------|
b|----------------------------------------------------------------|
g|--------------------7-----------------------7-------------------|
D|-------7------------7------------7----------7---------7---------|
A|-------7-----------55-5----------7---------55-5-------7---------|
E|------55--555---5-------3333----55--555--5-----3333--55--555--5-|

e|----------------------------------------------------------------|
b|----------------------------------------------------------------|
g|-7---------------------7---------------------7------------------|
D|-7----------7----------7----------7----------7----------7-------|
A|55-5--------7---------55-5--------7---------55-5--------7-------|
E|-----3333--55--555--5-----3333---55--555--5-----3333---55--555--|


e|------------------------------------------------|
b|------------------------------------------------|
g|---7----------------777-77575----------77777----|
D|---7----------------777----------------77777----|
A|--55-5-------22-22--555---------22-22--55555----|
E|5-----3333---00-00--------------00-00-----------|


Chorus (Someone kill the DJ, shoot the..)
e|---------------------------------------------------------|
b|-p-------------------------------------------------------|
g|-a----------7-7------------------------------------------|
D|-u-7-7-77-7-7-7-55-5-(3x)----then-----7-7-7-7-7-7-7-775--|
A|-s-7-7-77-7-5-5-55-5------------------7-7-7-7-7-7-7-775--|
E|-e-5-5-55-5-----33-3------------------5-5-5-5-5-5-5-553--|


Post-Chorus (We are the vultures, the dirtiest kind..)
e|---------------------------------------------------|
b|10~--------------10~-------------------------------|
g|10~-9~--4~--5~---10~-9~----------------------------|
D|10~-10~-5~--7~---10~-10~-22222-257~----------------|
A|8~--10~-5~--7~---8~--10~-22222-257~----------------|
E|----8~--3~--5~-------8~--00000-035~----------------|


Fill 1
e|-5~-55-5----------------17171717-55-----------------------|
b|-5~-55-5----------------17171717-55-----------8-----------|
g|-5~-55-5-5h7--77-5-7-5--17171717-55-5-5h7--7b---7r-5------|
D|----------------------------------------------------------|
A|----------------------------------------------------------|
E|----------------------------------------------------------|


Fill 2
e|--------------------------------------------------------------------------|
b|--------------------------------------------------------------------------|
g|--------------------------------------------------------------------------|
D|----------------------------------------------------------------------7-75|
A|----------------------------------------------------------------------7-75|
E|555577778888-12121212-5555-7777-8888-12121212-5555-7777-8888-12121212-5-53|
  ............ . . . .  .... .... .... . . . .  .... .... .... . . . .

Solo
e|-5~-55-5----------------17171717-----55-5---------------------|
b|-5~-55-5----------------17171717-----55-5----------8----------|
g|-5~-55-5-5h7--77-5-7-5--17171717-----55-5-5h7---7b---7r5------|
D|--------------------------------------------------------------|
A|--------------------------------------------------------------|
E|--------------------------------------------------------------|


e|-555-55-5---------------17171717-55-5----------------------------------|
b|-555-55-5---------------17171717-55-5---------------10~----------------|
g|-555-55-5-5h7-77-5-7-5--17171717-55-5-5h7-77-5-7-5--10~---9~---4~---5~-|
D|----------------------------------------------------10~---10~--5~---7~-|
A|----------------------------------------------------8~----10~--5~---7~-|
E|----------------------------------------------------------8~---3~---5~-|


e|-----------------------------------------------------------------|
b|10~--------------------------------------------------------------|
g|10~---9~---------------------------------------------------------|
D|10~---10~--------------------------------------------------------|
A|8~----10~--222222-57-7-7-7-7-7-7-7-7--(still playing in bridge)--|
E|------8~---000000-35-5-5-5-5-5-5-5-5-----------------------------|

Bridge after solo (Someone kill the DJ, shoot the..)
e|--------------------------------------------------------|
b|--------------------------------------------------------|
g|--------------------------------------------------------|
D|--------------------------------------------------------|
A|----------------------------(7x)-7---75-----------------|
E|--5555-7777-8888-12121212--------5---53-----------------|
    .... .... .... . . . .

SONG ORDER:

Intro
Verse
Chorus
Post-Chorus
Fill 1
Verse
Chorus
Post-Chorus
Fill 2
Solo
Bridge
Chorus

LYRICS:

Walking after dark
In the New York City park
Your thoughts are so unholy
In the holiest abode
Onward Christian soldiers
Filled with jivin' mind control
The bull left on the dance floor
Ridin', runnin' red
The bullet that you asked for's
Killing you to death
Unless you...

Someone Kill The DJ, Shoot The Fuckin' DJ
Someone Kill The DJ, Shoot The Fuckin' DJ
Someone Kill The DJ, Shoot The Fuckin' DJ
The voices in my head are sayin'
"Shoot that fucker down!"

We are the vultures, The dirtiest kind.
We'll cut you once in your heart and mind.

Walkin' after dark
In the New York City park
I'll pick up what's left in the club
My pocket full of pills
Sodom and Gammorah
in the century of thrills
The bull left on the dance floor
ridin' runnin' red
The bullet that you asked for's
Killing you to death
Unless you..

Someone Kill The DJ, Shoot The Fuckin' DJ
Someone Kill The DJ, Shoot The Fuckin' DJ
Someone Kill The DJ, Shoot The Fuckin' DJ
Hold him underwater till' that motherfucker drowns

We are the vultures, The dirtiest kind.
We'll cut you once in your heart and mind.

Someone's gonna get you boy
Shoot the fucker down!

Someone Kill The DJ, Shoot The Fuckin' DJ
Someone Kill The DJ, Shoot The Fuckin' DJ
(Walkin' after Dark)
Someone Kill The DJ, Shoot The Fuckin' DJ
(Walkin' after Dark)
Someone Kill The DJ, Shoot The Fuckin' DJ
(Walkin' after Dark)
Someone Kill The DJ.
Shoot the Fucker Down!

Someone Kill The DJ, Shoot The Fuckin' DJ
Someone Kill The DJ, Shoot The Fuckin' DJ
Someone Kill The DJ, Shoot The Fuckin' DJ
The voices in my head are sayin'
"Shoot that fucker down!"

Hope you enjoyed this tab.
************************************

| /   slide up
| \   slide down
| h   hammer-on
| p   pull-off
| ~   vibrato
| +   harmonic
| x   Mute note
| b   Bend
| pb  Pre-bend
| br  Bend release
| pbr Pre-bend release
| brb Bend release bend
| .   p.m. (palm mute)

************************************

Any corrections mail me @ panoch.j@seznam.cz"



-----------------------------------------------------------------------------
                             Green Day - Fell For You
-----------------------------------------------------------------------------

Artist: Green Day
Album: ¡UNO!
Song: Fell For You
Instrument: Guitar
Submitter: GuitarPunk94

Feel free to rate + comment! Join the GreenDayCommunity(GDC) :-)

Standard Tuning



Key:
-  - Nothing
.  - Palm mute
~  - Let notes ring
7b - Bend string
/ - Slide up or down




 Intro:          Verse 1:
    |2x********|
|---------------|------------|-------------|------------|
|-9--5-55-------|-7-9-7-9-7-9|-7-9-7-9-7-9-|7-9-7-9-----|
|-9--7b76-11/13-|-7-9-7-9-7-9|-7-967-967-96|7-967-9-----|
|-9-------12/14-|-7-9-7-9-7-9|-7-977-977-97|7-977-9-----|
|-7-------------|-5-7-5-7-5-7|-5-775-775-77|5-775-7-----|
|---------------|------------|----5---5---5|---5--0-----|

 Chorus:
              |2x*******|
|------------|------------|-------------|------------|
|---7-9---7-9|-----2-320--|--------109--|------------|
|-6-7-9-6-7-9|-----2-222--|-7767-999-9-7|7-99--6-----|
|-7-7-9-7-7-9|-4-2-2-222--|-7777-999-9-7|7-99--7-----|
|-7-5-7-7-5-7|-4-2-0-000--|-5545-777-7-5|5-77--7-----|
|-5-----5----|-2-0--------|-------------|------5-----|
                             ...  .      . .

 Verse 2:
|------------|-------------|------------|
|-7-9-7-9-7-9|-7-9-7-9-7-9-|7-9-7-9-----|
|-7-9-7-9-7-9|-7-967-967-96|7-967-9-----|
|-7-9-7-9-7-9|-7-977-977-97|7-977-9-----|
|-5-7-5-7-5-7|-5-775-775-77|5-775-7-----|
|------------|----5---5---5|---5--0-----|

 Chorus:
              |2x*******|
|------------|------------|-------------|------------|
|---7-9---7-9|-----2-320--|-7~-9~-109-77|-9\--9------|
|-6-7-9-6-7-9|-----2-222--|-7~-9~-9-9-77|-9\--9------|
|-7-7-9-7-7-9|-4-2-2-222--|-7~-9~-9-9-77|-9\--9------|
|-7-5-7-7-5-7|-4-2-0-000--|-5~-7~-7-7-55|-7\--7------|
|-5-----5----|-2-0--------|-------------|------------|
                                       .

Chorus/Outro:
    |2x********|
|---------------|------------|-------------|
|----5-55-------|------------|---9---------|
|----7b76-11/13-|-11/13-11/13|-6-9-6~------|
|---------12/14-|-12/14-12/14|-7-9-7~------|
|---------------|------------|-7-7-7~------|
|---------------|------------|-5-0-5~------|



-----------------------------------------------------------------------------
                             Green Day - Loss Of Control
-----------------------------------------------------------------------------

Artist: Green Day
Album: ¡UNO!
Song: Loss Of Control
Instrument: Guitar
Submitter: GuitarPunk94

Feel free to rate + comment! Join the GreenDayCommunity(GDC) :-)

Standard Tuning



Key:
-  - Nothing
.  - Palm mute
~  - Let notes ring
4b - Bend string
h  - Hammer on
p  - Pull off
/ - Slide up or down



 Intro:
|------------|------------|------------|------------|
|------------|------------|------------|------------|
|-------642--|----642-----|------------|------------|
|-2~-2~-642-6|42--642-642-|------------|------------|
|-2~-2~-420-6|42--420-642-|------------|------------|
|-0~-0~-----4|20------420-|------------|------------|

 Verse 1:
|------------|------------|------------|------------|
|------9-----|9-9-9-109---|-9----------|------------|
|-6422-99-22-|9999999-9-22|-999-22-999-|------------|
|-6422-99-22-|9999999-9-22|-999-22-999-|------------|
|-4200-77-00-|7777777-7-00|-777-00-777-|------------|
|------------|------------|------------|------------|
     .  .  .   . . .     .   .   .  .

 Pre-Chorus:  Chorus:
|------------|------------|------------|------------|
|------------|------------|------------|------------|
|------------|-7--7---7--7|-9----------|------------|
|-245-2-245-2|-7-777-777-7|-9----------|------------|
|-245-2-245-2|-5-757-757-5|-7----------|------------|
|-023-0-023-0|---5-5-5-5--|-0----------|------------|

 Chorus:                    Verse 2:
|------------|-------------|------------|------------|
|-----2-2----|----2-2------|----9-9-9-99|----9-------|
|-642-4b424~-|642-4b424~---|-22-99999999|-22-999-22--|
|-642--------|642----------|-22-99999999|-22-999-22--|
|-420--------|420-------14\|-00-77777777|-00-777-00--|
|------------|-------------|------------|------------|
                              .  . . .     .  .   .

|------------|------------|------------|------------|
|-9-9-9-109--|------------|------------|------------|
|-9999999-9-2|2-999-------|------------|------------|
|-9999999-9-2|2-999-------|------------|------------|
|-7777777-7-0|0-777-------|------------|------------|
|------------|------------|------------|------------|
   . . .      .  .

 Pre-Chorus:  Chorus:
|------------|------------|------------|------------|
|------------|------------|------------|------------|
|------------|-7--7---7--7|-9----------|------------|
|-245-2-245-2|-7-777-777-7|-9----------|------------|
|-245-2-245-2|-5-757-757-5|-7----------|------------|
|-023-0-023-0|---5-5-5-5--|-0----------|------------|

 Solo:
|------------|------------|------------|------------|
|-----2-2----|--------2-2-|----17--17--|17----------|
|-642-4b424~4|421-642-4b42|4~14--14--14|------------|
|-642--------|----642-----|------------|------------|
|-420--------|----420-----|------------|------------|
|------------|------------|------------|------------|

|------------|-5--5-5-----|--5---------|----12-12-12---------|
|------------|5-5-5-5--7b7|5-5---------|----12-12-12---------|
|-5h7p5-5h-7b|----7b7b----|7b7b-14p12--|12h-14b~~-14---12----|
|------7-----|------------|----------14|-------------141414--|
|------------|------------|------------|---------------------|
|------------|------------|------------|---------------------|

                                 Pre-Chorus:
|55--55--5---|------------|------------|------------|
|55--55--5-8b|8b8b5-5-----|------------|------------|
|--7b--7b----|------7b-13-|14-16~------|--7---------|
|------------|---------14-|15-17~2-245-|2-7---------|
|------------|------------|------2-245-|2-5---------|
|------------|------------|------0-023-|0-----------|

 Chorus:
|------------|------------|------------|------------|
|------------|-----2-2----|----2-2-----|---22-------|
|--7---7--7-9|-642-4b424~-|642-4b424~44|44---42-----|
|-777-777-7-9|-642--------|642---------|------------|
|-757-757-5-7|-420--------|420---------|------------|
|-5-5-5-5---0|------------|------------|------------|



-----------------------------------------------------------------------------
                             Green Day - Troublemaker
-----------------------------------------------------------------------------

Artist: Green Day
Album: ¡UNO!
Song: Troublemaker
Instrument: Guitar
Submitter: GuitarPunk94

Feel free to rate + comment! Join the GreenDayCommunity(GDC) :-)

Standard Tuning



Key:
-  - Nothing
~  - Let notes ring
14b- Bend string to fret
h  - Hammer on
x  - Mute strings
p  - Pull off
/ - Slide up or down



 Intro: Verse 1:           Chorus:
        |10x*************|
|---xxx------|------------|------------|------------|
|---xxx------|------------|------------|------------|
|---xxx------|-899-----7--|------------|------------|
|(9)xxx-77899|-899-677-77-|724~-7724~-7|724~-7724~--|
|(9)xxx-77899|-677-677-57-|724~-7724~-7|724~-7724~--|
|(7)xxx-55677|-----455--5-|502~-5502~-5|502~-5502~--|

 Verse 2:           Chorus:
  |8x**************|
|------------|------------|------------|------------|
|------------|------------|------------|------------|
|-------899--|---7--------|------------|------------|
|-77899-899-6|77-77-724~-7|724~-7724~-7|724~--------|
|-77899-677-6|77-57-724~-7|724~-7724~-7|724~--------|
|-55677-----4|55--5-502~-5|502~-5502~-5|502~--------|

 Solo:
|------------|------------|------------|---------14-|
|------------|------------|------------|-------14---|
|-/8~-9~9/11~|-13~13/14~--|14b\8~-13h14|--14-16-----|
|------------|------------|------------|16----------|
|------------|------------|------------|------------|
|------------|------------|------------|------------|

|-12-13b13b13|b~-13b12----|------------|---14-------|
|------------|--------14--|----------14|14~--14-12--|
|------------|----------16|14h16p14----|----------14|
|------------|------------|--------16--|------------|
|------------|------------|------------|------------|
|------------|------------|------------|------------|

|------------|------------|------------|------------|
|14h17p14----|14h17p14----|14h17p14----|14h17p14----|
|--------1717|--------1717|--------1717|--------1717|
|------------|------------|------------|------------|
|------------|------------|------------|------------|
|------------|------------|------------|------------|

|------------|------------|------------|------------|
|14h17p14----|14---10~----|------------|------------|
|--------1717|--17-12b~---|------------|------------|
|------------|------------|------------|------------|
|------------|------------|------------|------------|
|------------|------------|------------|------------|

 Bridge:
|-----x-----x|-----x------|------------|------------|
|-----x-----x|-----x------|------------|------------|
|-----x-----x|-----x------|------------|------------|
|-7789x-7789x|-7789x-7789-|9-----------|------------|
|-7789x-7789x|-7789x-7789-|9-----------|------------|
|-5567x-5567x|-5567x-5567-|7-----------|------------|

 Outro:
  |8x**************|
|------------|------------|------------|------------|
|------------|------------|------------|------------|
|-------899--|---7--------|------------|------------|
|-77899-899-6|77-77-------|7789\-------|------------|
|-77899-677-6|77-57-------|7789\-------|------------|
|-55677-----4|55--5-------|5567\-------|------------|



-----------------------------------------------------------------------------
                             Green Day - Angel Blue
-----------------------------------------------------------------------------

Artist: Green Day
Album: ¡UNO!
Song: Angel Blue
Instrument: Guitar
Submitter: GuitarPunk94

Feel free to rate + comment! Join the GreenDayCommunity(GDC) :-)

Standard Tuning


Key:
-  - Nothing
.  - Palm mute
~  - Let notes ring
9b - Bend string to fret
/ - Slide up or down



 Intro:
|------------|------------|------------|-----------|
|------------|-------11---|7-777-7-77--|7-777--1112|
|---9-----9--|---9---11---|9b989b9b98--|9b989b-1111|
|-9~9-9-9~9-9|-9~9-9-11---|----------99|-----------|
|-9~7-9-9~7-9|-9~7-9-9----|------------|-----------|
|-7~--7-7~--7|-7~--7------|------------|-----------|

              Verse 1:                 Pre-Chorus:
|------------|-------------|-------------|-------------|
|1112111211\-|-------------|-------------|-------------|
|1111111111\-|---9--9-11---|-9--9-11---98|----98--11---|
|------------|-9-99-9-119-9|-99-9-119--98|984-9898114--|
|------------|-9-79-7-9-9-9|-79-7-9-9--76|984-76989-4--|
|------------|-7--7-----7-7|--7-----7----|762---76--2--|

 Chorus:
|--------------|-------------|------------|------------|
|--------------|-------------|------------|------------|
|-9-11-9-11-9-1|1-9-11-------|------------|------------|
|-9911-9911-991|1-9911-------|------------|------------|
|-799--799--799|--799--------|------------|------------|
|--7----7----7-|---7---------|------------|------------|

 Bridge:
|------------|-----------|-------------|
|7-777-7-77--|7-777--1112|1112111211\--|
|9b989b9b98--|9b989b-1111|1111111111\--|
|----------99|-----------|-------------|
|------------|-----------|-------------|
|------------|-----------|-------------|

 Verse 2:                 Pre-Chorus:
|-------------|-------------|-------------|
|-------------|-------------|-------------|
|---9--9-11---|-9--9-11---98|----98--11---|
|-9-99-9-119-9|-99-9-119--98|984-9898114--|
|-9-79-7-9-9-9|-79-7-9-9--76|984-76989-4--|
|-7--7-----7-7|--7-----7----|762---76--2--|

 Chorus:                Solo:
|--------------|--------------|------------|------------|
|--------------|--------/12--1|2--12--12--1|2-----12--12|
|-9-11-9-11-9-1|1-9-11-----11-|-11--11--11-|-11---------|
|-9911-9911-991|1-9911--------|------------|----14--14--|
|-799--799--799|--799---------|------------|------------|
|--7----7----7-|---7----------|------------|------------|

|------------|------------|------------|---------------|
|-----12--12-|--/12--12--1|2--12--12---|14b14b14b1412~\|
|------------|-----11--11-|-11--11--11-|---------------|
|14-13--13--1|3-----------|------------|---------------|
|------------|------------|------------|---------------|
|------------|------------|------------|---------------|

 Bridge:
|------------|------------|------------|------------|
|------------|------------|------------|------------|
|-------9----|9-----------|------------|------------|
|-762-9-99-9-|99--762-44--|------------|------------|
|-762-9-79-9-|79--762-44--|------------|------------|
|-540-7--7-7-|-7--540-22--|------------|------------|
                       .

 Verse 3:
|-------------|-------------|-------------|------------|
|-------------|-------------|-------------|------------|
|---9--9-11---|-9--9-11-----|9--9-11----9-|-9----------|
|-9-99-9-119-9|-99-9-119--9-|99-9-119-9-99|-9----------|
|-9-79-7-9-9-9|-79-7-9-9--9-|79-7-9-9-9-79|-7----------|
|-7--7-----7-7|--7-----7--7-|-7-----7-7--7|------------|

 Pre-Chorus:    Chorus:
|------------|--------------|-------------|------------|
|------------|--------------|-------------|------------|
|-98----98---|--9-11-9-11-9-|11-9-11------|------------|
|-98984-98984|--9911-9911-99|11-9911------|------------|
|-76984-76984|--799--799--79|9--799-------|------------|
|---762---762|---7----7----7|----7--------|------------|

 Outro:
|------------|-----------|-------------|
|7-777-7-77--|7-777-7-77-|-------------|
|9b989b9b98--|9b989b9b98-|-------------|
|----------99|----------9|\------------|
|------------|-----------|-------------|
|------------|-----------|-------------|



-----------------------------------------------------------------------------
                             Green Day - Sweet 16
-----------------------------------------------------------------------------

Submitter: Snazy30 ( http://tabs.ultimate-guitar.com/g/green_day/sweet_16_tab.htm )

"Tabbed by Andres Morales
ENJOY!


Intro:
---3-----2--|----0--0-------------|
---3-----3--|----1--1-----1-------|
---0-----2--|----0--0--0--0-------|
---0-----0--|----2--0--0--0-------|
---2-------------3--2--0--2-------|
---3----------------------3-------|
   |x6|  |x1|

Verse 1:
---3~---2~---0~---2~-----|---2-2----|
---3~---3~---1~---3~-----|---3-3----|
---0~---4~---2~---2~-----|---2-2----|
---0~---4~---2~---0~-----|---0-0----|
---2~---2~---0~----------|----------|
---3~------------------x2|----------|
Bring me back to an hour ago
Time stands still as the years go by

------3-----2-----0-----2---|
------3-----3-----1--3--3---|
------0--4--4--2--2--2--2---|
---0--0--4--4--2--2--0--0---|
---2--2--2--2--0--0--0------|
---3--3---------------------|x2
Brown eyed girl that's throwing down a bottle of Old English
Back in the warehouse

Chorus:
---0--3--2--3--0--2--3--0--3--|
---1--3--3--3--1--3--3--1--3--|
---0--0--4--0--0--2--0--0--0--|
---2--0--4--0--2--0--0--2--0--|
---3--2--2--2--3-----2--3--2--|
------3-----3--------3-----3--|
Old days are fine but are left so far behind
From California to Jane Street

---0--3--2--0-|-2-2-|--0--2--0--2--0--2------|
---1--3--3--1-|-3-3-|--1--3--1--3--1--3------|
---0--0--4--0-|-2-2-|--0--2--0--2--0--2------|
---2--0--4--2-|-0-0-|--2--0--2--0--2--0------|
---3--2--2--3-|-----|--3-----3-----3---------|
------3-------|-----|------------------------|
Kids alright, alright as they'll ever be
'Cause you will always be my
Well you will always by my
You will always be my sweet sixteen

---3-----2--|----0--0----------------|
---3-----3--|----1--1-----1----------|
---0-----2--|----0--0--0--0----------|
---0-----0--|----2--0--0--0----------|
---2-------------3--2--0--2----------|
---3----------------------3----------|
   |x6|     |x1|

Verse 2 :
---3~---2~---0~---2~-----|---2-2----|
---3~---3~---1~---3~-----|---3-3----|
---0~---4~---2~---2~-----|---2-2----|
---0~---4~---2~---0~-----|---0-0----|
---2~---2~---0~----------|----------|
---3~------------------x2|----------|
Sleep on the floor on cardboard
Stab out my heart like a dartboard

------3-----2-----0-----2---------|
------3-----3-----1--3--3---------|
------0--4--4--2--2--2--2---------|
---0--0--4--4--2--2--0--0---------|
---2--2--2--2--0--0--0------------|
---3--3---------------------------|x2
Brown-skinned girl, I had a dream about a long, long time now
From the Midwest to the beach

Chorus:
---0--3--2--3--0--2--3--0--3----|
---1--3--3--3--1--3--3--1--3----|
---0--0--4--0--0--2--0--0--0----|
---2--0--4--0--2--0--0--2--0----|
---3--2--2--2--3-----2--3--2----|
------3-----3--------3-----3----|
Old days are fine but are left so far behind
From California to Jane Street

---0--3--2--0-|-2-2-|--0--2--0--2--0--2------|
---1--3--3--1-|-3-3-|--1--3--1--3--1--3------|
---0--0--4--0-|-2-2-|--0--2--0--2--0--2------|
---2--0--4--2-|-0-0-|--2--0--2--0--2--0------|
---3--2--2--3-|-----|--3-----3-----3---------|
------3-------|-----|------------------------|
Kids alright, alright as they'll ever be
'Cause you will always be my
Well you will always by my
You will always be my sweet sixteen

---3-----2--|----0--0----------------|
---3-----3--|----1--1-----1----------|
---0-----2--|----0--0--0--0----------|
---0-----0--|----2--0--0--0----------|
---2-------------3--2--0--2----------|
---3----------------------3----------|
   |x6|   |x1|

Solo:
----------------------------------------------------------------------------|
-3/8~8-7-3~-3/1-1-0-1-1/3~--3/8~8-7-3~-3/1-1-0-1-1/3~-----------------------|
----------------------------------------------------------------------------|
----------------------------------------------------------------------------|
----------------------------------------------------------------------------|
----------------------------------------------------------------------------|

-----7---7---------------------------7-7-7--5-5--7-7-8-8-8--10----10------|
-3/8~8---8-7-3~-3/1-1-0-1-1/3~--3/8~8-8-8--8-8--8-8-8-8-8--7--7-7---------|
--------------------------------------------------------------------------|
--------------------------------------------------------------------------|
--------------------------------------------------------------------------|
--------------------------------------------------------------------------|

Chorus:
---0--3--2--3--0--2--3--0--3----|
---1--3--3--3--1--3--3--1--3----|
---0--0--4--0--0--2--0--0--0----|
---2--0--4--0--2--0--0--2--0----|
---3--2--2--2--3-----2--3--2----|
------3-----3--------3-----3----|
Old days are fine but are left so far behind
From California to Jane Street

---0--3--2--0-|-2-2-|--0--2--0--2--0--2----|
---1--3--3--1-|-3-3-|--1--3--1--3--1--3----|
---0--0--4--0-|-2-2-|--0--2--0--2--0--2----|
---2--0--4--2-|-0-0-|--2--0--2--0--2--0----|
---3--2--2--3-|-----|--3-----3-----3-------|
------3-------|-----|----------------------|
Kids alright, alright as they'll ever be
'Cause you will always be my
Well you will always by my
You will always be my sweet sixteen

Outro:
---3-----2--|----0--0----------3----|
---3-----3--|----1--1-----1----3----|
---0-----2--|----0--0--0--0----0----|
---0-----0--|----2--0--0--0----0----|
---2-------------3--2--0--2----2----|
---3----------------------3----3----|
   |x6|   |x1|"



-----------------------------------------------------------------------------
                             Green Day - Rusty James
-----------------------------------------------------------------------------

Submitter: iScottie ( http://tabs.ultimate-guitar.com/g/green_day/rusty_james_ver2_tab.htm )

"Tabbed by: iScottie
Tuning: Standard

Track: 11
Album: ¡Uno!


Intro:

|-----------------------------------------------------------------------------|
|-------------10101010-9-9----------------------------------------------------|
|-----9-9-9-9--9-9-9-9-9-9-9-9-9-9--------------------------------------------|
|-----9-9-9-9--9-9-9-9-9-9-9-9-9-9--------------------------------------------| x4
|-----7-7-7-7--7-7-7-7-7-7-7-7-7-7--------------------------------------------|
|-----------------------------------------------------------------------------|

|-----------------------------------------------------------------------------|
|-------------10101010-9-9----------------------------------------------------|
|-----9-9-9-9--9-9-9-9-9-9-9-9-9-9--------------------------------------------|
|-----9-9-9-9--9-9-9-9-9-9-9-9-9-9--------------------------------------------| x2
|-----7-7-7-7--7-7-7-7-7-7-7-7-7-7--------------------------------------------|
|-----------------------------------------------------------------------------|


Verse 1 (x2) (Play the first note open and then palm mute the rest):

|---------------------------------------------------------------------------|
|---------------------------------------------------------------------------|
|-----9-99999999-----9-99999999---------------------------------------------|
|-----9-99999999-----9-99999999-----7-77777777-----7-77777777---------------|
|-----7-77777777-----6-66666666-----7-77777777-----7-77777777---------------|
|-----------------------------------5-55555555-----5-55555555---------------|

|---------------------------------------------------------------------------|
|---------------------------------------------------------------------------|
|-----9-99999999------------------------------------------------------------|
|-----9-99999999-----6-66666666-----7-77777777-----9-99999999---------------|
|-----7-77777777-----6-66666666-----7-77777777-----9-99999999---------------|
|--------------------4-44444444-----5-55555555-----7-77777777---------------|

This whiskey sour, amateur hour
Raise your glass and toast your friends
Someday we will fight again

Well, your enemies, your tragedies
Pocket knives and rusty chains
Where the hell is the old gang at?


Pre-Chorus:

|---------------------------------------------------------------------------|
|---------------------------------------------------------------------------|
|-----------------------------8888-------8888-------------------------------|
|-----444444-----666666-----777777-----999999-------------------------------|
|-----444444-----666666-----777777-----999999-------------------------------|
|-----222222-----444444-----555555-----777777-------------------------------|

|---------------------------------------------------------------------------|
|---------------------------------------------------------------------------|
|-----------------------------8888----------88888888------------------------|
|-----444444-----666666-----777777-----9999999999999------------------------|
|-----444444-----666666-----777777-----9999999999999------------------------|
|-----222222-----444444-----555555-----7777777777777------------------------|

And all the losers, can't even win for losing
And the beginners don't even know what song they're singing


Chorus (x2):

|---------------------------------------------------------------------------|
|---------------------------------------------------------------------------|
|-----999999----------------999999------------------------------------------|
|-----999999-----999999-----999999-----999999-------------------------------|
|-----777777-----999999-----777777-----999999-------------------------------|
|----------------777777----------------777777-------------------------------|

                                                       (End Of Chorus)
|-------------------------------------------------|-------------------------|
|-------------------------------------------------|-------------------------|
|-----666666--------------------------------------|-------------------------|
|-----666666-----666666-----777777-----999999-----|-----9999999999----------|
|-----444444-----666666-----777777-----999999-----|-----9999999999----------|
|----------------444444-----555555-----777777-----|-----7777777777----------|

When there's no one left around
And you're the last gang in town
And your heart can't even break
When it doesn't even pound

When there's no one left around
And you're the last gang in town
And your heart can't even break
When it doesn't even pound


Post-Chorus:

|-----------------------------------------------------------------------------|
|-------------10101010-9-9----------------------------------------------------|
|-----9-9-9-9--9-9-9-9-9-9-9-9-9-9--------------------------------------------|
|-----9-9-9-9--9-9-9-9-9-9-9-9-9-9--------------------------------------------| x2
|-----7-7-7-7--7-7-7-7-7-7-7-7-7-7--------------------------------------------|
|-----------------------------------------------------------------------------|


Verse 2 (x2) (Play the first note open and then palm mute the rest):

|---------------------------------------------------------------------------|
|---------------------------------------------------------------------------|
|-----9-99999999-----9-99999999---------------------------------------------|
|-----9-99999999-----9-99999999-----7-77777777-----7-77777777---------------|
|-----7-77777777-----6-66666666-----7-77777777-----7-77777777---------------|
|-----------------------------------5-55555555-----5-55555555---------------|

|---------------------------------------------------------------------------|
|---------------------------------------------------------------------------|
|-----9-99999999------------------------------------------------------------|
|-----9-99999999-----6-66666666-----7-77777777-----9-99999999---------------|
|-----7-77777777-----6-66666666-----7-77777777-----9-99999999---------------|
|--------------------4-44444444-----5-55555555-----7-77777777---------------|

This broken scene is turning green
A brass knuckles left in the rain
Death wish kids among the living

I wanna ride on the divided
Anything but the mainstream
Where the fuck is your old gang man?


Pre-Chorus:

|---------------------------------------------------------------------------|
|---------------------------------------------------------------------------|
|-----------------------------8888-------8888-------------------------------|
|-----444444-----666666-----777777-----999999-------------------------------|
|-----444444-----666666-----777777-----999999-------------------------------|
|-----222222-----444444-----555555-----777777-------------------------------|

|---------------------------------------------------------------------------|
|---------------------------------------------------------------------------|
|-----------------------------8888----------88888888------------------------|
|-----444444-----666666-----777777-----9999999999999------------------------|
|-----444444-----666666-----777777-----9999999999999------------------------|
|-----222222-----444444-----555555-----7777777777777------------------------|

And all the losers, can't even win for losing
And the beginners don't even know what song they're singing


Chorus (x2):

|---------------------------------------------------------------------------|
|---------------------------------------------------------------------------|
|-----999999----------------999999------------------------------------------|
|-----999999-----999999-----999999-----999999-------------------------------|
|-----777777-----999999-----777777-----999999-------------------------------|
|----------------777777----------------777777-------------------------------|

                                                       (End Of Chorus)
|-------------------------------------------------|-------------------------|
|-------------------------------------------------|-------------------------|
|-----666666--------------------------------------|-------------------------|
|-----666666-----666666-----777777-----999999-----|-----9999999999----------|
|-----444444-----666666-----777777-----999999-----|-----9999999999----------|
|----------------444444-----555555-----777777-----|-----7777777777----------|

When there's no one left around
And you're the last gang in town
And your heart can't even break
When it doesn't even pound

When there's no one left around
And you're the last gang in town
And your heart can't even break
When it doesn't even pound


Bridge:

|---------------------------------------------------------------------------|
|---------------------------------------------------------------------------|
|------------------999999---------------------------------------------------|
|-----7-777777-----999999-----7-777777-----999999999999---------------------|
|-----7-777777-----777777-----7-777777-----999999999999---------------------|
|-----5-555555----------------5-555555-----777777777777---------------------|

So long
Didn't even say goodnight
So long
There's no where to go when you're hiding in plain sight


Solo:

Guitar 1:

|-----------------------------------------------------------------------------|
|-----------------------------------------------------------------------------|
|-----99999999----------------------------------------------------------------|
|-----99999999-----66666666-----77777777-----99999999-------------------------| x2
|-----77777777-----66666666-----77777777-----99999999-------------------------|
|------------------44444444-----55555555-----77777777-------------------------|

Guitar 2:

|-----------------------------------------------------------------------------|
|-----------------------------------------------------------------------------|
|-----------------------------------------------------------------------------|
|----6-9---------6-9b-----9-7-7-6-6-2-2-----9-7-7-6-6-2-2-/-4-----------------| x2
|7-7---------6-6--------------------------------------------------------------|
|-----------------------------------------------------------------------------|

Both Guitars:

|-----222222-----444444-----555555-----777777-------------------------------|
|-----222222-----444444-----555555-----777777-------------------------------|
|-----222222-----444444-----556666-----778888-------------------------------|
|-----444444-----666666-----777777-----999999-------------------------------|
|-----444444-----666666-----777777-----999999-------------------------------|
|-----222222-----444444-----555555-----777777-------------------------------|

|-----222222-----444444-----555555-----777777777777-------------------------|
|-----222222-----444444-----555555-----777777777777-------------------------|
|-----222222-----444444-----556666-----777788888888-------------------------|
|-----444444-----666666-----777777-----999999999999-------------------------|
|-----444444-----666666-----777777-----999999999999-------------------------|
|-----222222-----444444-----555555-----777777777777-------------------------|


Chorus:

Part 1 (x2):

|---------------------------------------------------------------------------|
|---------------------------------------------------------------------------|
|-----9---------------9-----------------------------------------------------|
|-----9----999999-----9-----999999------------------------------------------|
|-----7----999999-----7-----999999------------------------------------------|
|----------777777-----------777777------------------------------------------|


|---------------------------------------------------------------------------|
|---------------------------------------------------------------------------|
|-----666666----------------------------------------------------------------|
|-----666666-----666666-----777777-----999999-------------------------------|
|-----444444-----666666-----777777-----999999-------------------------------|
|----------------444444-----555555-----777777-------------------------------|

Part 2 (x2):

|---------------------------------------------------------------------------|
|---------------------------------------------------------------------------|
|-----999999----------------999999------------------------------------------|
|-----999999-----999999-----999999-----999999-------------------------------|
|-----777777-----999999-----777777-----999999-------------------------------|
|----------------777777----------------777777-------------------------------|

                                                       (End Of Chorus)
|-------------------------------------------------|-------------------------|
|-------------------------------------------------|-------------------------|
|-----666666--------------------------------------|-------------------------|
|-----666666-----666666-----777777-----999999-----|-----9999999999----------|
|-----444444-----666666-----777777-----999999-----|-----9999999999----------|
|----------------444444-----555555-----777777-----|-----7777777777----------|

When there's no one left around
And you're the last gang in town
And your heart can't even break
When it doesn't even pound

When there's no one left around
And you're the last gang in town
And your heart can't even break
When it doesn't even pound

When there's no one left around
And you're the last gang in town
And your heart can't even break
When it doesn't even pound

When there's no one left around
And you're the last gang in town
And your heart can't even break
When it doesn't even pound


Outro:

Guitar 1:

|-----------------------------------------------------------------------------|
|-------------10101010-9-9----------------------------------------------------|
|-----9-9-9-9--9-9-9-9-9-9-9-9-9-9--------------------------------------------|
|-----9-9-9-9--9-9-9-9-9-9-9-9-9-9--------------------------------------------| x4
|-----7-7-7-7--7-7-7-7-7-7-7-7-7-7--------------------------------------------|
|-----------------------------------------------------------------------------|

Guitar 2:

|---------------------------------------------------------------------------|
|---------------------------------------------------------------------------|
|---------------------------------------------------------------------------|
|-----6-7-6-4-----6-7-6-2-------6-7-6-4-----6-7-6-4-------------------------|
|--------------------------2------------------------------------------------|
|---------------------------------------------------------------------------|

Both Guitars:

|---------------------------------------------------------------------------|
|---------------------------------------------------------------------------|
|-----9---------------------------------------------------------------------|
|-----9---------------------------------------------------------------------|
|-----7---------------------------------------------------------------------|
|---------------------------------------------------------------------------|


Thank you for viewing! Please rate it if you like it!

This is my first tab and definitely not my last! :)

-Scott

************************************

| /   slide up
| \   slide down
| h   hammer-on
| p   pull-off
| ~   vibrato
| +   harmonic
| x   Mute note
| b   Bend
| pb  Pre-bend
| br  Bend release
| pbr Pre-bend release
| brb Bend release bend

************************************"



-----------------------------------------------------------------------------
                             Green Day - Oh Love
-----------------------------------------------------------------------------

Artist: Green Day
Album: ¡UNO!
Song: Oh Love
Instrument: Guitar
Submitter: GuitarPunk94

Feel free to rate + comment! Join the GreenDayCommunity(GDC) :-)

Standard Tuning

Key:
- - Nothing
x - Mute strings
/ - Slide up or down


 Intro/Verse 1:
|------------|------------|------------|------------|
|------------|------------|------------|------------|
|--------6---|--6-6-6666-6|6------6----|--6---------|
|xx66xx-x666x|xx6-6-6666-6|666xx-x666xx|-x666xxx----|
|xx66xx-x466x|xx4-4-4444-4|466xx-x466xx|-x466xxx----|
|xx44xx-x-44x|xx----------|-44xx-x-44xx|-x-44xxx----|

|------------|------------|------------|------------|
|------------|------------|------------|------------|
|6-6-6666-66-|-----6------|6-----6-6-66|66-66-------|
|6-6-6666-666|6xx-x666xx-x|666xxx6-6-66|66-6666-----|
|4-4-4444-446|6xx-x466xx-x|466xxx4-4-44|44-4466-----|
|-----------4|4xx-x-44xx-x|-44xxx------|-----44-----|

|------------|------------|------------|------------|
|------------|------------|------------|------------|
|----6-------|-6-----6-6-6|666-66------|6------6----|
|xx-x666x-xx-|x666xxx6-6-6|666-6666xx-x|666xx-x666--|
|xx-x466x-xx-|x466xxx4-4-4|444-4466xx-x|466xx-x466--|
|xx-x-44x-xx-|x-44xxx-----|------44xx-x|-44xx-x-44--|

              Chorus 1:
|------------|------------|------------|------------|
|------------|------------|------------|------------|
|656-88888888|---88--666--|88----888888|8---88--666-|
|656688888888|-66886666666|886666888888|8-668866666-|
|434666666666|-66666644466|666666666666|6-666666444-|
|---4--------|-44--44---44|--4444------|--44--44----|

           Verse 2:
|------------|------------|------------|------------|
|------------|------------|------------|------------|
|--8888----6-|---6-6-6666-|66--------6-|--------6---|
|66888866--66|6--6-6-6666-|6666-xxx--66|6-xx-xx-666-|
|66666666--46|6--4-4-4444-|4466-xxx--46|6-xx-xx-466-|
|44----44---4|4-----------|--44-xxx9\-4|4-xx-xx--44-|

|------------|------------|------------|------------|
|------------|------------|------------|------------|
|------6-6-66|66-66-------|--6---------|6-----------|
|xx-xx-6-6-66|66-6666-xx-x|x-666-xx-xx-|666-xx-xx---|
|xx-xx-4-4-44|44-4466-xx-x|x-466-xx-xx-|466-xx-xx---|
|xx-xx-------|-----44-xx-x|x--44-xx-xx-|-44-xx-xx9\-|

|------------|------------|------------|------------|
|------------|------------|------------|------------|
|6-6-6666-66-|--------6---|------6-----|----6-6-6666|
|6-6-6666-666|6-xx-xx-666-|xx-xx-666-xx|-xx-6-6-6666|
|4-4-4444-446|6-xx-xx-466-|xx-xx-466-xx|-xx-4-4-4444|
|-----------4|4-xx-xx--44-|xx-xx--44-xx|-xx---------|

|------------|------------|------------|------------|
|------------|------------|------------|------------|
|66---------6|---------6--|-------656-8|888888888888|
|6666-xx-xx-6|66-xx-xx-666|-xx-xx-65668|888888888888|
|4466-xx-xx-4|66-xx-xx-466|-xx-xx-43466|666666666666|
|--44-xx-xx--|44-xx-xx--44|-xx-xx----4-|------------|

     Chorus 2:
|------------|------------|------------|------------|
|------------|------------|------------|------------|
|888---88--66|6--8888----8|888888---88-|-666--8888--|
|888-66886666|666888866668|888888-66886|666666888866|
|666-66666644|466666666666|666666-66666|644466666666|
|----44--44--|-44----4444-|-------44--4|4---44----44|

         Bridge:
|------------|------------|------------|------------|
|------------|------------|------------|------------|
|--------66-6|6---------66|666666------|---66-66----|
|666664--66-6|6-66-6664-66|666666666666|64-66-66----|
|666664--44-4|4-66-6664-44|444444666666|64-44-44----|
|444442------|--44-4442---|------444444|42----------|

|-------------|-------------|------------|------------|
|-------------|-------------|------------|------------|
|---8-10101010|656--88888888|------------|------------|
|66-8-10101010|6566-88888888|------------|------------|
|66-6-8-8-8-8-|4346-66666666|------------|------------|
|44-----------|---4---------|------------|------------|

 Solo:
|------------|------------|-------------|------------|
|------------|------------|-------------|------------|
|------------|------------|-------------|------------|
|-6-6-56-8-8-|68-10-10-810|-11-11--10-11|------------|
|------------|------------|-------------|------------|
|------------|------------|-------------|------------|

|------------|--------------|------------|------------|
|-797--------|--------------|797979------|------------|
|8---8656-5h6|5p---5h65p---5|------------|------------|
|------------|--868-----868-|------------|------------|
|------------|--------------|------------|------------|
|------------|--------------|------------|------------|

|------------|------------|------------|------------|
|9-9-89-11-11|-9-11-13-13-|11-13-14-14-|------------|
|------------|------------|------------|------------|
|------------|------------|------------|------------|
|------------|------------|------------|------------|
|------------|------------|------------|------------|

|------------|--------11--11|13-15--15-16|18--18-20-21-18-23--|
|11-13--14-13|-14-9---------|------------|--------------------|
|------------|--------------|------------|--------------------|
|------------|--------------|------------|--------------------|
|------------|--------------|------------|--------------------|
|------------|--------------|------------|--------------------|

 Verse 3:
|------------|------------|------------|------------|
|------------|------------|------------|------------|
|--------6---|--6-6-6666-6|6------6----|--6---------|
|--66xx-x666x|xx6-6-6666-6|666xx-x666xx|-x666xxx----|
|--66xx-x466x|xx4-4-4444-4|466xx-x466xx|-x466xxx----|
|--44xx-x-44x|xx----------|-44xx-x-44xx|-x-44xxx----|

|------------|------------|------------|------------|
|------------|------------|------------|------------|
|6-6-6666-66-|-----6------|6------656-8|888888888888|
|6-6-6666-666|6xx-x666xx-x|666xxx-65668|888888888888|
|4-4-4444-446|6xx-x466xx-x|466xxx-43466|666666666666|
|-----------4|4xx-x-44xx-x|-44xxx----4-|------------|

     Chorus 3:
|------------|------------|------------|------------|
|------------|------------|------------|------------|
|888---88--66|6--88----888|8888--88--66|6--88-----88|
|888-66886666|666886666888|888866886666|666886666688|
|666-66666644|466666666666|666666666644|466666666666|
|----44--44--|-44--4444---|----44--44--|-44--44444--|

|------------|------------|------------|------------|
|------------|------------|------------|------------|
|88888---88--|666--8888---|--8888888---|88--666--888|
|88888-668866|666668888666|668888888-66|886666666888|
|66666-666666|444666666666|666666666-66|666644466666|
|------44--44|---44----444|44--------44|--44---44---|

            Outro:
|------------|------------|------------|------------|
|------------|------------|------------|------------|
|8---8888888-|-8888---8888|888--8888---|6-----------|
|866688888886|688886668888|88866888866x|66\---------|
|666666666666|666666666666|66666666666x|46\---------|
|-444-------4|4----444----|---44----44x|-4\---------|
1 comment total.
0 reply
SimounZon wrote on May 31 2013, 12:19 pm

There's some chords missing in the OUTRO of Nuclear Family This is how they play it..

First
e|--------------------------------|
B|--------------------------------|
G|-9-9-9-9-9-9-9-9-9-9-8---6---4--|
D|-x-x-x-x-x-x-x-x-x-x-x---x---x--|
A|-7-7-7-7-7-7-7-7-7-7-6---4---2--|
E|--------------------------------|

Second
|----------------------------------|
B|---------------------------------|
G|-9-9-9-9-9-9-9-9-9-9-8---9---11--|
D|-x-x-x-x-x-x-x-x-x-x-x---x---x---|
A|-7-7-7-7-7-7-7-7-7-7-6---4---9---|
E|---------------------------------|
That's it and BTW there's also something wrong in the solo of OH LOVE
and the rest is GOOD!! nice work!!

I want to post or [tab]
guest
You may want to rate the tab now too:
select rating
Please do not post tabs as comments. Select "correction" instead!