Oops, an error
Loading. Please wait.

Uno Bass Tab

ver2
ver2

Album

More versions @911Tabs.com
171 views 3 this week
no commentswrite comment
1 2 3 4 5
please rate
Autoscroll
+/-
esc
set tempo
stop
Contributor
Difficulty
novice
NEW! There's an official Ultimate Guitar app which is ideal
for learning songs when you're away from computer. Get the app
WARNING: You are trying to view
                                    content from Ultimate-Guitar.com
                                    in an unauthorized application,
                                    which is prohibited.

                                    Please use an official Ultimate
                                    Guitar Tabs application for iPhone,
                                    iPad or Android to access legitimate
                                    chords, guitar, bass, and drum tabs
                                    from Ultimate-Guitar.com database.

                                    Type "ultimate guitar tabs" in Apple
                                    App Store's or Android Market's
                                    search to find the application.
-----------------------------------------------------------------------------
                             ¡Uno! - Green Day
-----------------------------------------------------------------------------

Tabbed by: Country Bass
E-mail: aaron.white8@education.nsw.gov.au

Here's my version of all the tracks on Green Day's new album ¡Uno!
Hope you like it, please comment if there are any bits that don't sound right

Tuning: Standard

-------------------------------------------------
Track Listing
-------------------------------------------------
1. Nuclear Family
2. Stay The Night
3. Carpe Diem
4. Let Yourself Go
5. Kill The DJ
6. Fell For You
7. Loss Of Control
8. Troublemaker
9. Angel Blue
10. Sweet 16
11. Rusty James
12. Oh Love
13. Let Yourself Go (Live)

-----------------------------------------------------------------------------
                            1. Nuclear Family - Green Day
-----------------------------------------------------------------------------

Tuning: Standard

Intro

G|--------| |--------------------------------------------------|
D|--------| |--------------------------------------------------|
A|-7~~----| |-7--7--7-7-7--7-7-7-7--7-7-----------7-7-7--------| x2
E|--------| |---------------------------5-5-5-5-5-------7-7-7--|

Verse

G|--------------------------------|
D|--------------------------------|
A|-7------------------7-7-7-------| x4
E|----------5-5-5-5-5-------7-7-7-|

Chorus

G|--------------------------------------------------------------------------|
D|--------------------------------------7-7-6-6-5-5-4-4---------------------|
A|------------------------------------------------------7--7-7-7--7-77-7-7--|
E|--5--5-5-5--5--5-5-5-5-5-5-5-5-5--5-5-------------------------------------|

G|--------------------------------------------------------------------------|
D|--------------------------------------7-7-6-6-5-5-4-4---------------------|
A|--------------------------------------------------------------------------|
E|--5--5-5-5--5--5-5-5-5-5-5-5-5-5--5-5-----------------7--7-7-7--7-77-7-7--|

Verse 2

G|--------------------------------|
D|--------------------------------|
A|-7------------------7-7-7-------|
E|----------5-5-5-5-5-------7-7-7-|

G|-------------------------------------------------------|
D|-------------------------------------------------------|
A|--7--8-77-8-77-8-77-8-77-8-7-8------------7-7-7--------|
E|--------------------------------5-5-5-5-5-------7-7-7--|

G|---------------------------------------------------|
D|---------------------------------------------------|
A|--7--8-77-8-7-8--7-8-7-8-7------------7-7-7--------|
E|----------------------------5-5-5-5-5-------7-7-7--|

G|--------------------------------|
D|--------------------------------|
A|-7------------------7-7-7-------|
E|----------5-5-5-5-5-------7-7-7-|

Instrumental Break

G|---------------------------------------------------|
D|---------------------------------------------------|
A|--7--8-77-8-7-8--7-8-7-8-7------------7-7-7--------|
E|----------------------------5-5-5-5-5-------7-7-7--|

G|----------------------------------------------------------------|
D|----------------------------------------------------------------|
A|--8-8-7-7-5-5-4-4-3-3-2-2-1-1-0-0----------------3-3-5-6-6-6-6--|
E|-----------------------------------4--1-1-4--1-1----------------|

G|--------------------------------------------------------------------------|
D|--------------------------------------7-7-6-6-5-5-4-4---------------------|
A|------------------------------------------------------7--7-7-7--7-77-7-7--|
E|--5--5-5-5--5--5-5-5-5-5-5-5-5-5--5-5-------------------------------------|

G|--------------------------------------------------------------------------|
D|--------------------------------------7-7-6-6-5-5-4-4---------------------|
A|--------------------------------------------------------------------------|
E|--5--5-5-5--5--5-5-5-5-5-5-5-5-5--5-5-----------------7--7-7-7--7-77-7-7--|

Outro

G|----------------------------|
D|----------------------------|
A|--7--7-7-7--7--8-7-8-7-8-7--| x7
E|----------------------------|


Playing Order

Intro
Verse
Chorus
Verse 2
Chorus
Instrumental Break
Verse
Chorus
Outro

-----------------------------------------------------------------------------
                     2. Stay The Night - Green Day
-----------------------------------------------------------------------------

 The 141414 bits are 14's not 1 4's

Tuning: Standard

Intro

G|-------------------------------------------------|
D|-------------------------------------------------|
A|--5-5-5-5-5-5-------5-5-5------------------------|
E|--------------3-3-3-------3-3-3-3-3-5-5-5-5-5-5--|

Verse

G|-----------------------------------------------------------------------------|
D|-----------------------------------------------------------------------------|
A|--5-5-5555555555555555----------------5-5-555555555555555--------------------| x2
E|-----------------------33333333333333---------------------33333333-55555555--|

Pre-Chorus

G|---------------------------------------------------|
D|---------------------------------------------------|
A|--2--2--2-2-2-------------5--5--5-5-5-0--0--0-0-0--|
E|--------------3--3--3-3-3--------------------------|

G|------------------------------------------------------------------|
D|------------------------------------------------------------------|
A|--2--2--2-2-2-------------5--5--5-5-5-0--0--0-0-0-0-0-0-0-0-0--0--|
E|--------------3--3--3-3-3-----------------------------------------|


Chorus

G|-------------------------------------------------|
D|-------------------------------------------------|
A|--5-5-5-5-5-5-------5-5-5------------------------| x4
E|--------------3-3-3-------3-3-3-3-3-5-5-5-5-5-5--|

Bridge Part 1

G|----------11----------------------------------|
D|--0~---------13-11------------13-11--------13-|
A|----------------------0----11--------5-/11----|
E|----------------------------------------------|

G|-----11------------------------------------|
D|-0------13-11--------13----------13-11-10--|
A|--------------9---11------9---11-----------|
E|-------------------------------------------|

Bridge Part 2

G|-------------------------------------------------|
D|-------------------------------------------------|
A|--5-5-5-5-5-5-------5-5-5------------------------| x4
E|--------------3-3-3-------3-3-3-3-3-5-5-5-5-5-5--|

G|-------------------------------------------------------|
D|-------------------------------------------------------|
A|----------------------------------------------6--4-----|
E|--2--2--2-2-2-2-10--10--10-10-10-10-4--4--4-4-------6--|

G|---------------------------------------------------------|
D|---------------------------------------------------------|
A|------------------------------------6--4-----11--14--13--|
E|--2--2--2-2-2-2-10--10--10-10-10-10-----4-6--------------|

G|-------------------------------------------------------|
D|-------------------------------------------------------|
A|----------------------------------------------6--4-----|
E|--2--2--2-2-2-2-10--10--10-10-10-10-4--4--4-4-------6--|

G|--------------------------------------------------------------------------|
D|--------------------------------------------------------------------------|
A|------------------------------------6--4-----1414141414141414141414141414-|
E|--2--2--2-2-2-2-10--10--10-10-10-10-------6-------------------------------|

Outro

G|-------------------------------------------|
D|-------------------------------------------|
A|--555555555555555555555-5-5-5-5-5-5-5----5-|
E|-------------------------------------------|


 Playing Order


 Intro x2
 Verse
 Chorus
 Intro
 Verse
 Chorus
 Bridge Part 1
 Bridge Part 2
 Chorus
 Bridge Part 1
 Outro

-----------------------------------------------------------------------------
                           3. Carpe Diem - Green Day
-----------------------------------------------------------------------------

Tuning: Standard

Intro

G|------------------------------------------|
D|------------------------------------------|
A|--4--4-4-4-4-4-----4--4--4-4-4-4-4-----4--| x2
E|---------------2-4-----------------4-2----|

Verse

G|------------------------------------------------------|
D|------------------------------------------------------|
A|----4-----4-----4---4---------4-----4------4---4------| x2
E|--4-----4-----4-------4-4---4-----4------4-------4-4--|

G|----------------------------------------|
D|----------------------------------------|
A|--4--------4--------4-------------------|
E|-----4-4------4-4------4-4-4-4-4-4-4-4--|

Chorus

G|------------------------------------------|
D|------------------------------------------|
A|--4--4-4-4-4-4-----4--4--4-4-4-4-4-----4--| x2
E|---------------2-4-----------------4-2----|

G|-----------------------------------|    |-----------------|
D|-----------------------------------|    |-----------------|
A|--4-4-4-4-4-4-4-4-4-4-4-4-4-6-5-4--| x3 |-----------------|
E|-----------------------------------|    |-4-4--4-4--4-4---|

Bridge

G|------------------------------------------|
D|------------------------------------------|
A|--4--4-4-4-4-4-----4--4--4-4-4-4-4-----4--| x2
E|---------------2-4-----------------4-2----|

G|-----------------------------------|    |-----------------|
D|-----------------------------------|    |-----------------|
A|--4-4-4-4-4-4-4-4-4-6-5-4-6-5-4-0--| x3 |-----------------|
E|-----------------------------------|    |-4-4--4-4--4-4---|

guitar plays the intro riff, then drums are added and the bass plays the final

G|-------|
D|-------|
A|-----4-|
E|-2-4---|

Outro (Last Chorus)

G|------------------------------------------|
D|------------------------------------------|
A|--4--4-4-4-4-4-----4--4--4-4-4-4-4-----4--| x4
E|---------------2-4-----------------4-2----|


Playing Order

Intro
Verse
Chorus
Verse
Chorus
Bridge
Outro

----------------------------------------------------------------------------
                     4. Let Yourself Go - Green Day
-----------------------------------------------------------------------------

 Listen to song for timing


 Tuning: Standard

Verse

G|-------------------------------------------------------------------------------------|
D|-------------------------------------------------------------------------------------|
A|----5--------------5---------------5---------------5-------------5-------5-------5---|
E|--3---5----------3---5-----------3---5-----------3---5---------3---5---3---5---3---5-|

Chorus

G|------------------------------------------------------|
D|------------------------------------------------------|
A|--5--5--5--5-5----------------------------------------| x4
E|---------------3--3--3--3-3--5--5--5--5--5--5--5--5-5-|

Bridge

G|-----------------------------------------------------|
D|-----------------------------------------------------|
A|----5---------5----------5----------5----------------|
E|--3---5-----3---5-----3-----5-----3---5-5-5-5-5-5-5--|

G|------------------------------------------------------|
D|------------------------------------------------------|
A|--5--5--5--5-5----------------------------------------| x4
E|---------------3--3--3--3-3--5--5--5--5--5--5--5--5-5-|

G|--------------------------------------------------|
D|--------------------------------------------------|
A|-------5-------5-------5-------5-------5------5-5-|
E|--------------------------------------------------|

Outro

G|------------------------------------------------------------------|
D|------------------------------------------------------------------|
A|--5--5--5--5-5--------------------------------------5---------5---|
E|----------------3--3--3--3-3-5--5--5--5--5--5--5--3---5-----3---5-|

 Playing Order

 Verse
 Chorus
 Verse
 Chorus
 Bridge
 Chorus x2
 Outro

-----------------------------------------------------------------------------
                     5.  Kill The DJ - Green Day
-----------------------------------------------------------------------------

 Tuning: Standard

Intro

G|------------------------------|
D|------------------------------|
A|------------------------------|
E|--5--5--5--5--5--5--5--5-5-3--|

Verse

G|---------------------------------|
D|---------------------------------|
A|----------------5-5---5----------| x6
E|--5-5--5-5-5--5---------3-3-3-3--|

G|------------------------------------------------------------|
D|------------------------------------------------------------|
A|-----------7-6-5--5-5--5-------------------7-6-5--5-5--5----|
E|--5-5--5-5---------------3-3-3-3--5-5--5-5---------------3--|

Chorus

G|-----------------------------------|    |-----------------------------|
D|-----------------------------------|    |-----------------------------|
A|------------7-5-6-----------9-8-7--| x3 |-----------------------------|
E|--5-5-7-6-5-------5-5-7-6-5--------|    |-5--5--5--5--5--5--5--5-5-3--|

G|-------------------------------------------------------------------------|
D|------------7-6-5----------------------------7-6-5-----------------------|
A|----7-6-5-----------9-8-7-9-7-6-5----7-6-5-------------------------------|
E|--5-------5-------5----------------5-------5-------5--5--5--5--5--5-5-3--|

Bridge

G|--------|-------------------------------------|    |----------------------------------------------|
D|--------|-------------------------------------|    |----------------------------------------------|
A|--------|-------------------------------------| x2 |----------------------------------------------|
E|--5~----|-5-5-5-5-7-7-7-7-8-8-8-8-12-12-12-12-|    |-5-5-5-5-7-7-7-7-8-8-8-8-12-12-12-1212---5-53-|

This part I've tabbed out in the easiest way I could figure out but the studio recording 
has a few little licks in it at places

G|-----------------------------------|
D|-----------------------------------|
A|------------7-5-6-----------9-8-7--| x4
E|--5-5-7-6-5-------5-5-7-6-5--------|

G|-------------------------------------------------------------------------|
D|------------7-6-5----------------------------7-6-5-----------------------|
A|----7-6-5-----------9-8-7-9-7-6-5----7-6-5-------------------------------|
E|--5-------5-------5----------------5-------5-------5--5--5--5--5--5-5-3--|

G|--------------------------|
D|--------------------------|
A|--------------------------|
E|--5--5--5--5--5--5--5--5--|

G|----------------------------------------|    |-------------|
D|----------------------------------------|    |-------------|
A|----------------------------------------| x6 |-------------|
E|-5-5-5-5-7-7-7-7-8-8-8-8-12-12-12-1212--|    |-3-----5-5-3-|

Outro

G|-----------------------------------|
D|-----------------------------------|
A|------------7-5-6-----------9-8-7--| x3
E|--5-5-7-6-5-------5-5-7-6-5--------|

G|---------------------------------|
D|---------------------------------|
A|---------------------------------|
E|--5--5--5--5--5--5--5--5-5-3-5---|


 Playing Order

 Intro
 Verse
 Chorus
 Verse
 Chorus
 Bridge
 Outro

-----------------------------------------------------------------------------
                      6. Fell For You - Green Day
-----------------------------------------------------------------------------

 Tuning: Standard

 Intro

G|--------------------------------------------------------------------------|
D|--------------------------------------------------------------------------|
A|--------------------------------------------------------------------------| x2
E|--6-6-6-6-6-6-6-6-6-6-6-6-6-6-6-6-8-8-8-8-8-8-8-8-11-11-11-11-11-11-11-11-|

Verse

G|-----------------------------------|
D|-----------------------------------|
A|--5-5-5-5-5-5-5-5-7-7-7-7-7-7-7-7--| x4
E|-----------------------------------|

G|-------------------------------------|
D|-------------------------------------|
A|------5-5-5-5-5-5-5-5-7-7-7-7-7-7-7--| x3
E|--5-5--------------------------------|

G|--------------------------------------------------------|
D|--------------------------------------------------------|
A|------5-5-5-5-5-5-5-5-7-7-7-7-7-7-7-7-7-7-7-7-7-7-7-7-7-|
E|--5-5---------------------------------------------------|

Chorus

G|-------------------------------------------------------------------|
D|-------------------------------------------------------------------|
A|----------------------------------5-5-5-5-5-5-5-5-7-7-7-7-7-7-7-7--| x2
E|--5-5-5-5-5-5-5-5-5-5-5-5-5-5-5-5----------------------------------|

G|---------------------------------------------|
D|---------------------------------------------|
A|-----------------------2--2-2--2-2---2--2-2--| x2
E|--2--2-2--2-2---2--2-0-----------------------|

Post-Chorus

G|-------------------------------------------------------------------|
D|-------------------------------------------------------------------|
A|--5-5-5-5-5-5-5-5-5-5-5-5-5-5-5-5-7-7-7-7-7-7-7-7-7-7-7-7-7-7-7-7--| x2
E|-------------------------------------------------------------------|

Post-Chorus 2

G|-------------------------------------------------------------------|
D|-------------------------------------------------------------------|
A|--5-5-5-5-5-5-5-5-5-5-5-5-5-5-5-5-7-7-7-7-7-7-7-7-7-7-7-7-7-7-7-7--|
E|-------------------------------------------------------------------|

G|-------------------------------------------------------------------|
D|-------------------------------------------------------------------|
A|--5-5-5-5-5-5-5-5-5-5-5-5-5-5-5-5----------------------------------|
E|-------------------------------------------------------------------|

Outro

G|--------------------------------------------------------------------------|
D|--------------------------------------------------------------------------|
A|--------------------------------------------------------------------------| x2
E|--6-6-6-6-6-6-6-6-6-6-6-6-6-6-6-6-8-8-8-8-8-8-8-8-11-11-11-11-11-11-11-11-|

G|------------------------------------------|
D|------------------------------------------|
A|------------------------------------------| x2
E|--8-8-8-8-8-8-8-8-11-11-11-11-11-11-11-11-|

G|-------------|
D|-------------|
A|--5\-2\------|
E|--------2~~--|


 Playing Order

 Intro
 Verse
 Chorus
 Post-Chorus
 Verse
 Chorus
 Post-Chorus
 Outro

-----------------------------------------------------------------------------
                     7. Loss Of Control - Green Day
-----------------------------------------------------------------------------

 Tuning: Standard

Intro

G|---------------------8-9---|
D|----------------h7---------|
A|--------h5-----------------|
E|-0-------------------------|

Intro Part 2

G|----------------------------------------------------------------|
D|----------------------------------------------------------------|
A|----------------------------------------------------------------| x2
E|--4-4--2-5-5-5-5-5-5-5-5-5-5-5-5-4-4-2-0-0-0-0-0-0-0-0-0-0-0-0--|

Verse

G|-------|
D|-------|
A|-------|
E|-4-4-2-|

G|---------------------------------------------------------|
D|---------------------------------------------------------|
A|--------------------------------7-7-7-7-7-7-7-7-7-7-7-7--| x4
E|--5-5-5-5-5-5-5-5-5-5-5-5-5-5-5--------------------------|

Pre-Chorus

G|---------------------------------5-3-----------------------------------|
D|-----------------------------------------------------------------------|
A|-------------------------------------2-2-2-2-2-2-2-2-2-2-2-2-2-2-2-2-2-| x2
E|-4-4-2-3-3-3-3-3-3-3-3-3-3-3-3-3---------------------------------------|

Chorus

G|--------------------------------------------------------------|
D|--------------------------------------------------------------|
A|--5-5-5-5-5-5-5-5-5-5-5-5-5-5-5-5-5-5-5-5-5-5-5-5-5-5-5-5-5-5-|
E|--------------------------------------------------------------|

G|------------------------|
D|------------------------|
A|--------5----------5----|
E|--4--4----4--4--4----4--|

G|--------------------------------------------------------------|
D|--------------------------------------------------------------|
A|--5-5-5-5-5-5-5-5-5-5-5-5-5-5-5-5-5-5-5-5-5-5-5-5-5-5-5-5-5-5-|
E|--------------------------------------------------------------|

G|-------------------------|
D|-------------------------|
A|--7-7-7-7-7-7-7-7-7-7-7--|
E|-------------------------|

Chorus 3

No Bass until Billie sings "...You're All Crazy Now"

G|------------------------|
D|------------------------|
A|--------5----------5----|
E|--4--4----4--4--4----4--|

G|--------------------------------------------------------------|
D|--------------------------------------------------------------|
A|--5-5-5-5-5-5-5-5-5-5-5-5-5-5-5-5-5-5-5-5-5-5-5-5-5-5-5-5-5-5-|
E|--------------------------------------------------------------|

G|-------------------------|
D|-------------------------|
A|--7-7-7-7-7-7-7-7-7-7-7--|
E|-------------------------|

Outro

G|---------|
D|---------|
A|---------|
E|-7-7-5-3-|


 Playing Order

 Intro Part 1
 Intro Part 2
 Verse
 Pre-Chorus
 Chorus
 Intro Part 2
 Verse
 Pre-Chorus
 Chorus
 Intro Part 2 x2
 Pre-Chorus
 Chorus 3

-----------------------------------------------------------------------------
                        8. Troublemaker - Green Day
-----------------------------------------------------------------------------

 Tuning: Standard

Verse

G|-------------------------------------------------------|
D|-------------------------------------------------------|
A|-------------6-7-7--------5------------6-7-7---------5-| x5
E|--4-4-6-7-7---------4-5-5---4-4-6-7-7---------4--5-5---|

Chorus

G|--------------------------------------------------------------|
D|--------------------------------------------------------------|
A|--------------------------------------------------------------|
E|--2------4-4-4-2------4-4-4-2------4-4-4-2------4-4-4-2-------|

Bridge

G|-------------------------------------------------------|
D|-------------------------------------------------------|
A|-------------6-7-7--------5------------6-7-7---------5-| x2
E|--4-4-6-7-7---------4-5-5---4-4-6-7-7---------4--5-5---|

G|--------------------------------------------------------------|
D|--------------------------------------------------------------|
A|--------------------------------------------------------------|
E|--2------4-4-4-2------4-4-4-2------4-4-4-2------4-4-4-2-------|

G|-------------------------------------------------------------|
D|-------------------------------------------------------------|
A|-------------------------------------------------------------|
E|--4---4-4-6-7-------4-4-6-7------4-4-6-7------4-4-6-7----2---|

Outro

G|-------------------------------------------------------|
D|-------------------------------------------------------|
A|-------------6-7-7--------5------------6-7-7---------5-| x4
E|--4-4-6-7-7---------4-5-5---4-4-6-7-7---------4--5-5---|


 Playing Order

 Verse
 Chorus
 Verse
 Chorus
 Bridge
 Outro

-----------------------------------------------------------------------------
                            9. Angel Blue - Green Day
-----------------------------------------------------------------------------

Tabbed by: Country Bass
E-mail: aaron.white8@education.nsw.gov.au

Tuning: Standard

Intro

G|------------------|    |-----------------------------------|
D|------------------|    |-----------------------------------|
A|------7-7-7-------| x3 |--9-9-9-9-9-9-9-9-9-9-9-9-9-9-9-9--|
E|--7---------7-7-7-|    |-----------------------------------|

G|--------------------------|    |-----------------------------------|
D|--------------------------|    |-----------------------------------|
A|--------------7-7-7-------| x3 |--9-9-9-9-9-9-9-9-9-9-9-9-9-9-9-9--|
E|--7-7-7-7-7-7-------7-7-7-|    |-----------------------------------|

Verse

G|--------------------|
D|--------------------|
A|------7-7-7---------| x4
E|--7---------7-7-7-7-|

Chorus

G|---------------------------------------------------------|
D|---------------------------------------------------------|
A|-7-7-7-9-8-6-66-6--8-7--2-2-2-2-2-2-2-2-2-2-2-2-2-2-2-2--|
E|---------------------------------------------------------|

G|-------------------------|
D|-------------------------|
A|--7-----9-9-9-9-9-9-9-9--| x4
E|-----7-------------------|

Post-Chorus

G|--------------------------|    |-----------------------------------|
D|--------------------------|    |-----------------------------------|
A|--------------7-7-7-------| x3 |--9-9-9-9-9-9-9-9-9-9-9-9-9-9-9-9--|
E|--7-7-7-7-7-7-------7-7-7-|    |-----------------------------------|

Bridge

G|---------------------------|
D|---------------------------|
A|--7-------9-9-9-9-9-9-9-9--| x4
E|------7--------------------|

G|-----------------------------------------------------------------|
D|-----------------------------------------------------------------|
A|---------------------------7-----7------7-----7------------------|
E|--5-5-5-4-4-0-0-0--0-0-7-7---7-7---7--7---7-7----5-5-5-4-4-0-0-0-|

--------------------------------------|
--------------------------------------|
-----2-2-2-2-2-2-2-2-2-2-2-2-2-2-2-2--|
-0-0----------------------------------|

Drums and bass drop out, they come back in for the chorus


Outro

G|-------------------------|    |--------------------|
D|-------------------------|    |--------------------|
A|------------7-7-7--------| x3 |-----------7-7-7----|
E|--7-7-7-7-7-------7-7-7--|    |-7-7-7-7-7-------7--|


Playing Order

Intro
Verse
Chorus
Post-Chorus
Verse
Chorus
Bridge
Chorus
Outro

-----------------------------------------------------------------------------
                      10. Sweet 16 - Green Day
-----------------------------------------------------------------------------

 Tuning: Standard

Intro

G|-----------------------------------------|
D|--5-5-5-5---5-5-5-5---5-5-5-5------------|
A|----------5---------5---------5-3-2-0----|
E|--------------------------------------0--|

Verse

G|----------------------|    |----|
D|----------------------|    |----|
A|-------2---------5----| x2 |-55-|
E|--2---------5---------|    |----|

G|--------------------------------------------------------------------------|
D|------------------------------------------2-2-2-2-2-2-2-2-----------------|
A|--10-10-10-10-10-10-10-10-2-2-2-2-2-2-2-2-----------------5-5-5-5-5-5-5-5-|
E|--------------------------------------------------------------------------|

G|-------------------------------------------------------------------|
D|----------------------------------2-2-2-2-2-2-2-2------------------|
A|------------------2-2-2-2-2-2-2-2-----------------5-5-5-5-5-5-5-5--|
E|--5-5-5-5-5-5-5-5--------------------------------------------------|

Chorus

G|-----------------------------------------------|
D|-----------------------------------------------|
A|--3-3-3-3-3-10-10-10-10-10-2-2-2-2-2-7-7-7-7-7-|
E|-----------------------------------------------|

G|-------------------------------------------|
D|-------------------------------------------|
A|--3-3-3-3-3-5-5-5-5-5-5-4-4-4-4-4-3-2-0----|
E|----------------------------------------2--|

G|-------------------------------------------|
D|-------------------------------------------|
A|--3-3-3-3-3-10-10-10-10-10-2-2-2-2-2-3-2---|
E|-----------------------------------------0-|

G|------------------------------------------------------------------|
D|------------------------------------------------------------------|
A|--3-3-3-3-3-5--5-5-5-5-3-3-3-3-3-5--5-5-5-5-3-3-3-3-3-5--5-5-5-5--|
E|------------------------------------------------------------------|

Bridge

G|-------------------------------------------------------------------|
D|----------------------------------2-2-2-2-2-2-2-2------------------|
A|------------------2-2-2-2-2-2-2-2-----------------5-5-5-5-5-5-5-5--| x4
E|--5-5-5-5-5-5-5-5--------------------------------------------------|

 Playing Order

 Intro
 Verse
 Chorus
 Intro
 Verse
 Chorus
 Bridge
 Chorus
 Intro

-----------------------------------------------------------------------------
                          11. Rusty James - Green Day
-----------------------------------------------------------------------------

 Listen to song for timing

 Tuning: Standard

Intro

G|-------------------------------------|
D|-------------------------------------|
A|--7~------7~-------7~-------7~-------|
E|-------------------------------------|

Post-Chorus

G|--------------------------------|
D|--------------------------------|
A|--7-7-7--7--7-7--7-7-7--7--7-7--| x2
E|--------------------------------|

Verse

G|-------------------------------------------------------------------|
D|-------------------------------------------------------------------|
A|--7-7-7-7-7-7-7-7-7-7-7-7-7-7-7-7-6-6-6-6-6-6-6-6-6-6-6-6-6-6-6-6--|
E|-------------------------------------------------------------------|

G|-------------------------------------------------------------------|
D|-------------------------------------------------------------------|
A|-------------------------------------------------------------------|
E|--5-5-5-5-5-5-5-5-5-5-5-5-5-5-5-5-5-5-5-5-5-5-5-5-5-5-5-5-5-5-5-5--|

G|-------------------------------------------------------------------|
D|-------------------------------------------------------------------|
A|--7-7-7-7-7-7-7-7-7-7-7-7-7-7-7-7-4-4-4-4-4-4-4-4-4-4-4-4-4-4-4-4--|
E|-------------------------------------------------------------------|

G|-------------------------------------------------------------------|
D|-------------------------------------------------------------------|
A|--5-5-5-5-5-5-5-5-5-5-5-5-5-5-5-5-7-7-7-7-7-7-7-7-7-7-7-7-7-7-7-7--|
E|-------------------------------------------------------------------|

Pre-Chorus

G|-----------------------------------------------|
D|-----------------------------------------------|
A|-----------------------------------------------|
E|--2--2-2-2-2-4--4-4-4-4-5--5-5-5-5-7--7-7-7-7--|

G|--------------------------------------------------------|
D|--------------------------------------------------------|
A|--------------------------------------------------------|
E|--2--2-2-2-2-4--4-4-4-4-5--5-5-5-5-7--7-7-7-7-7-7-7-7-7-|

Chorus

G|-------------------------------------------|
D|-------------------------------------------|
A|--7-7-7-7-7-----------7-7-7-7-7------------|
E|------------7-7-7-7-7-----------7-7-7-7-7--|

G|-------------------------------------------|
D|-------------------------------------------|
A|--4-4-4-4-4--------------------------------|
E|------------4-4-4-4-4-5-5-5-5-5-7-7-7-7-7--|

Bridge Part 1

G|---------------------------------------------------------------------|
D|---------------------------------------------------------------------|
A|----------------------------------7-7-7-7-7--7--7-7-7-7-7-7-7-7-7-7--|
E|--5--55-5-5-5-5-5-5-5-5-5-5-5-5-5------------------------------------|

G|--------------------------------------------------------------------|
D|--------------------------------------------------------------------|
A|--------------------------------------------------------------------|
E|--5--55-5-5-5-5-5-5-5-5-5-5-5-5-5-7-7-7-7-7-7-15-15-15-15-15-15-15--|

Bridge Part 2

G|-------------------------------------------------------------------|
D|-------------------------------------------------------------------|
A|--7-7-7-7-7-7-7-7-7-7-7-7-7-7-7-7-4-4-4-4-4-4-4-4-4-4-4-4-4-4-4-4--|
E|-------------------------------------------------------------------|

G|-------------------------------------------------------------------|
D|-------------------------------------------------------------------|
A|--5-5-5-5-5-5-5-5-5-5-5-5-5-5-5-5-7-7-7-7-7-7-7-7-7-7-7-7-7-7-7-7--|
E|-------------------------------------------------------------------|

Chorus 2

G|-------------------------------------------|
D|-------------------------------------------|
A|---7------------------7--------------------|
E|------------7-7-7-7-7-----------7-7-7-7-7--|

G|-------------------------------------------|
D|-------------------------------------------|
A|--4-4-4-4-4--------------------------------|
E|------------4-4-4-4-4-5-5-5-5-5-7-7-7-7-7--|

 Playing Order

 Intro
 Post-Chorus
 Verse
 Pre-Chorus
 Chorus x2
 Post-Chorus
 Verse
 Pre-Chorus
 Chorus x2
 Bridge Part 1
 Bridge Part 2 x2
 Pre-Chorus
 Chorus 2 x2
 Chorus x2
 Post-Chorus x2

-----------------------------------------------------------------------------
                            12. Oh Love - Green Day
-----------------------------------------------------------------------------

Tuning: Standard

Intro Verse

No Bass until the first Pre-chorus
When Billie Sings "Take me close to you "


Pre-Chorus

G|------------------------------------------|
D|------------------------------------------|
A|--4-3-4---6-6-6-6-6-6-6-6-6-6-6-6-6-6-6-6-|
E|--------4---------------------------------|

Chorus

G|--------------------------------------------------------------------|
D|--------------------------------------------------------------------|
A|-----------6--6-66---------6--6-66-4--4-44---------6-6-6--66-6-6--6-|
E|--4--4--44---------4--4-44-----------------4--4-44------------------|

G|---------------------------------------------------|
D|---------------------------------------------------|
A|-----------6--6-66---------6--6-66-4--4-44---------|
E|--4--4--44---------4--4-44-----------------4--4-44-|

Verse

G|-------------------------------------|
D|-------------------------------------|
A|----------4---------6-6-6--66-6-6--6-|
E|--4-4-------4-4----------------------|

G|------------------------------------------------|    |-------------------------------|
D|------------------------------------------------|    |-------------------------------|
A|----------4---------4---------6-6-6--66-6-6--6--| x3 |----------4---------4----------|
E|--4-4-------4-4-------4-4-----------------------|    |--4-4-------4-4-------4-4------|

Bridge

G|--------------------------------------------------------------------------|
D|--------------------------------------------------------------------------|
A|--4-4-4-4-4-4-44--4-4--4-4---------------4-4-4-4-4-4-4-4------------------|
E|---------------------------4-4--4-4-4-2------------------4-4-4-4-4-4-4-4--|

G|-------------------------------------------------------|
D|-------------------------------------------------------|
A|--4-4--4-4---------6-8-8-8-8--4-3-4---6-6-6-6-6-6-6-6--|
E|------------4-4--4------------------4------------------|

Instrumental Break

G|--------------------------------------------------------------------|
D|--------------------------------------------------------------------|
A|-----------6--6-66---------6--6-66-4--4-44---------6-6-6--66-6-6--6-|
E|--4--4--44---------4--4-44-----------------4--4-44------------------|

G|----------------------------------------------------------------------------|
D|----------------------------------------------------------------------------|
A|-----------6--6-66---------6--6-66-4-3-4----6-6-6-6-6-6-6-6-6-6-6-6-6-6-64--|
E|--4--4--44---------4--4-44---------------4----------------------------------|


Guitar plays for a little while, then bass and drums come back in at 3:57

G|-------------------------------------------|
D|-------------------------------------------|
A|--4-3-4---6-6-6-6-6-6-6-6-6-6-6-6-6-6-6-6--|
E|--------4----------------------------------|

Outro

G|-------------------------------------------------------------------------|
D|-------------------------------------------------------------------------|
A|--4--4--4-4------------6-6-6-6--6-6-6-6---4--4--4-4-----------6-6-x-6-4--|
E|------------4--4--4-4-------------------------------4--4--4-4------------|


Playing Order

Into verse (No Bass)
Pre-Chorus
Chorus
Verse
Pre-Chorus
Chorus
Bridge
Instrumental Break
Chorus x2
Outro

-----------------------------------------------------------------------------
                          13. Let Yourself Go - Green Day
-----------------------------------------------------------------------------


This is a live version recorded from a performance in Japan


 Tuning: Standard

Intro


G|----------------------------------------------------------------|
D|----------------------------------------------------------------|
A|----5--------------5---------------5---------------5------------| x2
E|--3---5----------3---5-----------3---5-----------3---5----------|

Verse

G|-------------------------------------------------------------------------------------|
D|-------------------------------------------------------------------------------------|
A|----5--------------5---------------5---------------5-------------5-------5-------5---|
E|--3---5----------3---5-----------3---5-----------3---5---------3---5---3---5---3---5-|

Chorus

G|------------------------------------------------------|
D|------------------------------------------------------|
A|--5--5--5--5-5----------------------------------------| x4
E|---------------3--3--3--3-3--5--5--5--5--5--5--5--5-5-|

Bridge

G|-----------------------------------------------------|
D|-----------------------------------------------------|
A|----5---------5----------5----------5----------------|
E|--3---5-----3---5-----3-----5-----3---5-5-5-5-5-5-5--|

G|------------------------------------------------------|
D|------------------------------------------------------|
A|--5--5--5--5-5----------------------------------------| x4
E|---------------3--3--3--3-3--5--5--5--5--5--5--5--5-5-|

G|---------------------------------------|    |--------------------|
D|---------------------------------------|    |--------------------|
A|-------5-------5-------5-------5-------| x7 |5--------5------5-5-|
E|---------------------------------------|    |--------------------|

Outro

G|------------------------------------------------------------------|
D|------------------------------------------------------------------|
A|--5--5--5--5-5--------------------------------------5---------5---|
E|----------------3--3--3--3-3-5--5--5--5--5--5--5--3---5-----3---5-|

 Playing Order

 Intro
 Verse
 Chorus
 Verse
 Chorus
 Bridge
 Chorus x2
 Outro


There you have it, Uno from start to finish, Hope you like the tabs

Have Fun


| /  slide up
| \  slide down
| h  hammer-on
| p  pull-off
| ~  vibrato
| +  harmonic
| x  Mute note
=============================================================================
comments
We did not receive enough feedback on this tab! Please rate:
print report bad tab
1 2 3 4 5
I want to post or [tab]
guest
You may want to rate the tab now too:
select rating
Please do not post tabs as comments. Select "correction" instead!