Oops, an error
Loading. Please wait.

Uno Tab

ver2
ver2

Album

More versions @911Tabs.com
2,614 views 3 this week
no commentswrite comment
1 2 3 4 5
please rate
add to favorites launch autoscroll
font size
0
reset
Autoscroll
+/-
esc
set tempo
stop
Contributor
WARNING: You are trying to view
                                    content from Ultimate-Guitar.com
                                    in an unauthorized application,
                                    which is prohibited.

                                    Please use an official Ultimate
                                    Guitar Tabs application for iPhone,
                                    iPad or Android to access legitimate
                                    chords, guitar, bass, and drum tabs
                                    from Ultimate-Guitar.com database.

                                    Type "ultimate guitar tabs" in Apple
                                    App Store's or Android Market's
                                    search to find the application.
This is not my personal work! I just looked for the best version of each song 
(from my individual point of view) and arranged them.
The copyright remains with the respective authors!
I hope you enjoy playing these songs :)

Nuclear Family

e|----------------------------------|
B|----------------------------------|   This bit is slightly less distorted
G|-9---9-999---9-999---9-9-9--------|   and this isn't the exact strumming
D|-9---9-999---9-999---9-9-9--------|   pattern of this particular bit, but
A|-7---7-777---7-777---7-7-7--------|   you can figure it out by listening
E|----------------------------------|   to the song

e|---------------------------------------------------------------|
B|---------------------------------------------------------------|
G|-9-9-9-9-9-9-9-9-9-9-9-9-9-9-9-9------------------9-9-9--------|
D|-9-9-9-9-9-9-9-9-9-9-9-9-9-9-9-9-7---7-7-7---7-7--9-9-9-9--99--|   X2
A|-7-7-7-7-7-7-7-7-7-7-7-7-7-7-7-7-7---7-7-7---7-7--7-7-7-9--99--|
E|---------------------------------5---5-5-5---5-5--------7--77--|

On the second time, another guitar plays this riff:

e|---------------------------------------------------------------|
B|---------------------------------------------------------------|
G|-9-9-9-9-9-9-9-9-9-9-8---8---4--------------------9-9-9--------|
D|-x-x-x-x-x-x-x-x-x-x-x---x---x---7-7-7-7-7-7-7-7--9-9-9-9--99--|
A|-7-7-7-7-7-7-7-7-7-7-6---6---2---7-7-7-7-7-7-7-7--7-7-7-9--99--|
E|---------------------------------5-5-5-5-5-5-5-5--------7--77--|

Verse 1, 2 and 3
         (Guitar Rest, Drum and Bass Fill)
e|---------------------------------------------------------------|
B|---------------------------------------------------------------|
G|-9------------------------------------------------9-9-9--------|    X4
D|-9-------------------------------7-7-7-7-7-7-7-7--9-9-9-9------|
A|-7-------------------------------7-7-7-7-7-7-7-7--7-7-7-9------|
E|---------------------------------5-5-5-5-5-5-5-5--------7------|


Chorus 1, 2 and 3

It's easy to figure out the strumming pattern of the chorus, just listen to the song. It 
sounds a bit like a section of the verse from "Welcome to Paradise"

e|---------------------------------------------------------------|
B|---------------------------------------------------------------|
G|----------9----------------------------------------------------|
D|-7--------9-(x16)--7--------9----------------------------------|
A|-7-(x32)--7--------7-(x32)--9-(x16)----------------------------|
E|-5-----------------5--------7----------------------------------|

After second chorus play the verse riff twice, it's the Bass solo!


Guitar Solo:

Rhythm Guitarist play chorus during solo

 Lead plays:

e|----------------|----------------|----------------|----------------|
B|-5--5-5-5-5-5-5-|-5---5--4--2~---|-5--5-5-5-5-5-5-|-5---5--7--9~---|
G|-7b 7b7b7b7b7b7b|-7b-------------|-7b 7b7b7b7b7b7b|-7b-------------|
D|----------------|----------------|----------------|----------------|
A|----------------|----------------|----------------|----------------|
E|----------------|----------------|----------------|----------------|



e|---------------------|--------------------|
B|-9-9---10-10--12-12--|12----12-10-12-10---|
G|-9-9----9--9---9--9--|-9-----9--9--9--9---|
D|---------------------|--------------------|
A|---------------------|--------------------|
E|---------------------|--------------------|

e|---5--5--5--5--5|----------------|---5--5--5--5--5|--5--5--5--5--5-|
B|--5--5--5--5--5-|-5---5--4--2~---|--5--5--5--5--5-|-5--5--5--5--5--|
G|-7b 7b-7b-7b-7b-|7b--------------|-7b-7b-7b-7b-7b-|7b-7b-7b-7b-7b--|
D|----------------|----------------|----------------|----------------|
A|----------------|----------------|----------------|----------------|
E|----------------|----------------|----------------|----------------|

e|-----------7----|----------------|
B|----------7-7---|10b--(10b)(10b)-| Hold the last note and bend a few times
G|-9p7-7h-9b------|----------------| (three I think). You'll know when you
D|----9-----------|----------------|  listen to the song.
A|----------------|----------------|
E|----------------|----------------|

NOTE 3RD VERSE:

I think there a second guitar playing a fill with perhaps a harmonic pedal, I'm not 
sure. If anyone does know just say so in the comments, it's a pretty cool effect in my opinion.

Outro:

Rhythm plays

e|----------------|    If you wanted to, you could add |--------|
B|----------------|    in these chords now and then.   |-9---10-|
G|-9--------------|                                    |-9----9-|
D|-9-(X64)--------|                                    |-9----9-|
A|-7--------------|                                    |-7----7-|
E|----------------|                                    |--------|

While lead plays

e|--------------------------------|
B|--------------------------------|
G|-9-9-9-9-9-9-9-9-9-9-8---8---4--|    X5
D|-x-x-x-x-x-x-x-x-x-x-x---x---x--|
A|-7-7-7-7-7-7-7-7-7-7-6---6---2--|
E|--------------------------------|

And then just:

e|-----|                                                  |-----|
B|-----|     A bend on the G string twice every bar       |-----|
G|-2b--|     and just finish up with:                     |-9---|
D|-----|                                                  |-9---|
A|-----|                                                  |-7---|
E|-----|                                                  |-----|




Stay the Night

Intro:
 Guitar 1
E|-------------------------------|---------------------------------|--------|
B|-------------------------------|---------------------------------|--------|
G|--11-11-12-14-14-12-11-11-9-11-|-11-11-12-14-14-14-14----------9-|--11-11-|
D|--0--0--0--0--0--0--0--0--0-0--|-0--0--0--0--0--0--0--11-11-12-0-|--0--0--|
A|-------------------------------|----------------------0--0--0----|--------|
E|-------------------------------|---------------------------------|--------|

E|------------------------|-------------------|
B|------------------------|-------------------|
G|-12-14-14-14-0--0--0--0-|-------------------|
D|-0--0--0--0--12-12-11-9-|-11-11-12-14-12-11-|
A|------------------------|-0--0--0--0--0--0--|
E|------------------------|-------------------|


Verse Pt. 1:
 Guitar 1
E|--------------------------------------------------------------|
B|--------------------------------------------------------------|
G|-7--7-7-7-7-7-7----------7------------------------------------|
D|-7--7-7-7-7-7-7--7--7-7--7--7--5--5-5-5-5-5-5--7--7-7-7-7-7-7-|x2
A|-5--5-5-5-5-5-5--7--7-7--5--7--5--5-5-5-5-5-5--7--7-7-7-7-7-7-|
E|-----------------5--5-5-----5--3--3-3-3-3-3-3--5--5-5-5-5-5-5-|
                                                                             Guitar 2
E|--------------------------------------------------------------|
B|--------------------------------------------------------------|
G|-7--7-7-7-7-7-7----------7------------------------------------|
D|-7--7-7-7-7-7-7--7--7-7--7--7--5--5-5-5-5-5-5--7--7-7-7-7-7-7-|x2
A|-5--5-5-5-5-5-5--7--7-7--5--7--5--5-5-5-5-5-5--7--7-7-7-7-7-7-|
E|-----------------5--5-5-----5--3--3-3-3-3-3-3--5--5-5-5-5-5-5-|


Verse Pt.2
 Guitar 1
E|-------|
B|-------|
G|-7-7---|
D|-7-7---| (x4)
A|-5-5---|
E|-------|

 Guitar 2
   Palm Muted
  1st & 3rd time       2nd & 4th time
E|------------------|------------------|
B|------------------|------------------|
G|-7----------------|-7----------------|
D|-7-(x16)--7-------|-7-(x16)-5------7-|
A|-5--------7-(x16)-|-5-------5-(x8)-7-|
E|----------5-------|---------3------5-|
   *        *         *       *      *


Pre-Chorus:
 Guitar 1
                                             On 2nd time cont.
                                          Strumming till the chorus
E|------------------------------------------|----------------|
B|------------------------------------------|----------------|
G|-4--4--4-4-4------------------7--7--7-7-7-|----------------|
D|-4--4--4-4-4--5--5-5-5-5-5-5--7--7--7-7-7-|-7--7-7-7-7-7-7-|x2
A|-2--2--2-2-2--5--5-5-5-5-5-5--5--5--5-5-5-|-7--7-7-7-7-7-7-|
E|--------------3--3-3-3-3-3-3--------------|-5--5-5-5-5-5-5-|

Guitar 2
                                              On 2nd time cont.
                                          Strumming till the chorus
E|------------------------------------------|----------------|
B|------------------------------------------|----------------|
G|------------------------------7--7--7-7-7-|----------------|
D|-9--9--9-9-9--5--5-5-5-5-5-5--7--7--7-7-7-|-7--7-7-7-7-7-7-|x2
A|-9--9--9-9-9--5--5-5-5-5-5-5--5--5--5-5-5-|-7--7-7-7-7-7-7-|
E|-7--7--7-7-7--3--3-3-3-3-3-3--------------|-5--5-5-5-5-5-5-|


Chorus:
 Guitar 1
E|--------------------------------------------------------------|
B|--------------------------------------------------------------|
G|-7--7-7-7-7-7-7----------7------------------------------------|
D|-7--7-7-7-7-7-7--7--7-7--7--7--5--5-5-5-5-5-5--7--7-7-7-7-7-7-|x5
A|-5--5-5-5-5-5-5--7--7-7--5--7--5--5-5-5-5-5-5--7--7-7-7-7-7-7-|
E|-----------------5--5-5-----5--3--3-3-3-3-3-3--5--5-5-5-5-5-5-|
                                                                             Guitar 2
E|--------------------------------------------------------------|
B|--------------------------------------------------------------|
G|-7--7-7-7-7-7-7----------7------------------------------------|
D|-7--7-7-7-7-7-7--7--7-7--7--7--5--5-5-5-5-5-5--7--7-7-7-7-7-7-|x5
A|-5--5-5-5-5-5-5--7--7-7--5--7--5--5-5-5-5-5-5--7--7-7-7-7-7-7-|
E|-----------------5--5-5-----5--3--3-3-3-3-3-3--5--5-5-5-5-5-5-|


Verse:
 Guitar 1
E|-------|
B|-------|
G|-7-7---|
D|-7-7---| (x4)
A|-5-5---|
E|-------|

 Guitar 2
   Palm Muted
  1st & 3rd time       2nd & 4th time
E|------------------|------------------|
B|------------------|------------------|
G|-7----------------|-7----------------|
D|-7-(x16)--7-------|-7-(x16)-5------7-|
A|-5--------7-(x16)-|-5-------5-(x8)-7-|
E|----------5-------|---------3------5-|
   *        *         *       *      *


Pre-Chorus:
 Guitar 1
                                             On 2nd time cont.
                                          Strumming till the chorus
E|------------------------------------------|----------------|
B|------------------------------------------|----------------|
G|-4--4--4-4-4------------------7--7--7-7-7-|----------------|
D|-4--4--4-4-4--5--5-5-5-5-5-5--7--7--7-7-7-|-7--7-7-7-7-7-7-|x2
A|-2--2--2-2-2--5--5-5-5-5-5-5--5--5--5-5-5-|-7--7-7-7-7-7-7-|
E|--------------3--3-3-3-3-3-3--------------|-5--5-5-5-5-5-5-|

Guitar 2
                                              On 2nd time cont.
                                          Strumming till the chorus
E|------------------------------------------|----------------|
B|------------------------------------------|----------------|
G|------------------------------7--7--7-7-7-|----------------|
D|-9--9--9-9-9--5--5-5-5-5-5-5--7--7--7-7-7-|-7--7-7-7-7-7-7-|x2
A|-9--9--9-9-9--5--5-5-5-5-5-5--5--5--5-5-5-|-7--7-7-7-7-7-7-|
E|-7--7--7-7-7--3--3-3-3-3-3-3--------------|-5--5-5-5-5-5-5-|


Chorus:
 Guitar 1
E|--------------------------------------------------------------|
B|--------------------------------------------------------------|
G|-7--7-7-7-7-7-7----------7------------------------------------|
D|-7--7-7-7-7-7-7--7--7-7--7--7--5--5-5-5-5-5-5--7--7-7-7-7-7-7-|x4
A|-5--5-5-5-5-5-5--7--7-7--5--7--5--5-5-5-5-5-5--7--7-7-7-7-7-7-|
E|-----------------5--5-5-----5--3--3-3-3-3-3-3--5--5-5-5-5-5-5-|
                                                                             Guitar 2
E|--------------------------------------------------------------|
B|--------------------------------------------------------------|
G|-7--7-7-7-7-7-7----------7------------------------------------|
D|-7--7-7-7-7-7-7--7--7-7--7--7--5--5-5-5-5-5-5--7--7-7-7-7-7-7-|x4
A|-5--5-5-5-5-5-5--7--7-7--5--7--5--5-5-5-5-5-5--7--7-7-7-7-7-7-|
E|-----------------5--5-5-----5--3--3-3-3-3-3-3--5--5-5-5-5-5-5-|


Bridge Pt.1:
 Guitar 1
E|-------------------------------|---------------------------------|--------|
B|-------------------------------|---------------------------------|--------|
G|--11-11-12-14-14-12-11-11-9-11-|-11-11-12-14-14-14-14----------9-|--11-11-|
D|--0--0--0--0--0--0--0--0--0-0--|-0--0--0--0--0--0--0--11-11-12-0-|--0--0--|
A|-------------------------------|----------------------0--0--0----|--------|
E|-------------------------------|---------------------------------|--------|

E|------------------------|-------------------|
B|------------------------|-------------------|
G|-12-14-14-14-0--0--0--0-|-------------------|
D|-0--0--0--0--12-12-11-9-|-11-11-12-14-12-11-|
A|------------------------|-0--0--0--0--0--0--|
E|------------------------|-------------------|


Bridge Pt.2:
 Guitar 1
E|-2--2-2-2-2-2-2----------2-----3--3-3-3-3-3-3-----------------|
B|-3--3-3-3-3-3-3----------3-----3--3-3-3-3-3-3-----------------|
G|-2--2-2-2-2-2-2--2--2-2--2--2--0--0-0-0-0-0-0--2--2-2-2-2-2-2-|
D|-0--0-0-0-0-0-0--2--2-2--0--2--0--0-0-0-0-0-0--2--2-2-2-2-2-2-|x4
A|-----------------0--0-0-----0--2--2-2-2-2-2-2--0--0-0-0-0-0-0-|
E|-------------------------------3--3-3-3-3-3-3-----------------|
                                                                             Guitar 2
E|--------------------------------------------------------------|
B|--------------------------------------------------------------|
G|-7--7-7-7-7-7-7----------7------------------------------------|
D|-7--7-7-7-7-7-7--7--7-7--7--7--5--5-5-5-5-5-5--7--7-7-7-7-7-7-|x4
A|-5--5-5-5-5-5-5--7--7-7--5--7--5--5-5-5-5-5-5--7--7-7-7-7-7-7-|
E|-----------------5--5-5-----5--3--3-3-3-3-3-3--5--5-5-5-5-5-5-|


Bridge Pt.3
 Guitar 1
E|-----------------------------|
B|-----------------------------|
G|-11-----19-----11-----9------|
D|-x-(x8)-x-(x8)-x-(x8)-x-(x8)-|
A|-9------17-----9------7------|
E|-----------------------------|


Chorus:
 Guitar 1
E|--------------------------------------------------------------|
B|--------------------------------------------------------------|
G|-7--7-7-7-7-7-7----------7------------------------------------|
D|-7--7-7-7-7-7-7--7--7-7--7--7--5--5-5-5-5-5-5--7--7-7-7-7-7-7-|x4
A|-5--5-5-5-5-5-5--7--7-7--5--7--5--5-5-5-5-5-5--7--7-7-7-7-7-7-|
E|-----------------5--5-5-----5--3--3-3-3-3-3-3--5--5-5-5-5-5-5-|
                                                                             Guitar 2
E|--------------------------------------------------------------|
B|--------------------------------------------------------------|
G|-7--7-7-7-7-7-7----------7------------------------------------|
D|-7--7-7-7-7-7-7--7--7-7--7--7--5--5-5-5-5-5-5--7--7-7-7-7-7-7-|x4
A|-5--5-5-5-5-5-5--7--7-7--5--7--5--5-5-5-5-5-5--7--7-7-7-7-7-7-|
E|-----------------5--5-5-----5--3--3-3-3-3-3-3--5--5-5-5-5-5-5-|


Outro Pt.1:
 Guitar 1
E|-------------------------------|---------------------------------|--------|
B|-------------------------------|---------------------------------|--------|
G|--11-11-12-14-14-12-11-11-9-11-|-11-11-12-14-14-14-14----------9-|--11-11-|
D|--0--0--0--0--0--0--0--0--0-0--|-0--0--0--0--0--0--0--11-11-12-0-|--0--0--|
A|-------------------------------|----------------------0--0--0----|--------|
E|-------------------------------|---------------------------------|--------|

E|------------------------|-------------------|
B|------------------------|-------------------|
G|-12-14-14-14-0--0--0--0-|-------------------|
D|-0--0--0--0--12-12-11-9-|-11-11-12-14-12-11-|
A|------------------------|-0--0--0--0--0--0--|
E|------------------------|-------------------|

Outro Pt.2:
 Guitar 1
 Play continuously till music stops
E|---|
B|---|
G|-7-|
D|-7-|
A|-5-|
E|---|

 Guitar 2
 Play continuously till music stops
E|---|
B|---|
G|-7-|
D|-7-|
A|-5-|
E|---|

Carpe diem

INTRO
e|-----------------------------------------------------------------------------|
B|-----------------------------------------------------------------------------|
G|-6-6-6-6-6-6------6--6-6-6-6-6-6-----6---------------------------6-----------|
D|-6-6-6-6-6-6--4-6-6--6-6-6-6-6-6-6-6-6-PLAY THIS TWICE THAN THIS-4-6-6-------|
A|-4-4-4-4-4-4--4-6-4--4-4-4-4-4-4-6-6-4---------------------------4-6-4-------|
E|--------------2-4----------------4-4-------------------------------2-4-------|
VERSE
e|-----------------------------------------------------------------------------|
B|-----------------------------------------------------------------------------|
G|---6----6----6--6---------------------4-----4--------------------------------|
D|-6-6--6-6--6-6--6-6-6~~~--------------4-4-4-4-4-4~~~-4-4-4-4-4-4-4-4-4-------|
A|-6-4--6-4--6-4--4-6-6~~~-X4 THAN THIS-6-4-4-6-4-4~~~-4-4-4-4-4-4-4-4-4-------|
E|-4----4----4------4-4-------------------6-6---6-6~~~-6-6-6-6-6-6-6-6-6-------|
CHORUS 
e|-----------------------------------------------------------------------------|
B|-----------------------------------------------------------------------------|
G|-6-6-6-6-6-6-----6--6-6-6-6-6-6-----6----------------------------------------|
D|-6-6-6-6-6-6-4-6-6--6-6-6-6-6-6-6-6-6-[X2}-4-4-4-4-4-4-4-4-6-6-6-6-6-6-6-6---|
A|-4-4-4-4-4-4-4-6-4--4-4-4-4-4-4-6-6-4------4-4-4-4-4-4-4-4-6-6-6-6-6-6-6-6-X3|
E|-------------2-4----------------4-2--------2-2-2-2-2-2-2-2-4-4-4-4-4-4-4-4---|

e|--------------------------|
B|--------------------------|
G|--------------------------|
D|-6-6---6-6---6-6---6-6----|
A|-6-6---6-6---6-6---6-6----|
E|-4-4---4-4---4-4---4-4----|

VERSE
e|-----------------------------------------------------------------------------|
B|-----------------------------------------------------------------------------|
G|---6----6----6--6------------------------4-----4-----------------------------|
D|-6-6--6-6--6-6--6-6-6~~~-----------------4-4-4-4-4-4~~~-4-4-4-4-4-4-4-4-4----|
A|-6-4--6-4--6-4--4-6-6~~~-X4 THAN THIS----6-4-4-6-4-4~~~-4-4-4-4-4-4-4-4-4----|
E|-4----4----4------4-4----------------------6-6---6-6~~~-6-6-6-6-6-6-6-6-6----|

CHORUS 
e|-----------------------------------------------------------------------------|
B|-----------------------------------------------------------------------------|
G|-6-6-6-6-6-6-----6--6-6-6-6-6-6-----6----------------------------------------|
D|-6-6-6-6-6-6-4-6-6--6-6-6-6-6-6-6-4-6-[X2}-4-4-4-4-4-4-4-4-6-6-6-6-6-6-6-6---|
A|-4-4-4-4-4-4-4-6-4--4-4-4-4-4-4-6-4-4------4-4-4-4-4-4-4-4-6-6-6-6-6-6-6-6-X3|
E|-------------2-4----------------4-2--------2-2-2-2-2-2-2-2-4-4-4-4-4-4-4-4---|

e|--------------------------|
B|--------------------------|
G|--------------------------|
D|-6-6---6-6---6-6---6-6----|
A|-6-6---6-6---6-6---6-6----|
E|-4-4---4-4---4-4---4-4----|

SOLO
e|----------------------------------------------------------------------------|
B|----9----9----9---9---9---9---13b--------------------------------11b-11b-13b-|
G|-11b--11b--11b----11b-11b-11b----11b-11b-11b-11b-10----11b-11b-11b------|
D|---------------------------------------------------11--------------------|
A|-----------------------------------------------------------------------------|
E|-----------------------------------------------------------------------------|



e|-----------------------------|
B|-----------------------------|
G|-11b-11b-11b-11b-10----------|
D|--------------------11~~~----|
A------------------------------|
E|-----------------------------|

VERSE
e|----------------------------------------------------------|
B|----------------------------------------------------------|
G|----------------------------------------------------------|
D|-4-4-4-4-4-4-4-4-6-6-6-6-6-6-6-6-------6-6--6-6--6-6--6-6-|
A|-4-4-4-4-4-4-4-4-6-6-6-6-6-6-6-6-[x3]--6-6--6-6--6-6--6-6-|
E|-2-2-2-2-2-2-2-2-4-4-4-4-4-4-4-4-------4-4--4-4--4-4--4-4-|
   * * * * * * * * * * * * * * * *
e|----------------------------------------------------------------------------|
B|-----------------------------------------------------------------------------|
G|-6-6-6-6-6-6-----6-6-6-6-6-6-6-----6-6~~~--6-6-6-6-6-6-6-6-6-6-6-6-----6-|
D|-6-6-6-6-6-6-4-6-6-6-6-6-6-6-6-6-4-6-6~~~6-6-6-6-6-6-4-6-6-6-6-6-6-6-6-4-6-6-|
A|-4-4-4-4-4-4-4-6-4-4-4-4-4-4-4-6-4-4-4~~~4-4-4-4-4-4-4-6-4-4-4-4-4-4-4-4-6-4-|
E|-------------2-4---------------4-2-------------------2-4--------------2-4---|

OUTRO
e|---------------------------------------------------------------------------|
B|----------------------------------------------------------------------------|
G|-6-6-6-6-6-6-----6-6-6-6-6-6-6-----4----6-6-6-6-6-6-----6--6-6-6-6-6-6-----6-|
D|-6-6-6-6-6-6-4-6-6-6-6-6-6-6-6-6-4-4-X3-6-6-6-6-6-6-4-6-6--6-6-6-6-6-6-6-4-6-|
A|-4-4-4-4-4-4-4-6-4-4-4-4-4-4-4-6-4-6----4-4-4-4-4-4-4-6-4--4-4-4-4-4-4-6-4-4-|
E|-------------2-4---------------4-2------------------2-4----------------4-2---|

Let yourself go
Intro/Verses:

e|-------------------------------------|
B|-------------------------------------|
G|---7---------------------------------| 
D|-5-7-7--7-7-7-7-7-7-7-7-7-7-7-7-7-7--| X5 (Last time end on A power chord)
A|-3-5-7--x-x-x-x-x-x-x-x-x-x-x-x-x-x--|
E|-3---5--5-5-5-5-5-5-5-5-5-5-5-5-5-5--|


Chorus:

e|---------------------------------------------|
B|---------------------------------------------|
G|-7--7--7-7-7-7-------------------------------| 
D|-7--7--7-7-7-7-5--5--5-5-5-5--7--7--7-7-7-7--| X4
A|-5--5--5-5-5-5-5--5--5-5-5-5--7--7--7-7-7-7--|
E|---------------3--3--3-3-3-3--5--5--5-5-5-5--|

Post Chorus(Gotta let me go, gotta let it go)

e|-------------------------------------|
B|-------------------------------------|
G|-------------------------------------| 
D|-5-6-7--x-x-x-x-x-x-x-x-x-x-x-x-x-x--| X2
A|-5-6-7--x-x-x-x-x-x-x-x-x-x-x-x-x-x--|
E|-3-4-5--x-x-x-x-x-x-x-x-x-x-x-x-x-x--|

Solo(Part 1):

e|----------------------------|
B|----------------------------|
G|-7--12--9-7-6----7--12--14--| 
D|-x--x---x-x-x----x--x---x---|Figure out strumming yourself :P 
A|-5--10--7-5-4----5--10--12--|
E|----------------------------|

Solo (Part 2):

e|-----------------------10-10-----10-10-----10-10-----10-10-----10-10------|
B|-----------------------10-10-----10-10-----10-10-----10-10-----10-10------|
G|-10-10h12p10----10h12b-------12^-------12^-------12^-------12^-------12^--| 
D|-------------12-----------------------------------------------------------|
A|--------------------------------------------------------------------------|
E|--------------------------------------------------------------------------|

e|------------------------------------------------------10-----10-----------|
B|-------------------13b-13b-13b-13b-13br10-------------10-----10-----------|
G|-12br-10h12p10-----------------------------12br----------12^----12^-------| 
D|---------------12-------------------------------14p12---------------------|
A|--------------------------------------------------------------------------|
E|--------------------------------------------------------------------------|

e|-10-10-----10-10-----10----------------------------------|
B|-10-10-----10-10-----10--10--10--10---14-14-14-----------|
G|-------12^-------12^-----12b-12b-12b--16-16-16br-16p14v--| 
D|---------------------------------------------------------|
A|---------------------------------------------------------|
E|---------------------------------------------------------|

Post Solo(interlude bit/"******* with my head now")

e|---------------------------------|
B|---------------------------------|
G|----*-*-*-*-*-*-*-*-*-*-*-*-*-*--| 
D|-7--7-7-7-7-7-7-7-7-7-7-7-7-7-7--| 
A|-7--7-7-7-7-7-7-7-7-7-7-7-7-7-7--|
E|-5--5-5-5-5-5-5-5-5-5-5-5-5-5-5--|

Kill the DJ
Intro:
|------------------------------|
|------------------------------|
|------------------------------|
|------------------------------|
|------------------------------|
|--5--5--5--5--5--5--5--5-5-3--|

|----5-------------10--x-x-----------|
|----5-------------10--x-x-----------|
|----5-------------10--x-x-----------|
|--7-----7-7----12-----x-x-----------| x2
|--7-----7-7----12-----x-x-----------|
|--5-----5-5----10-----x-x--3-3-3-4--|

Verse:
|----5-------------10--x-x-----------|
|----5-------------10--x-x-----------|
|----5-------------10--x-x-----------|
|--7-----7-7----12-----x-x-----------| x4
|--7-----7-7----12-----x-x-----------|
|--5-----5-5----10-----x-x--3-3-3-4--|

|----7----7----5----------|
|----8----8----6----------|
|--9-9--9-9--7-7--775-7-5-|
|--9----9----7------------| repeat until the D chord.
|--7----7----5------------|
|-------------------------|

Chorus:
|--x-5--x-5--x-5--x-5--x-7--x-7--x----x----|
|--x-5--x-5--x-5--x-5--x-7--x-7--x-3--x-3--|
|--x-5--x-5--x-5--x-5--x-7--x-7--x-4--x-4--|
|--------------------------------x-5--x-5--| x3
|------------------------------------------|
|------------------------------------------|

|------------------------------|
|------------------------------|
|------------------------------|
|------------------------------|
|------------------------------|
|--5--5--5--5--5--5--5--5-5-3--|

|----------------3-3--5-5------------------------------------------|
|--10-10---------3-3--5-5--10-10-----------------------------------|
|--10-10---9--9--4-4--5-5--10-10--9--9-----------------------------|
|--10-10--10-10--5-5--7-7--10-10--10-10----------------------------|
|---8--8--10-10--5-5--7-7---8--8--10-10----------------------------|
|----------8--8--3-3--5-5---------8--8---0--0--0--0--0--0-0-3--5~--|

Bridge:
|------------------------|
|------------------------|
|------------------------|
|------------------------| x2
|------------------------|
|--55557777888812121212--|
   ............ . . . .

|----------------------------|
|----------------------------|
|----------------------------|
|--777799991010101014141414--| x2 (Sorry, this part is sort of
|----------------------------|      confusing to read.)
|--55557777-8-8-8-812121212--|
   .......... . . . . . . .

|-------------|
|-------------|
|-------------|
|-------------|
|-------------|
|--5---5-5-3--|



Solo:
|--5b~--55--5/7-7-7--xx-----------17-17-17-17--|
|--5b~--55--5/7-7-7--xx-----------17-17-17-17--|
|--5b~--55--5/7-7-7--xx--775-7-5--17-17-17-17--|
|----------------------------------------------|
|----------------------------------------------|
|----------------------------------------------|

|--5-5--5b-------------5-5-5-5----------------------17-17-17-17--|
|--5-5--5b----8--------5-5-5-5-------7--------------17-17-17-17--|
|--5-5--5b-7b---7b--5--5-5-5-5--5-5--7--7-7-5--7--5-17-17-17-17--|
|----------------------------------------------------------------|
|----------------------------------------------------------------|
|----------------------------------------------------------------|

|--5--5-5--7-----------------------------------------------------|
|--5--5-5--7----------------6--5--------6--5---------------------|
|--5--5-5--7--5----5-5b--5--5--5--4--5--5--5---------------------|
|---------------7-----------------5--7---------------------------|
|----------------------------------------------------------------|
|----------------------------------------------0-0-000-0--0-0-3--|

Last note:
|--5~--|
|--5~--|
|--5~--|
|--7~--|
|--7~--|
|--5~--|

Fell for you
Intro:          Verse 1:
    |2x********|
|---------------|------------|-------------|------------|
|-9--5-55-------|-7-9-7-9-7-9|-7-9-7-9-7-9-|7-9-7-9-----|
|-9--7b76-11/13-|-7-9-7-9-7-9|-7-967-967-96|7-967-9-----|
|-9-------12/14-|-7-9-7-9-7-9|-7-977-977-97|7-977-9-----|
|-7-------------|-5-7-5-7-5-7|-5-775-775-77|5-775-7-----|
|---------------|------------|----5---5---5|---5--0-----|

 Chorus:
              |2x*******|
|------------|------------|-------------|------------|
|---7-9---7-9|-----2-320--|--------109--|------------|
|-6-7-9-6-7-9|-----2-222--|-7767-999-9-7|7-99--6-----|
|-7-7-9-7-7-9|-4-2-2-222--|-7777-999-9-7|7-99--7-----|
|-7-5-7-7-5-7|-4-2-0-000--|-5545-777-7-5|5-77--7-----|
|-5-----5----|-2-0--------|-------------|------5-----|
                             ...  .      . .

 Verse 2:
|------------|-------------|------------|
|-7-9-7-9-7-9|-7-9-7-9-7-9-|7-9-7-9-----|
|-7-9-7-9-7-9|-7-967-967-96|7-967-9-----|
|-7-9-7-9-7-9|-7-977-977-97|7-977-9-----|
|-5-7-5-7-5-7|-5-775-775-77|5-775-7-----|
|------------|----5---5---5|---5--0-----|

 


Chorus:
              |2x*******|
|------------|------------|-------------|------------|
|---7-9---7-9|-----2-320--|-7~-9~-109-77|-9\--9------|
|-6-7-9-6-7-9|-----2-222--|-7~-9~-9-9-77|-9\--9------|
|-7-7-9-7-7-9|-4-2-2-222--|-7~-9~-9-9-77|-9\--9------|
|-7-5-7-7-5-7|-4-2-0-000--|-5~-7~-7-7-55|-7\--7------|
|-5-----5----|-2-0--------|-------------|------------|
                                       .

Chorus/Outro:
    |2x********|
|---------------|------------|-------------|
|----5-55-------|------------|---9---------|
|----7b76-11/13-|-11/13-11/13|-6-9-6~------|
|---------12/14-|-12/14-12/14|-7-9-7~------|
|---------------|------------|-7-7-7~------|
|---------------|------------|-5-0-5~------|

Loss of control
Intro:
|------------|------------|------------|------------|
|------------|------------|------------|------------|
|-------642--|----642-----|------------|------------|
|-2~-2~-642-6|42--642-642-|------------|------------|
|-2~-2~-420-6|42--420-642-|------------|------------|
|-0~-0~-----4|20------420-|------------|------------|

 Verse 1:
|------------|------------|------------|------------|
|------9-----|9-9-9-109---|-9----------|------------|
|-6422-99-22-|9999999-9-22|-999-22-999-|------------|
|-6422-99-22-|9999999-9-22|-999-22-999-|------------|
|-4200-77-00-|7777777-7-00|-777-00-777-|------------|
|------------|------------|------------|------------|
     .  .  .   . . .     .   .   .  .

 Pre-Chorus:  Chorus:
|------------|------------|------------|------------|
|------------|------------|------------|------------|
|------------|-7--7---7--7|-9----------|------------|
|-245-2-245-2|-7-777-777-7|-9----------|------------|
|-245-2-245-2|-5-757-757-5|-7----------|------------|
|-023-0-023-0|---5-5-5-5--|-0----------|------------|

 Chorus:                    Verse 2:
|------------|-------------|------------|------------|
|-----2-2----|----2-2------|----9-9-9-99|----9-------|
|-642-4b424~-|642-4b424~---|-22-99999999|-22-999-22--|
|-642--------|642----------|-22-99999999|-22-999-22--|
|-420--------|420-------14\|-00-77777777|-00-777-00--|
|------------|-------------|------------|------------|
                              .  . . .     .  .   .

|------------|------------|------------|------------|
|-9-9-9-109--|------------|------------|------------|
|-9999999-9-2|2-999-------|------------|------------|
|-9999999-9-2|2-999-------|------------|------------|
|-7777777-7-0|0-777-------|------------|------------|
|------------|------------|------------|------------|
   . . .      .  .

 Pre-Chorus:  Chorus:
|------------|------------|------------|------------|
|------------|------------|------------|------------|
|------------|-7--7---7--7|-9----------|------------|
|-245-2-245-2|-7-777-777-7|-9----------|------------|
|-245-2-245-2|-5-757-757-5|-7----------|------------|
|-023-0-023-0|---5-5-5-5--|-0----------|------------|

 Solo:
|------------|------------|------------|------------|
|-----2-2----|--------2-2-|----17--17--|17----------|
|-642-4b424~4|421-642-4b42|4~14--14--14|------------|
|-642--------|----642-----|------------|------------|
|-420--------|----420-----|------------|------------|
|------------|------------|------------|------------|

|------------|-5--5-5-----|--5---------|----12-12-12---------|
|------------|5-5-5-5--7b7|5-5---------|----12-12-12---------|
|-5h7p5-5h-7b|----7b7b----|7b7b-14p12--|12h-14b~~-14---12----|
|------7-----|------------|----------14|-------------141414--|
|------------|------------|------------|---------------------|
|------------|------------|------------|---------------------|

                                 Pre-Chorus:
|55--55--5---|------------|------------|------------|
|55--55--5-8b|8b8b5-5-----|------------|------------|
|--7b--7b----|------7b-13-|14-16~------|--7---------|
|------------|---------14-|15-17~2-245-|2-7---------|
|------------|------------|------2-245-|2-5---------|
|------------|------------|------0-023-|0-----------|

 Chorus:
|------------|------------|------------|------------|
|------------|-----2-2----|----2-2-----|---22-------|
|--7---7--7-9|-642-4b424~-|642-4b424~44|44---42-----|
|-777-777-7-9|-642--------|642---------|------------|
|-757-757-5-7|-420--------|420---------|------------|
|-5-5-5-5---0|------------|------------|------------|

Troublemaker
 Intro: Verse 1:           Chorus:
        |10x*************| 
|---xxx------|------------|------------|------------|
|---xxx------|------------|------------|------------|
|---xxx------|-899-----7--|------------|------------|
|(9)xxx-77899|-899-677-77-|724~-7724~-7|724~-7724~--|
|(9)xxx-77899|-677-677-57-|724~-7724~-7|724~-7724~--|
|(7)xxx-55677|-----455--5-|502~-5502~-5|502~-5502~--|

 Verse 2:           Chorus:
  |8x**************|
|------------|------------|------------|------------|
|------------|------------|------------|------------|
|-------899--|---7--------|------------|------------|
|-77899-899-6|77-77-724~-7|724~-7724~-7|724~--------|
|-77899-677-6|77-57-724~-7|724~-7724~-7|724~--------|
|-55677-----4|55--5-502~-5|502~-5502~-5|502~--------|

 

Solo:
|------------|------------|------------|---------14-|
|------------|------------|------------|-------14---|
|-/8~-9~9/11~|-13~13/14~--|14b\8~-13h14|--14-16-----|
|------------|------------|------------|16----------|
|------------|------------|------------|------------|
|------------|------------|------------|------------|

|-12-13b13b13|b~-13b12----|------------|---14-------|
|------------|--------14--|----------14|14~--14-12--|
|------------|----------16|14h16p14----|----------14|
|------------|------------|--------16--|------------|
|------------|------------|------------|------------|
|------------|------------|------------|------------|

|------------|------------|------------|------------|
|14h17p14----|14h17p14----|14h17p14----|14h17p14----|
|--------1717|--------1717|--------1717|--------1717|
|------------|------------|------------|------------|
|------------|------------|------------|------------|
|------------|------------|------------|------------|

|------------|------------|------------|------------|
|14h17p14----|14---10~----|------------|------------|
|--------1717|--17-12b~---|------------|------------|
|------------|------------|------------|------------|
|------------|------------|------------|------------|
|------------|------------|------------|------------|

 Bridge: 
|-----x-----x|-----x------|------------|------------|
|-----x-----x|-----x------|------------|------------|
|-----x-----x|-----x------|------------|------------|
|-7789x-7789x|-7789x-7789-|9-----------|------------|
|-7789x-7789x|-7789x-7789-|9-----------|------------|
|-5567x-5567x|-5567x-5567-|7-----------|------------|

 Outro:
  |8x**************|
|------------|------------|------------|------------|
|------------|------------|------------|------------|
|-------899--|---7--------|------------|------------|
|-77899-899-6|77-77-------|7789\-------|------------|
|-77899-677-6|77-57-------|7789\-------|------------|
|-55677-----4|55--5-------|5567\-------|------------|

Angel Blue
Intro:
|------------|------------|------------|-----------|
|------------|-------11---|7-777-7-77--|7-777--1112|
|---9-----9--|---9---11---|9b989b9b98--|9b989b-1111|
|-9~9-9-9~9-9|-9~9-9-11---|----------99|-----------|
|-9~7-9-9~7-9|-9~7-9-9----|------------|-----------|
|-7~--7-7~--7|-7~--7------|------------|-----------|

              Verse 1:                 Pre-Chorus:
|------------|-------------|-------------|-------------|
|1112111211\-|-------------|-------------|-------------|
|1111111111\-|---9--9-11---|-9--9-11---98|----98--11---|
|------------|-9-99-9-119-9|-99-9-119--98|984-9898114--|
|------------|-9-79-7-9-9-9|-79-7-9-9--76|984-76989-4--|
|------------|-7--7-----7-7|--7-----7----|762---76--2--|

 Chorus:
|--------------|-------------|------------|------------|
|--------------|-------------|------------|------------|
|-9-11-9-11-9-1|1-9-11-------|------------|------------|
|-9911-9911-991|1-9911-------|------------|------------|
|-799--799--799|--799--------|------------|------------|
|--7----7----7-|---7---------|------------|------------|
 
 Bridge:
|------------|-----------|-------------|
|7-777-7-77--|7-777--1112|1112111211\--|
|9b989b9b98--|9b989b-1111|1111111111\--|
|----------99|-----------|-------------|
|------------|-----------|-------------|
|------------|-----------|-------------|

 Verse 2:                 Pre-Chorus:
|-------------|-------------|-------------|
|-------------|-------------|-------------|
|---9--9-11---|-9--9-11---98|----98--11---|
|-9-99-9-119-9|-99-9-119--98|984-9898114--|
|-9-79-7-9-9-9|-79-7-9-9--76|984-76989-4--|
|-7--7-----7-7|--7-----7----|762---76--2--|

 Chorus:                Solo:
|--------------|--------------|------------|------------|
|--------------|--------/12--1|2--12--12--1|2-----12--12|
|-9-11-9-11-9-1|1-9-11-----11-|-11--11--11-|-11---------|
|-9911-9911-991|1-9911--------|------------|----14--14--|
|-799--799--799|--799---------|------------|------------|
|--7----7----7-|---7----------|------------|------------|

|------------|------------|------------|---------------|
|-----12--12-|--/12--12--1|2--12--12---|14b14b14b1412~\|
|------------|-----11--11-|-11--11--11-|---------------|
|14-13--13--1|3-----------|------------|---------------|
|------------|------------|------------|---------------|
|------------|------------|------------|---------------|

 Bridge:
|------------|------------|------------|------------|
|------------|------------|------------|------------|
|-------9----|9-----------|------------|------------|
|-762-9-99-9-|99--762-44--|------------|------------|
|-762-9-79-9-|79--762-44--|------------|------------|
|-540-7--7-7-|-7--540-22--|------------|------------|
                       .
 
 Verse 3:
|-------------|-------------|-------------|------------|
|-------------|-------------|-------------|------------|
|---9--9-11---|-9--9-11-----|9--9-11----9-|-9----------|
|-9-99-9-119-9|-99-9-119--9-|99-9-119-9-99|-9----------|
|-9-79-7-9-9-9|-79-7-9-9--9-|79-7-9-9-9-79|-7----------|
|-7--7-----7-7|--7-----7--7-|-7-----7-7--7|------------|

 Pre-Chorus:    Chorus:
|------------|--------------|-------------|------------|
|------------|--------------|-------------|------------|
|-98----98---|--9-11-9-11-9-|11-9-11------|------------|
|-98984-98984|--9911-9911-99|11-9911------|------------|
|-76984-76984|--799--799--79|9--799-------|------------|
|---762---762|---7----7----7|----7--------|------------|

 Outro:
|------------|-----------|-------------|
|7-777-7-77--|7-777-7-77-|-------------|
|9b989b9b98--|9b989b9b98-|-------------|
|----------99|----------9|\------------|
|------------|-----------|-------------|
|------------|-----------|-------------|

Sweet 16
Intro:
---3-----2--|----0--0-------------|
---3-----3--|----1--1-----1-------|
---0-----2--|----0--0--0--0-------|
---0-----0--|----2--0--0--0-------|
---2-------------3--2--0--2-------|
---3----------------------3-------|
   |x6|  |x1|

Verse 1:
---3~---2~---0~---2~-----|---2-2----|
---3~---3~---1~---3~-----|---3-3----|
---0~---4~---2~---2~-----|---2-2----|
---0~---4~---2~---0~-----|---0-0----|
---2~---2~---0~----------|----------|
---3~------------------x2|----------|
Bring me back to an hour ago
Time stands still as the years go by

------3-----2-----0-----2---|
------3-----3-----1--3--3---|
------0--4--4--2--2--2--2---|
---0--0--4--4--2--2--0--0---|
---2--2--2--2--0--0--0------|
---3--3---------------------|x2
Brown eyed girl that's throwing down a bottle of Old English
Back in the warehouse

Chorus:
---0--3--2--3--0--2--3--0--3--|
---1--3--3--3--1--3--3--1--3--|
---0--0--4--0--0--2--0--0--0--|
---2--0--4--0--2--0--0--2--0--|
---3--2--2--2--3-----2--3--2--|
------3-----3--------3-----3--|
Old days are fine but are left so far behind
From California to Jane Street

---0--3--2--0-|-2-2-|--0--2--0--2--0--2------|
---1--3--3--1-|-3-3-|--1--3--1--3--1--3------|
---0--0--4--0-|-2-2-|--0--2--0--2--0--2------|
---2--0--4--2-|-0-0-|--2--0--2--0--2--0------|
---3--2--2--3-|-----|--3-----3-----3---------|
------3-------|-----|------------------------|
Kids alright, alright as they'll ever be
'Cause you will always be my
Well you will always by my
You will always be my sweet sixteen



---3-----2--|----0--0----------------|
---3-----3--|----1--1-----1----------|
---0-----2--|----0--0--0--0----------|
---0-----0--|----2--0--0--0----------|
---2-------------3--2--0--2----------|
---3----------------------3----------|
   |x6|     |x1|

Verse 2 :
---3~---2~---0~---2~-----|---2-2----|
---3~---3~---1~---3~-----|---3-3----|
---0~---4~---2~---2~-----|---2-2----|
---0~---4~---2~---0~-----|---0-0----|
---2~---2~---0~----------|----------|
---3~------------------x2|----------|
Sleep on the floor on cardboard
Stab out my heart like a dartboard

------3-----2-----0-----2---------|
------3-----3-----1--3--3---------|
------0--4--4--2--2--2--2---------|
---0--0--4--4--2--2--0--0---------|
---2--2--2--2--0--0--0------------|
---3--3---------------------------|x2
Brown-skinned girl, I had a dream about a long, long time now
From the Midwest to the beach

Chorus:
---0--3--2--3--0--2--3--0--3----|
---1--3--3--3--1--3--3--1--3----|
---0--0--4--0--0--2--0--0--0----|
---2--0--4--0--2--0--0--2--0----|
---3--2--2--2--3-----2--3--2----|
------3-----3--------3-----3----|
Old days are fine but are left so far behind
From California to Jane Street

---0--3--2--0-|-2-2-|--0--2--0--2--0--2------|
---1--3--3--1-|-3-3-|--1--3--1--3--1--3------|
---0--0--4--0-|-2-2-|--0--2--0--2--0--2------|
---2--0--4--2-|-0-0-|--2--0--2--0--2--0------|
---3--2--2--3-|-----|--3-----3-----3---------|
------3-------|-----|------------------------|
Kids alright, alright as they'll ever be
'Cause you will always be my
Well you will always by my
You will always be my sweet sixteen

---3-----2--|----0--0----------------|
---3-----3--|----1--1-----1----------|
---0-----2--|----0--0--0--0----------|
---0-----0--|----2--0--0--0----------|
---2-------------3--2--0--2----------|
---3----------------------3----------|
   |x6|   |x1|

Solo:
------------------------------------------------------------------------------|
---3/8~8-7-3~-3/1-1-0-1-1/3~--3/8~8-7-3~-3/1-1-0-1-1/3~-----------------------|
------------------------------------------------------------------------------|
------------------------------------------------------------------------------|
------------------------------------------------------------------------------|
------------------------------------------------------------------------------|

-----7---7---------------------------7-7-7--5-5--7-7-8-8-8--10----10------|
-3/8~8---8-7-3~-3/1-1-0-1-1/3~--3/8~8-8-8--8-8--8-8-8-8-8--7--7-7---------|
--------------------------------------------------------------------------|
--------------------------------------------------------------------------|
--------------------------------------------------------------------------|
--------------------------------------------------------------------------|

Chorus:
---0--3--2--3--0--2--3--0--3----|
---1--3--3--3--1--3--3--1--3----|
---0--0--4--0--0--2--0--0--0----|
---2--0--4--0--2--0--0--2--0----|
---3--2--2--2--3-----2--3--2----|
------3-----3--------3-----3----|
Old days are fine but are left so far behind
From California to Jane Street

---0--3--2--0-|-2-2-|--0--2--0--2--0--2----|
---1--3--3--1-|-3-3-|--1--3--1--3--1--3----|
---0--0--4--0-|-2-2-|--0--2--0--2--0--2----|
---2--0--4--2-|-0-0-|--2--0--2--0--2--0----|
---3--2--2--3-|-----|--3-----3-----3-------|
------3-------|-----|----------------------|
Kids alright, alright as they'll ever be
'Cause you will always be my
Well you will always by my
You will always be my sweet sixteen

Outro:
---3-----2--|----0--0----------3----|
---3-----3--|----1--1-----1----3----|
---0-----2--|----0--0--0--0----0----|
---0-----0--|----2--0--0--0----0----|
---2-------------3--2--0--2----2----|
---3----------------------3----3----|
   |x6|   |x1|

Rusty James
Intro:

|---------------------------------------------------------------------------|
|-------------10101010-9-9--------------------------------------------------|
|-----9-9-9-9--9-9-9-9-9-9-9-9-9-9------------------------------------------|
|-----9-9-9-9--9-9-9-9-9-9-9-9-9-9------------------------------------------| x4
|-----7-7-7-7--7-7-7-7-7-7-7-7-7-7------------------------------------------|
|---------------------------------------------------------------------------|

|---------------------------------------------------------------------------|
|-------------10101010-9-9--------------------------------------------------|
|-----9-9-9-9--9-9-9-9-9-9-9-9-9-9------------------------------------------|
|-----9-9-9-9--9-9-9-9-9-9-9-9-9-9------------------------------------------| x2
|-----7-7-7-7--7-7-7-7-7-7-7-7-7-7------------------------------------------|
|---------------------------------------------------------------------------|


Verse 1 (x2) (Play the first note open and then palm mute the rest):

|---------------------------------------------------------------------------|
|---------------------------------------------------------------------------|
|-----9-99999999-----9-99999999---------------------------------------------|
|-----9-99999999-----9-99999999-----7-77777777-----7-77777777---------------| 
|-----7-77777777-----6-66666666-----7-77777777-----7-77777777---------------|
|-----------------------------------5-55555555-----5-55555555---------------|

|---------------------------------------------------------------------------|
|---------------------------------------------------------------------------|
|-----9-99999999------------------------------------------------------------|
|-----9-99999999-----6-66666666-----7-77777777-----9-99999999---------------| 
|-----7-77777777-----6-66666666-----7-77777777-----9-99999999---------------|
|--------------------4-44444444-----5-55555555-----7-77777777---------------|

This whiskey sour, amateur hour
Raise your glass and toast your friends
Someday we will fight again

Well, your enemies, your tragedies
Pocket knives and rusty chains
Where the hell is the old gang at?


Pre-Chorus:

|---------------------------------------------------------------------------|
|---------------------------------------------------------------------------|
|-----------------------------8888-------8888-------------------------------|
|-----444444-----666666-----777777-----999999-------------------------------|
|-----444444-----666666-----777777-----999999-------------------------------| 
|-----222222-----444444-----555555-----777777-------------------------------|

|---------------------------------------------------------------------------|
|---------------------------------------------------------------------------|
|-----------------------------8888----------88888888------------------------|
|-----444444-----666666-----777777-----9999999999999------------------------|
|-----444444-----666666-----777777-----9999999999999------------------------| 
|-----222222-----444444-----555555-----7777777777777------------------------|

And all the losers, can't even win for losing
And the beginners don't even know what song they're singing


Chorus (x2):

|---------------------------------------------------------------------------|
|---------------------------------------------------------------------------|
|-----999999----------------999999------------------------------------------|
|-----999999-----999999-----999999-----999999-------------------------------|
|-----777777-----999999-----777777-----999999-------------------------------|
|----------------777777----------------777777-------------------------------|

                                                       (End Of Chorus)
|-------------------------------------------------|-------------------------|
|-------------------------------------------------|-------------------------|
|-----666666--------------------------------------|-------------------------|
|-----666666-----666666-----777777-----999999-----|-----9999999999----------| 
|-----444444-----666666-----777777-----999999-----|-----9999999999----------|
|----------------444444-----555555-----777777-----|-----7777777777----------|

When there's no one left around
And you're the last gang in town
And your heart can't even break
When it doesn't even pound

When there's no one left around
And you're the last gang in town
And your heart can't even break
When it doesn't even pound


Post-Chorus:

|---------------------------------------------------------------------------|
|-------------10101010-9-9--------------------------------------------------|
|-----9-9-9-9--9-9-9-9-9-9-9-9-9-9------------------------------------------|
|-----9-9-9-9--9-9-9-9-9-9-9-9-9-9------------------------------------------| x2
|-----7-7-7-7--7-7-7-7-7-7-7-7-7-7------------------------------------------|
|---------------------------------------------------------------------------|


Verse 2 (x2) (Play the first note open and then palm mute the rest):

|---------------------------------------------------------------------------|
|---------------------------------------------------------------------------|
|-----9-99999999-----9-99999999---------------------------------------------|
|-----9-99999999-----9-99999999-----7-77777777-----7-77777777---------------| 
|-----7-77777777-----6-66666666-----7-77777777-----7-77777777---------------|
|-----------------------------------5-55555555-----5-55555555---------------|

|---------------------------------------------------------------------------|
|---------------------------------------------------------------------------|
|-----9-99999999------------------------------------------------------------|
|-----9-99999999-----6-66666666-----7-77777777-----9-99999999---------------| 
|-----7-77777777-----6-66666666-----7-77777777-----9-99999999---------------|
|--------------------4-44444444-----5-55555555-----7-77777777---------------|

This broken scene is turning green
A brass knuckles left in the rain
Death wish kids among the living

I wanna ride on the divided
Anything but the mainstream
Where the fuck is your old gang man?


Pre-Chorus:

|---------------------------------------------------------------------------|
|---------------------------------------------------------------------------|
|-----------------------------8888-------8888-------------------------------|
|-----444444-----666666-----777777-----999999-------------------------------|
|-----444444-----666666-----777777-----999999-------------------------------| 
|-----222222-----444444-----555555-----777777-------------------------------|

|---------------------------------------------------------------------------|
|---------------------------------------------------------------------------|
|-----------------------------8888----------88888888------------------------|
|-----444444-----666666-----777777-----9999999999999------------------------|
|-----444444-----666666-----777777-----9999999999999------------------------| 
|-----222222-----444444-----555555-----7777777777777------------------------|

And all the losers, can't even win for losing
And the beginners don't even know what song they're singing


Chorus (x2):

|---------------------------------------------------------------------------|
|---------------------------------------------------------------------------|
|-----999999----------------999999------------------------------------------|
|-----999999-----999999-----999999-----999999-------------------------------|
|-----777777-----999999-----777777-----999999-------------------------------|
|----------------777777----------------777777-------------------------------|

                                                       (End Of Chorus)
|-------------------------------------------------|-------------------------|
|-------------------------------------------------|-------------------------|
|-----666666--------------------------------------|-------------------------|
|-----666666-----666666-----777777-----999999-----|-----9999999999----------| 
|-----444444-----666666-----777777-----999999-----|-----9999999999----------|
|----------------444444-----555555-----777777-----|-----7777777777----------|

When there's no one left around
And you're the last gang in town
And your heart can't even break
When it doesn't even pound

When there's no one left around
And you're the last gang in town
And your heart can't even break
When it doesn't even pound


Bridge:

|---------------------------------------------------------------------------|
|------------------------1010101099-----------------------------------------|
|----------------------99-9-9-9-9999999-------------------------------------|
|-----7-7777777777-----99-9-9-9-9999999-----7-7777777777-----999999999999---|
|-----7-7777777777-----77-7-7-7-7777777-----7-7777777777-----999999999999---|
|-----5-5555555555--------------------------5-5555555555-----777777777777---|

So long
Didn't even say goodnight
So long
There's no where to go when you're hiding in plain sight


Solo:

Guitar 1:

|---------------------------------------------------------------------------|
|---------------------------------------------------------------------------|
|-----99999999--------------------------------------------------------------|
|-----99999999-----66666666-----77777777-----99999999-----------------------| x2 
|-----77777777-----66666666-----77777777-----99999999-----------------------|
|------------------44444444-----55555555-----77777777-----------------------|

Guitar 2:

|---------------------------------------------------------------------------|
|---------------------------------------------------------------------------|
|---------------------------------------------------------------------------|
|-------6-9---------6-9b-----9-7-7-6-6-2-2-----9-7-7-6-6-2-2-/-4------------| x2
|---7-7---------6-6---------------------------------------------------------|
|---------------------------------------------------------------------------|

Both Guitars:

|-----222222-----444444-----555555-----777777-------------------------------|
|-----222222-----444444-----555555-----777777-------------------------------|
|-----222222-----444444-----556666-----778888-------------------------------|
|-----444444-----666666-----777777-----999999-------------------------------|
|-----444444-----666666-----777777-----999999-------------------------------| 
|-----222222-----444444-----555555-----777777-------------------------------|

|-----222222-----444444-----555555-----777777777777-------------------------|
|-----222222-----444444-----555555-----777777777777-------------------------|
|-----222222-----444444-----556666-----777788888888-------------------------|
|-----444444-----666666-----777777-----999999999999-------------------------|
|-----444444-----666666-----777777-----999999999999-------------------------| 
|-----222222-----444444-----555555-----777777777777-------------------------|


Chorus:

Part 1 (x2):

|---------------------------------------------------------------------------|
|---------------------------------------------------------------------------|
|-----9---------------9-----------------------------------------------------|
|-----9----999999-----9-----999999------------------------------------------|
|-----7----999999-----7-----999999------------------------------------------|
|----------777777-----------777777------------------------------------------|


|---------------------------------------------------------------------------|
|---------------------------------------------------------------------------|
|-----666666----------------------------------------------------------------|
|-----666666-----666666-----777777-----999999-------------------------------| 
|-----444444-----666666-----777777-----999999-------------------------------|
|----------------444444-----555555-----777777-------------------------------|

Part 2 (x2):

|---------------------------------------------------------------------------|
|---------------------------------------------------------------------------|
|-----999999----------------999999------------------------------------------|
|-----999999-----999999-----999999-----999999-------------------------------|
|-----777777-----999999-----777777-----999999-------------------------------|
|----------------777777----------------777777-------------------------------|

                                                       (End Of Chorus)
|-------------------------------------------------|-------------------------|
|-------------------------------------------------|-------------------------|
|-----666666--------------------------------------|-------------------------|
|-----666666-----666666-----777777-----999999-----|-----9999999999----------| 
|-----444444-----666666-----777777-----999999-----|-----9999999999----------|
|----------------444444-----555555-----777777-----|-----7777777777----------|

When there's no one left around
And you're the last gang in town
And your heart can't even break
When it doesn't even pound

When there's no one left around
And you're the last gang in town
And your heart can't even break
When it doesn't even pound

When there's no one left around
And you're the last gang in town
And your heart can't even break
When it doesn't even pound

When there's no one left around
And you're the last gang in town
And your heart can't even break
When it doesn't even pound


Outro:

Guitar 1:

|---------------------------------------------------------------------------|
|-------------10101010-9-9--------------------------------------------------|
|-----9-9-9-9--9-9-9-9-9-9-9-9-9-9------------------------------------------|
|-----9-9-9-9--9-9-9-9-9-9-9-9-9-9------------------------------------------| x4
|-----7-7-7-7--7-7-7-7-7-7-7-7-7-7------------------------------------------|
|---------------------------------------------------------------------------|

Guitar 2: 

|---------------------------------------------------------------------------|
|---------------------------------------------------------------------------|
|---------------------------------------------------------------------------|
|-----6-7-6-4-----6-7-6-2-------6-7-6-4-----6-7-6-4-------------------------|
|--------------------------2------------------------------------------------|
|---------------------------------------------------------------------------|

Both Guitars:

|---------------------------------------------------------------------------|
|---------------------------------------------------------------------------|
|-----9---------------------------------------------------------------------|
|-----9---------------------------------------------------------------------|
|-----7---------------------------------------------------------------------|
|---------------------------------------------------------------------------|

Oh Love
Verse
e|-------x--x--x---------x--x--x-----------------|----------------|
B|-------x--x--x---------x--x--x-----------------|----------------|
G|-------x--x--x-6-------x--x--x--6--6--66-6-6-66|-----x--x--x-6--|
D|--6-6--x--x--x-6--6-6--x--x--x--6--6--66-6-6-66|6-6--x--x--x-6--|
A|--6-6--x--x--x-4--6-6--x--x--x--4--4--44-4-4-44|6-6--x--x--x-4--|
E|--4-4--x--x--x----4-4--x--x--x-----------------|4-4--x--x--x----|
                                                  |
                                                  |Stop here for the last time of 
                                                   the verse and go to Pre-Chorus

Pre-Chorus
e|-----------------------------------------------|
B|-----------------------------------------------|
G|--6--6--6-----8-8-8-8-8-8-8-8-8-8-8-8-8-8-8-8--|
D|--6--6--6--6--8-8-8-8-8-8-8-8-8-8-8-8-8-8-8-8--|
A|--4--3--4--6--6-6-6-6-6-6-6-6-6-6-6-6-6-6-6-6--|
E|-----------4-----------------------------------|

Chorus
e|-------------------------------------------------------------------|
B|-------------------------------------------------------------------|
G|----------8-8-8-8---------6-6-6-6---------8-8-8-8---------8-8-8-8--|
D|--6-6-6-6-8-8-8-8-6-6-6-6-6-6-6-6-6-6-6-6-8-8-8-8-6-6-6-6-8-8-8-8--|
A|--6-6-6-6-6-6-6-6-6-6-6-6-4-4-4-4-6-6-6-6-6-6-6-6-6-6-6-6-6-6-6-6--|
E|--4-4-4-4---------4-4-4-4---------4-4-4-4---------4-4-4-4----------|

e|--------------------------------------------------|
B|--------------------------------------------------|
G|----------8-8-8-8---------6-6-6-6---------8-8-8-8-|
D|--6-6-6-6-8-8-8-8-6-6-6-6-6-6-6-6-6-6-6-6-8-8-8-8-|
A|--6-6-6-6-6-6-6-6-6-6-6-6-4-4-4-4-6-6-6-6-6-6-6-6-|
E|--4-4-4-4---------4-4-4-4---------4-4-4-4---------|
Break
e|--------------------------------------------------------------------|
B|--------------------------------------------------------------------|
G|-----------------6-6----6-6-----------------6-6---6-6---------------|
D|--6-6-6-6-6-64---6-6----6-6---6-6---6-6-4---6-6---6-6---6-6---6-6-4-|
A|--6-6-6-6-6-64---4-4----4-4---6-6---6-6-4---4-4---4-4---6-6---6-6-4-|
E|--4-4-4-4-4-42----------------4-4---4-4-2---------------4-4---4-4-2-|

e|---------------------------------------------------------|
B|---------------------------------------------------------|
G|--6-6---6-6--------8-10-10--6--5--6-----8-8-8-8-8-8-8-8--|
D|--6-6---6-6---6-6--8-10-10--6--5--6--6--8-8-8-8-8-8-8-8--|
A|--4-4---4-4---6-6--6-8--8---4--3--4--6--6-6-6-6-6-6-6-6--|
E|--------------4-4--------------------4-------------------|
End
G|-----------8-8-8-8---------8--8-----------8-8-8-8--------8--8-------6-----|
D|--6-6-6-6--8-8-8-8---6--6--8--8--6-6-6-6--8-8-8-8--6--6--8--8--6-6--6--6--|
A|--6-6-6-6--6-6-6-6---6--6--6--6--6-6-6-6--6-6-6-6--6--6--6--6--6-6--4--6--|
E|--4-4-4-4------------4--4--------4-4-4-4-----------4--4--------4-4-----4--|
Solo (3:03 3:29) (Distortion)
e|-----------------------------------------------4------------------------|
B|----------------------------------------------4-4-6^6-4-----------------|
G|-------1~~1-0-1-3~~3-1-3-5~~5-3-5-6~~6-5-6--6^----------6-6^6-4-4-6>4-4-|
D|---------------------------------------------------------------6-----6--|
A|------------------------------------------------------------------------|
E|\\12\\------------------------------------------------------------------|

e|--4------------------------------------------------------------------------|
B|-4-7^~^~^~^------9~~9-8-9-11~~11-9-11-13~~13-11-13-14~~14-11-13-14~13~14~--|
G|6^----------------------------------------------------------------------13-|
D|---------------------------------------------------------------------------|
A|---------------------------------------------------------------------------|
E|-----------\\12\\----------------------------------------------------------|

e|---------15~~15-16-18~~18-20-21-15-22^~~-|
B|16~~16-18--------------------------------|
G|-----------------------------------------|
D|-----------------------------------------|
A|-----------------------------------------|
E|-----------------------------------------|

Rythm during Solo (3:03 - 3:29) (Distortion)
e|------------------------------------------------------------|
B|------------------------------------------------------------|
G|-------8-8-88--------6-6-66--------8-8-88----------88888888-|
D|6-6-66-8-8-88-6-6-66-6-6-66-6-6-66-8-8-88-6-6-66-6-88888888-|
A|6-6-66-6-6-66-6-6-66-4-4-44-6-6-66-6-6-66-6-6-66-6-66666666-|
E|4-4-44--------4-4-44--------4-4-44--------4-4-44-4----------|

e|----------------------------------------------------------|
B|----------------------------------------------------------|
G|-------8-8-88--------6-6-66--6--5--6-----8888888888888888-|
D|6-6-66-8-8-88-6-6-66-6-6-66--6--5--6--6--8888888888888888-|
A|6-6-66-6-6-66-6-6-66-4-4-44--4--3--4--6--6666666666666666-|
E|4-4-44--------4-4-44------------------4-------------------|
comments
We did not receive enough feedback on this tab! Please rate:
print report bad tab
1 2 3 4 5
I want to post or [tab]
guest
You may want to rate the tab now too:
select rating
Please do not post tabs as comments. Select "correction" instead!