Oops, an error
Loading. Please wait.

Viva La Gloria Little Girl Tab

ver6
ver6
More versions @911Tabs.com
2,603 views 1 this week
no commentswrite comment
1 2 3 4 5
excellent!
x 3
Autoscroll
+/-
esc
set tempo
stop
Contributor
WARNING: You are trying to view
                                    content from Ultimate-Guitar.com
                                    in an unauthorized application,
                                    which is prohibited.

                                    Please use an official Ultimate
                                    Guitar Tabs application for iPhone,
                                    iPad or Android to access legitimate
                                    chords, guitar, bass, and drum tabs
                                    from Ultimate-Guitar.com database.

                                    Type "ultimate guitar tabs" in Apple
                                    App Store's or Android Market's
                                    search to find the application.
#----------------------------------PLEASE NOTE---------------------------------#
#This file is the author's own work and represents their interpretation of the #
#song. You may only use this file for private study, scholarship, or research. #
#------------------------------------------------------------------------------#


Viva la Gloria! (Little Girl) by Green Day - tabbed by Bob M.


This took a good few hours to figure out and tab, it's all by ear so if
it's not 100% that's why but I think it's really close. The song is Track
12 on the album 21st Century Breakdown. To avoid any confusion this version tabbed is:
 http://www.youtube.com/watch?v=VuXjxiODygI


Open to suggestions and PLEASE RATE!!

00:01 - Intro piano

e-----------------------|------------------|---------------|-------------------|
b-----------1-----------|-------1----------|-------1-------|-------------------|
g--1------1----3--1--1--|-----1---3--1-----|-----1----3--1-|-0-----0-----------|
d--3----3---------------|-1-3-----------3--|-0-3-----------|--0--2---2---2-----|
a--3--3-----------------|------------------|---------------|-------------------|
e--1--------------------|------------------|--------1------|----3-----3--------|


e-----------------------|------------------|-----------------|------------|
b-----------1-----------|-------1----------|-------1---------|------------|
g--1------1----3--1--1--|-----1---3--1-----|-----1-----3--1--|---0--------|
d--3----3---------------|-1-3-----------3--|-0-3-------------|------------|
a--3--3-----------------|------------------|-----------------|------------|
e--1--------------------|------------------|---------1-------|------------|


e----------------------|
b----------------------|
g----------------------|
d----------------------|
a----3--1--------------|
e-----------4--3-------|


00:26 Verse 1 piano >>> play staccato to replicate the articulation

e----------------------------------|----------------------------------|
b------1------1------1------1------|------1------1------1------1------|
g----------------------------------|----------------------------------|
d----------------------------------|----------------------------------|
a---------3--------------3---------|---------3--------------3---------|
e--1-------------1-----------------|--1-------------1-----------------|


e----------------------------------|----------------------------------|
b------1------1------1------1------|------2------2------2------2------|
g------1------1------1------1------|------1------1------1------1------|
d----------------------------------|----------------------------------|
a---------3--------------3---------|--4-------------4-----------------|
e--1-------------1-----------------|---------4--------------4---------|


e----------------------------------|----------------------------------|
b------1------1------1------1------|------1------1------1------1------|
g------0------0------0------0------|----------------------------------|
d----------------------------------|----------------------------------|
a--3--------------3----------------|---------3--------------3---------|
e---------3--------------3---------|--1-------------1-----------------|


e----------------------------------|----------------------------------|
b------1------1------1------1------|------2------2------2------2------|
g------1------1------1------1------|------1------1------1------1------|
d----------------------------------|----------------------------------|
a---------3--------------3---------|---4-------------4----------------|
e--1-------------1-----------------|---------4--------------4---------|


e----------------------------------|-----------------------|
b------1------1------1------1------|------1------1--1------|
g------0------0------0------0------|------1------1--1------|
d----------------------------------|-----------------------|
a--3--------------3----------------|---------3-------------|
e---------3--------------3---------|--1-------------1------|


00:51 chorus - Run away . . .

e-------------------------------------------------------|
b-------------------------------------------------------|
g--10-10-10-10-10-10-10-10------------------------------|
d--10-10-10-10-10-10-10-10--11-11-11-11-11-11-11-11-----|
a---8--8--8--8--8--8--8--8--11-11-11-11-11-11-11-11-----|
e----------------------------9--9--9--9--9--9--9--9-----|


e-------------------------------------------------------|
b-------------------------------------------------------|
g-------------------------------------------------------|
d--10-10-10-10-10-10-10-10---3-3-3-3-3-3-3-3------------|
a--10-10-10-10-10-10-10-10---3-3-3-3-3-3-3-3------------|
e---8--8--8--8--8--8--8--8---1-1-1-1-1-1-1-1------------|


e-------------------------------------------------------|
b-------------------------------------------------------|
g--10-10-10-10-10-10-10-10------------------------------|
d--10-10-10-10-10-10-10-10--11-11-11-11-11-11-11-11-----|
a---8--8--8--8--8--8--8--8--11-11-11-11-11-11-11-11-----|
e----------------------------9--9--9--9--9--9--9--9-----|


e-------------------------------------------------------|
b-------------------------------------------------------|
g-------------------------------------------------------|
d--10-10-10-10-10-10-10-10--10-10-10-10-10---8-6-5-3----|
a--10-10-10-10-10-10-10-10--10-10-10-10-10---8-6-5-3----|
e---8--8--8--8--8--8--8--8---8--8--8--8--8---6-4-3-1----|

00:51 - 2nd guitar during chorus

e-------------------------------------------------------------------------|
b-------------------------------------------------------------------------|
g-------------------------------------------------------------------------|
d-------------------------------------------------------------------------|
a-3-3-3-3-3-3-3-3---4-----4--------3------3--1----------------------------|
e----------------------4------4--------3--------4-3-1--1-1-1-1-1-1-1------|


e-------------------------------------------------------------------------|
b-------------------------------------------------------------------------|
g-------------------------------------------------------------------------|
d-------------------------------------------------------------------------|
a-3-3-3-3-3-3-3-3---4-----4--------3-3-3-3-3-3-3-3--3-3-3-3-3-1-----------|
e----------------------4------4---------------------------------4-3-1-----|

1:11 - Verse 2

e----------------------------------|----------------------------------|
b------1------1------1------1------|------1------1------1------1------|
g------1------1------1------1------|------1------1------1------1------|
d----------------------------------|----------------------------------|
a---------3--------------3---------|---------3--------------3---------|
e--1-------------1-----------------|--1-------------1-----------------|


e----------------------------------|----------------------------------|
b------1--1---1---1--1--1-1--------|------1------1------1------1------|
g------1--1---1---1--1--1-1--------|------1------1------1------1------|
d-----------------------3-3--------|----------------------------------|
a----------------------------------|---------3--------------3---------|
e--1------1------------------------|--1-------------1-----------------|


e----------------------------------|----------------------------------|
b------1------1------1------1------|------1------1------1------1------|
g------1------1------1------1------|------1------1------1------1------|
d----------------------------------|----------------------------------|
a---------3--------------3---------|---------3--------------3---------|
e--1-------------1-----------------|--1-------------1-----------------|


e----------------------------------|----------------------------------|
b------2------2------2------2------|------1------1------1------1------|
g------1------1------1------1------|------0------0------0------0------|
d----------------------------------|----------------------------------|
a--4-------------4-----------------|--3--------------3----------------|
e---------4--------------4---------|---------3--------------3---------|


e----------------------------------|----------------------------------|
b------1------1------1------1------|------1------1------1------1------|
g----------------------------------|------1------1------1------1------|
d----------------------------------|----------------------------------|
a---------3--------------3---------|---------3--------------3---------|
e--1-------------1-----------------|--1-------------1-----------------|


e----------------------------------|----------------------------------|
b------2------2------2------2------|------1------1------1------1------|
g------1------1------1------1------|------0------0------0------0------|
d----------------------------------|----------------------------------|
a---4-------------4----------------|--3--------------3----------------|
e---------4--------------4---------|---------3--------------3---------|


e----------------------------------|----------------------------------|
b------1------1------1------1------|------1--1---1---1--1--1-1--------|
g------1------1------1------1------|------1--1---1---1--1--1-1--------|
d----------------------------------|-----------------------3-3--------|
a---------3--------------3---------|----------------------------------|
e--1-------------1-----------------|--1------1------------------------|


e----------------------------------|------------------------|
b------1------1------1------1------|-----1------1/9~--------|
g------1------1------1------1------|-----1------------------|
d----------------------------------|------------------------|
a---------3--------------3---------|--------3---------------|
e--1-------------1-----------------|--1---------------------|

01:36 - second guitar during 2nd verse

                                             **
e-------------------------------------------------------||
b-------------------------------------------------------||
g----------------------------1--0-----------------------||
d-----------------------------------3-2-3---2sb(3)------||
a--3p2h3----3p2h3---4~--4-3-----------------------------||
e-------------------------------------------------------||


01:56 chorus - Run away . . .

e-------------------------------------------------------|
b-------------------------------------------------------|
g--10-10-10-10-10-10-10-10------------------------------|
d--10-10-10-10-10-10-10-10--11-11-11-11-11-11-11-11-----|
a---8--8--8--8--8--8--8--8--11-11-11-11-11-11-11-11-----|
e----------------------------9--9--9--9--9--9--9--9-----|


e-------------------------------------------------------|
b-------------------------------------------------------|
g-------------------------------------------------------|
d--10-10-10-10-10-10-10-10---3-3-3-3-3-3-3-3------------|
a--10-10-10-10-10-10-10-10---3-3-3-3-3-3-3-3------------|
e---8--8--8--8--8--8--8--8---1-1-1-1-1-1-1-1------------|


e-------------------------------------------------------|
b-------------------------------------------------------|
g--10-10-10-10-10-10-10-10------------------------------|
d--10-10-10-10-10-10-10-10--11-11-11-11-11-11-11-11-----|
a---8--8--8--8--8--8--8--8--11-11-11-11-11-11-11-11-----|
e----------------------------9--9--9--9--9--9--9--9-----|


e-------------------------------------------------------|
b-------------------------------------------------------|
g-------------------------------------------------------|
d--10-10-10-10-10-10-10-10--10-10-10-10-10---8-6-5-3----|
a--10-10-10-10-10-10-10-10--10-10-10-10-10---8-6-5-3----|
e---8--8--8--8--8--8--8--8---8--8--8--8--8---6-4-3-1----|


e-------------------------------------------------------|
b-------------------------------------------------------|
g-------------------------------------------------------|
d----3-3-3-3-3-3-3-3--3-3-3-3-3-3-3-3-------------------|
a----3-3-3-3-3-3-3-3--3-3-3-3-3-3-3-3-------------------|
e----1-1-1-1-1-1-1-1--1-1-1-1-1-1-1-1-------------------|


1:56 - 2nd guitar during chorus

e-------------------------------------------------------------------------|
b-------------------------------------------------------------------------|
g-------------------------------------------------------------------------|
d-------------------------------------------------------------------------|
a-3-3-3-3-3-3-3-3---4-----4--------3------3--1----------------------------|
e----------------------4------4--------3--------4-3-1--1-1-1-1-1-1-1------|


e-------------------------------------------------------------------------|
b-------------------------------------------------------------------------|
g-------------------------------------------------------------------------|
d-------------------------------------------------------------------------|
a-3-3-3-3-3-3-3-3---4-----4--------3-3-3-3-3-3-3-3--3-3-3-3-3-1-----------|
e----------------------4------4---------------------------------4-3-1-----|


2:22 - bridge

e-------------------------------------------------------||
b--6-6-6-6-6-6-6-6--------------------------------------||
g--6-6-6-6-6-6-6-6---5-5-5-5-5-5-5-5--------------------||
d--6-6-6-6-6-6-6-6---6-6-6-6-6-6-6-6--------------------||
a--4-4-4-4-4-4-4-4---6-6-6-6-6-6-6-6--------------------||
e--------------------4-4-4-4-4-4-4-4--------------------||


e-------------------------------------------------------|
b--6-6-6-6-6-6-6-6--------------------------------------|
g--6-6-6-6-6-6-6-6---5-5-5-5-5-5-5-5--------------------|
d--6-6-6-6-6-6-6-6---6-6-6-6-6-6-6-6--------------------|
a--4-4-4-4-4-4-4-4---6-6-6-6-6-6-6-6--------------------|
e--------------------4-4-4-4-4-4-4-4--------------------|


e-------------------------------------------------------|
b--5-5-5-5-5-5-5-5---5-5-5-5-5-5-5-5--------------------|
g--5-5-5-5-5-5-5-5---5-5-5-5-5-5-5-5--------------------|
d--5-5-5-5-5-5-5-5---5-5-5-5-5-5-5-5--------------------|
a--3-3-3-3-3-3-3-3---3-3-3-3-3-3-3-3--------------------|
e-------------------------------------------------------|

2:41 - rhythm during solo

e------------------------------------------------------|
b------------------------------------------------------|
g-10-10-10-10-10-10-10-10---8-8-8-8-8-8-8-8------------|
d-10-10-10-10-10-10-10-10---8-8-8-8-8-8-8-8------------|
a--8--8--8--8--8--8--8--8---6-6-6-6-6-6-6-6------------|
e------------------------------------------------------|


e------------------------------------------------------|
b------------------------------------------------------|
g-7-7-7-7-7-7-7-7--------------------------------------|
d-7-7-7-7-7-7-7-7---8-8-8-8-8-8-8-8--------------------|
a-5-5-5-5-5-5-5-5---8-8-8-8-8-8-8-8--------------------|
e-------------------6-6-6-6-6-6-6-6--------------------|


e------------------------------------------------------|
b------------------------------------------------------|
g-10-10-10-10-10-10-10-10---8-8-8-8-8-8-8-8------------|
d-10-10-10-10-10-10-10-10---8-8-8-8-8-8-8-8------------|
a--8--8--8--8--8--8--8--8---6-6-6-6-6-6-6-6------------|
e------------------------------------------------------|


e------------------------------------------------------|
b------------------------------------------------------|
g-7-7-7-7-7-7-7-7--------------------------------------|
d-7-7-7-7-7-7-7-7---8-8-8-8-8-8-8-8--------------------|
a-5-5-5-5-5-5-5-5---8-8-8-8-8-8-8-8--------------------|
e-------------------6-6-6-6-6-6-6-6--------------------|


e------------------------------------------------------|
b------------------------------------------------------|
g-10-10-10-10-10-10-10-10---8-8-8-8-8-8-8-8------------|
d-10-10-10-10-10-10-10-10---8-8-8-8-8-8-8-8------------|
a--8--8--8--8--8--8--8--8---6-6-6-6-6-6-6-6------------|
e------------------------------------------------------|


e------------------------------------------------------|
b------------------------------------------------------|
g-7-7-7-7-7-7-7-7--------------------------------------|
d-7-7-7-7-7-7-7-7---8-8-8-8-8-8-8-8--------------------|
a-5-5-5-5-5-5-5-5---8-8-8-8-8-8-8-8--------------------|
e-------------------6-6-6-6-6-6-6-6--------------------|


e------------------------------------------------------|
b------------------------------------------------------|
g-10-10-10-10-10-10-10-10---8-8-8-8-8-8-8-8------------|
d-10-10-10-10-10-10-10-10---8-8-8-8-8-8-8-8------------|
a--8--8--8--8--8--8--8--8---6-6-6-6-6-6-6-6------------|
e------------------------------------------------------|


e------------------------------------------------------|
b------------------------------------------------------|
g-7-7-7-7-7-7-7-7--------------------------------------|
d-7-7-7-7-7-7-7-7---8-8-8-8-10-10-10-10----------------|
a-5-5-5-5-5-5-5-5---8-8-8-8-10-10-10-10----------------|
e-------------------6-6-6-6--8--8--8--8----------------|

2:41 - guitar solo

e------------------------------------------------------|
b-------------------------------13---------------------|
g--10-12-13~--12-10~---10-12-13-----12-10--------------|
d------------------------------------------------------|
a------------------------------------------------------|
e------------------------------------------------------|


e------------------------------------------------------|
b------------------------------------------------------|
g--10-12-13~--12-10~------------------12~--10----------|
d---------------------13~-13-13--10~-------------------|
a------------------------------------------------------|
e------------------------------------------------------|


e------------------------------------------------------|
b-------------------------------13---------------------|
g--10-12-13~--12-10~---10-12-13-----12-10--------------|
d------------------------------------------------------|
a------------------------------------------------------|
e------------------------------------------------------|


e------------------------------------------------------|
b------------------------------------------------------|
g--10-12-13~--12-10~------------------12~--10----------|
d---------------------13~-13-13--10~-------------------|
a------------------------------------------------------|
e------------------------------------------------------|


e------------------------------------------------------|
b-------------------------------13---------------------|
g--10-12-13~--12-10~---10-12-13-----12-10--------------|
d------------------------------------------------------|
a------------------------------------------------------|
e------------------------------------------------------|


e------------------------------------------------------|
b------------------------------------------------------|
g--10-12-13~--12-10~------------------12~--10----------|
d---------------------13~-13-13--10~-------------------|
a------------------------------------------------------|
e------------------------------------------------------|


e------------------------------------------------------|
b-------------------------------13---------------------|
g--10-12-13~--12-10~---10-12-13-----12-10--------------|
d------------------------------------------------------|
a------------------------------------------------------|
e------------------------------------------------------|


e--------------------------------------------------------------------|
b---------------------12b(13)-12b(13)--15b(17)-15b(17)--17b(18)~-----|
g--10-12-13~--12-10~-------------------------------------------------|
d--------------------------------------------------------------------|
a--------------------------------------------------------------------|
e--------------------------------------------------------------------|

03:20 chorus - Run away . . .

e-------------------------------------------------------|
b-------------------------------------------------------|
g--10-10-10-10-10-10-10-10------------------------------|
d--10-10-10-10-10-10-10-10--11-11-11-11-11-11-11-11-----|
a---8--8--8--8--8--8--8--8--11-11-11-11-11-11-11-11-----|
e----------------------------9--9--9--9--9--9--9--9-----|


e-------------------------------------------------------|
b-------------------------------------------------------|
g-------------------------------------------------------|
d--10-10-10-10-10-10-10-10---3-3-3-3-3-3-3-3------------|
a--10-10-10-10-10-10-10-10---3-3-3-3-3-3-3-3------------|
e---8--8--8--8--8--8--8--8---1-1-1-1-1-1-1-1------------|


e-------------------------------------------------------|
b-------------------------------------------------------|
g--10-10-10-10-10-10-10-10------------------------------|
d--10-10-10-10-10-10-10-10--11-11-11-11-11-11-11-11-----|
a---8--8--8--8--8--8--8--8--11-11-11-11-11-11-11-11-----|
e----------------------------9--9--9--9--9--9--9--9-----|

                                                    *
e-------------------------------------------------------|
b-------------------------------------------------------|
g-------------------------------------------------------|
d--10-10-10-10-10-10-10-10--10-10-10-10-10---8-6-5-(3)--|
a--10-10-10-10-10-10-10-10--10-10-10-10-10---8-6-5-(3)--|
e---8--8--8--8--8--8--8--8---8--8--8--8--8---6-4-3-(1)--|


3:21 - second guitar during chorus

e-------------------------------------------------------------------------|
b-------------------------------------------------------------------------|
g-------------------------------------------------------------------------|
d-------------------------------------------------------------------------|
a-3-3-3-3-3-3-3-3---4-----4--------3------3--1----------------------------|
e----------------------4------4--------3--------4-3-1--1-1-1-1-1-1-1------|


e-------------------------------------------------------------------------|
b-------------------------------------------------------------------------|
g-------------------------------------------------------------------------|
d-------------------------------------------------------------------------|
a-3-3-3-3-3-3-3-3---4-----4--------3-3-3-3-3-3-3-3--3-3-3-3-3-1-----------|
e----------------------4------4---------------------------------4-3-1-----|

e--------------------------------------------||
b---------------------TAB--------------------||
g------------------DEDICATED-----------------||
d-----------------TO EADAOIN-----------------||
a--------------------XXXX--------------------||
e--------------------------------------------||


Tablature Notation:
|| . . . play bar twice
~ . . . vibrato
/ . . . slide
12b(13) . . . bend the 12 note up a semi tone to the 13th note i.e. to
what ever not in the brackets
* . . . not actually played but finishes song with a concluding cadence
h . . . hammer on
p . . . pull off
** 2sb(3) . . . a slow bend from the second fret to the note on the third

My email is ultimate-guitartabber@hotmail.com if you have any questions or
comments but constructive criticism only please.

03.06.09
comments
We did not receive enough feedback on this tab! Please rate:
print report bad tab
1 2 3 4 5
I want to post or [tab]
guest
You may want to rate the tab now too:
select rating
Please do not post tabs as comments. Select "correction" instead!