Oops, an error
Loading. Please wait.

Viva La Gloria Tab

ver2
ver2
More versions @911Tabs.com
95,321 views 63 this week
12 commentsread comments
1 2 3 4 5
excellent!
x 32
Autoscroll
+/-
esc
set tempo
stop
Contributor
Hey! There's an official Ultimate Guitar app which is ideal
for learning songs when you're away from computer. Get the app
WARNING: You are trying to view
                                    content from Ultimate-Guitar.com
                                    in an unauthorized application,
                                    which is prohibited.

                                    Please use an official Ultimate
                                    Guitar Tabs application for iPhone,
                                    iPad or Android to access legitimate
                                    chords, guitar, bass, and drum tabs
                                    from Ultimate-Guitar.com database.

                                    Type "ultimate guitar tabs" in Apple
                                    App Store's or Android Market's
                                    search to find the application.
Ending is hard to hear, so I did the best I could.

This is from the new album 21st Century Breakdown entitled ¡Viva La Gloria! NOTE THIS IS 
La Gloria! not ┬┐Viva La Gloria?(Little Girl). This is track 4 on the album, not the one 
down.

Listen to the song here:
http://www.youtube.com/watch?v=YQxyxHvlxCY

Watch me play it here:
http://www.youtube.com/watch?v=9w5Q-OFNVBA&feature=channel_page

Capo on 4th fret

Intro:
C - Em - F - C

C          Em
  Hey Gloria
        F                     G         C
Are you standing close to the edge?
               Em              F
Lookout to the setting sun
                  G          C
The brink of your vision
        Em
Eternal youth is
  F                G         C
A landscape of the lie
                 Em               F
The cracks of my skin can prove
                  G          C
As the years will testify
                     Em           F
Say your prayers and light a fire
                       G     C
We're going to start a war
               Em            F
Your slogans a gun for hire
             G               C
It's what we waited for
         Em
Hey Gloria,
        F                G      C
This is why we're on the edge
                 Em
The fight of our lives been drawn to
     F       C
This undying love.


Chorus: Work out the rhythm, pretty simple (just the same as Letterbomb)

Gloria Where Are You Gloria?...
|------------------------------------------------------------------------------------------------|
|------------------------------------------------------------------------------------------------|
|-9-9-9-9-9-9-9-9----------------------------6-6-6-6-6-6-6-6-------------------------------------|
|-9-9-9-9-9-9-9-9-------6-6-6-6-6-6-6-6------6-6-6-6-6-6-6-6---7-7-7-7-7-7-7-7---7-7-7-7-7-7-7-7-|
|-7-7-7-7-7-7-7-7-------6-6-6-6-6-6-6-6------4-4-4-4-4-4-4-4---7-7-7-7-7-7-7-7---7-7-7-7-7-7-7-7-|
|-----------------------4-4-4-4-4-4-4-4------------------------5-5-5-5-5-5-5-5---5-5-5-5-5-5-5-5-|

...Slashing through your spirit
|-----------------------------------------------------------------------------|
|-----------------------------------------------------------------------------|
|-------4-4--6-6-6-6-6-6-6-6--------------------------------------------------|
|--2-2--4-4--6-6-6-6-6-6-6-6----7-7-7-7-7-7-7-7-------9-9-9-9-9-9-9-9---------|
|--2-2--2-2--4-4-4-4-4-4-4-4----7-7-7-7-7-7-7-7-------9-9-9-9-9-9-9-9---------|
|--0-0--------------------------5-5-5-5-5-5-5-5-------7-7-7-7-7-7-7-7---------|x2


Verse: She smashed her knuckles into winter...
|-------------------------------------------------------------|
|-------------------------------------------------------------|
|--9-9-x-9-9------------------6-6-x-6-6-x-6-6-x-6-6-x---------|
|--9-9-x-9-9-x-6-6-x-6-6-x----6-6-x-6-6-x-6-6-x-6-6-x---------|
|--7-7-x-7-7-x-6-6-x-6-6-x----4-4-x-4-4-x-4-4-x-4-4-x---------|
|--------------4-4-x-4-4-x------------------------------------|

|---------------------------------------------------------|
|---------------------------------------------------------|
|---------------------------------------------------------|
|--7-7-x-7-7-x-2-2-x-2-2-x----9-9-x-9-9-x-9-9-x-9-9-x-----|
|--7-7-x-7-7-x-2-2-x-2-2-x----9-9-x-9-9-x-9-9-x-9-9-x-----|
|--5-5-x-5-5-x-0-0-x-0-0-x----7-7-x-7-7-x-7-7-x-7-7-x-----|   x2


|----------------------|
|----------------------|
|---2-2-2--2-4-4-4-----|
|---2-2-2--2-4-4-4-----|
|---0-0-0--0-2-2-2-----|
|----------------------|
So don't put away....


Chorus x2


Ending: (very hard to work out, this will fit in with the song)
|---------------------------|
|---------------------------|
|-------4----2--------------|
|--2----4----2----6--4--2---|
|--2----2----0----6--4--2---|
|--0--------------4--2--0---|   x2
So Gloria.....

((This may be more accurate!))
|-----------------------------|------------------------------|
|-----------------------------|------------------------------|
|--2---------2----2-----------|---2---------4----------------|
|--2----2----2----2----2------|---2----2----4----------------|
|--0----2----0----0----2------|---0----2----2----------------|
|-------0--------------0------|--------0---------------------|   x2
So Gloria...

|-------------------|
|-------------------|
|-------------------|
|--2---2---2---2---2|
|--2---2---2---2---2|
|--0---0---0---0---0|
YOUR LIFE!


Lyrics:

Hey, Gloria
Are you standing close to the edge?
Look out of the setting sun
Brink of your vision
Eternal youth is
A landscape of a lie

The cracks of my skin can prove
As the years will testify
Say your prayers and light a fire
We're going to start a war
Your slogan's a gun for hire
It's what we waited for

Hey, Gloria
This is why we're on the edge
The fight of our live's been drawn
This undying love

Gloria, Viva La Gloria
You blast your name
In graffiti on the walls
Falling in broken glass that's
Slashing thought your spirit
I can hear it like a jilted crowd

Gloria, Where are you, Gloria?
You found a home
In all your scars and ammunition
You made your bed in salad days
Amongst the ruins
Ashes to ashes of our youth

She smashed her knuckles into winter
As autumn's wind fades into black
She is the saint of all the sinners
The one that's fallen through the cracks
So don't put away your burning light

Gloria, Where are you Gloria?
Don't lose your faith
To your lost naivete
Weather the storm and don't look
Back on last November
When your banners were burning down

Gloria, Viva La Gloria
Send me you amnesty down
To the broken hearted
Bring us the season
That we always will remember
Don't let the bonfires go out

So Gloria,
Send out your message of the light
That shadows in the night
Gloria, where's your undying love?
Tell me the story of your life
Your life
comments
print report bad tab
12 comments total. Showing first comments.
+1 reply
stjimmy34 wrote on May 13 2009, 02:33 pm

Great tab! The third chord in the chorus/verse is a C#m, though.

+3 reply
fluidkarma wrote on May 16 2009, 12:48 pm

2 thumbs way up homes

+2 reply
markchua wrote on May 18 2009, 05:53 am

that's fast. thanks for this contribution.

I want to post or [tab]
guest
You may want to rate the tab now too:
select rating
Please do not post tabs as comments. Select "correction" instead!