Oops, an error
Loading. Please wait.

Viva La Gloria Tab

ver6
ver6
More versions @911Tabs.com
5,338 views 9 this week
2 commentsread comments
1 2 3 4 5
excellent!
x 3
Autoscroll
+/-
esc
set tempo
stop
Contributor
Difficulty
intermediate
Hey! There's an official Ultimate Guitar app which is ideal
for learning songs when you're away from computer. Get the app
WARNING: You are trying to view
                                    content from Ultimate-Guitar.com
                                    in an unauthorized application,
                                    which is prohibited.

                                    Please use an official Ultimate
                                    Guitar Tabs application for iPhone,
                                    iPad or Android to access legitimate
                                    chords, guitar, bass, and drum tabs
                                    from Ultimate-Guitar.com database.

                                    Type "ultimate guitar tabs" in Apple
                                    App Store's or Android Market's
                                    search to find the application.
-------------------------------------------------------------------------------
                             !VIVA LA GLORIA! - Green Day
-------------------------------------------------------------------------------
Tabbed by:arm07902
Email:bahamut.92@hotmail.com

Tuning:Standard

Q=172
4/4
Key E(####)

Chorus
Gtr 1
   E E E E E E E E   E E E E E E E E   E E E E E E E E   E E E E E E E E
e|-----------------|-----------------|-----------------|-----------------|
B|-9-9-9-9-9-9-9-9-|-9-9-9-9-9-9-9-X-|-----------------|-----------------|
G|-9-9-9-9-9-9-9-9-|-9-9-9-9-9-9-9-X-|-4-4-4-4-4-4-4-4-|-4-4-4-4-4-4-4-X-|
D|-9-9-9-9-9-9-9-9-|-9-9-9-9-9-9-9-X-|-6-6-6-6-6-6-6-6-|-6-6-6-6-6-6-6-X-|
A|-7-7-7-7-7-7-7-7-|-7-7-7-7-7-7-7-X-|-6-6-6-6-6-6-6-6-|-6-6-6-6-6-6-6-X-|
E|-0-0-0-0-0-0-0-0-|-0-0-0-0-0-0-0-X-|-4-4-4-4-4-4-4-4-|-4-4-4-4-4-4-4-X-|

Gtr 1
   Q   Q   E E E E  +E E Q   E E E E   Q   Q   E E E E  +E E Q   E E E E 
e|-----------------|-----------------|-----------------|-----------------|
B|-5---5---5-5-5-5-|(5)5-5---5-5-5-X-|-----------------|-----------------|
G|-6---6---6-6-6-6-|(6)6-6---6-6-6-X-|-6---6---6-6-6-6-|(6)6-6---6-6-6-X-|
D|-6---6---6-6-6-6-|(6)6-6---6-6-6-X-|-7---7---7-7-7-7-|(7)7-7---7-7-7-X-|
A|-4---4---4-4-4-4-|(4)4-4---4-4-4-X-|-7---7---7-7-7-7-|(7)7-7---7-7-7-X-|
E|-----------------|-----------------|-5---5---5-5-5-5-|(5)5-5---5-5-5-X-|

Gtr 1
   Q   Q   E E E E  +E E Q   E E E E   Q   E E E E E E  +E E Q   E E E E 
e|-----------------|-----------------|-----------------|-----------------|
B|-----------------|-----------------|---------4-4-X-5-|(5)5-5---5-5-5-X-|
G|-5---5---5-5-5-5-|(5)5-5---5-5-5-X-|-1---1-X-4-4-X-6-|(6)6-6---6-6-6-X-|
D|-7---7---7-7-7-7-|(7)7-7---7-7-7-X-|-2---2-X-4-4-X-6-|(6)6-6---6-6-6-X-|
A|-7---7---7-7-7-7-|(7)7-7---7-7-7-X-|-2---2-X-2-2-X-4-|(4)4-4---4-4-4-X-|
E|-5---5---5-5-5-5-|(5)5-5---5-5-5-X-|-0---0-X---------|-----------------|

Gtr 1
   Q   E E E E E E  +E E E E E E E E   Q   E E E E E E  +E E E E E E E E 
e|-----------------|-----------------|-----------------|-----------------|
B|-----------------|-----------------|-----------------|-----------------|
G|-6---6-6-6-6-6-6-|(6)6-6-6-6-6-6-X-|-8---8-8-8-8-8-8-|(8)8-8-8-8-8-8-X-|
D|-7---7-7-7-7-7-7-|(7)7-7-7-7-7-7-X-|-9---9-9-9-9-9-9-|(9)9-9-9-9-9-9-X-|
A|-7---7-7-7-7-7-7-|(7)7-7-7-7-7-7-X-|-9---9-9-9-9-9-9-|(9)9-9-9-9-9-9-X-|
E|-5---5-5-5-5-5-5-|(5)5-5-5-5-5-5-X-|-7---7-7-7-7-7-7-|(7)7-7-7-7-7-7-X-|

Gtr 1
   E E E E E E E E   E E E E E E E E   E E E E E E E E   E E E E E E E E
e|-----------------|-----------------|-----------------|-----------------|
B|-9-9-9-9-9-9-9-9-|-9-9-9-9-9-9-9-X-|-----------------|-----------------|
G|-9-9-9-9-9-9-9-9-|-9-9-9-9-9-9-9-X-|-4-4-4-4-4-4-4-4-|-4-4-4-4-4-4-4-X-|
D|-9-9-9-9-9-9-9-9-|-9-9-9-9-9-9-9-X-|-6-6-6-6-6-6-6-6-|-6-6-6-6-6-6-6-X-|
A|-7-7-7-7-7-7-7-7-|-7-7-7-7-7-7-7-X-|-6-6-6-6-6-6-6-6-|-6-6-6-6-6-6-6-X-|
E|-0-0-0-0-0-0-0-0-|-0-0-0-0-0-0-0-X-|-4-4-4-4-4-4-4-4-|-4-4-4-4-4-4-4-X-|

Gtr 1
   Q   Q   E E E E  +E E Q   E E E E   Q   Q   E E E E  +E E Q   E E E E 
e|-----------------|-----------------|-----------------|-----------------|
B|-5---5---5-5-5-5-|(5)5-5---5-5-5-X-|-----------------|-----------------|
G|-6---6---6-6-6-6-|(6)6-6---6-6-6-X-|-6---6---6-6-6-6-|(6)6-6---6-6-6-X-|
D|-6---6---6-6-6-6-|(6)6-6---6-6-6-X-|-7---7---7-7-7-7-|(7)7-7---7-7-7-X-|
A|-4---4---4-4-4-4-|(4)4-4---4-4-4-X-|-7---7---7-7-7-7-|(7)7-7---7-7-7-X-|
E|-----------------|-----------------|-5---5---5-5-5-5-|(5)5-5---5-5-5-X-|

Gtr 1
   Q   Q   E E E E  +E E Q   E E E E   Q   E E E E E E  +E E Q   E E E E 
e|-----------------|-----------------|-----------------|-----------------|
B|-----------------|-----------------|---------4-4-X-5-|(5)5-5---5-5-5-X-|
G|-5---5---5-5-5-5-|(5)5-5---5-5-5-X-|-1---1-X-4-4-X-6-|(6)6-6---6-6-6-X-|
D|-7---7---7-7-7-7-|(7)7-7---7-7-7-X-|-2---2-X-4-4-X-6-|(6)6-6---6-6-6-X-|
A|-7---7---7-7-7-7-|(7)7-7---7-7-7-X-|-2---2-X-2-2-X-4-|(4)4-4---4-4-4-X-|
E|-5---5---5-5-5-5-|(5)5-5---5-5-5-X-|-0---0-X---------|-----------------|

Gtr 1
   Q   E E E E E E  +E E E E E E E E   Q   E E E E E E  +E E E E E E E E 
e|-----------------|-----------------|-----------------|-----------------||
B|-----------------|-----------------|-----------------|-----------------||
G|-6---6-6-6-6-6-6-|(6)6-6-6-6-6-6-X-|-8---8-8-8-8-8-8-|(8)8-8-8-8-8-8-X-||
D|-7---7-7-7-7-7-7-|(7)7-7-7-7-7-7-X-|-9---9-9-9-9-9-9-|(9)9-9-9-9-9-9-X-||
A|-7---7-7-7-7-7-7-|(7)7-7-7-7-7-7-X-|-9---9-9-9-9-9-9-|(9)9-9-9-9-9-9-X-||
E|-5---5-5-5-5-5-5-|(5)5-5-5-5-5-5-X-|-7---7-7-7-7-7-7-|(7)7-7-7-7-7-7-X-||

Verse
Gtr 1
   E E E E E E E E   E E E E E E E E   E E E E E E E E   E E E E E E E E
e|-----------------|-----------------|-----------------|-----------------|
B|-9-9---9-9-9---X-|-----------------|-5-5---5-5-5---5-|-5-5---5-5-5---X-|
G|-9-9---9-9-9---X-|-4-4---4-4-4---X-|-6-6---6-6-6---6-|-6-6---6-6-6---X-|
D|-9-9---9-9-9---X-|-6-6---6-6-6---X-|-6-6---6-6-6---6-|-6-6---6-6-6---X-|
A|-7-7---7-7-7---X-|-6-6---6-6-6---X-|-4-4---4-4-4---4-|-4-4---4-4-4---X-|
E|-0-0---0-0-0---X-|-4-4---4-4-4---X-|-----------------|-----------------|

Gtr 1
   E E E E E E E E   E E E E E E E E   E E E E E E E E   E E E E E E E E
e|-----------------|-----------------|-----------------|-----------------|
B|-----------------|-9-9---9-9-9---X-|-----------------|-----------------|
G|-6-6---6-6-6---X-|-9-9---9-9-9---X-|-8-8---8-8-8---8-|-8-8---8-8-8---X-|
D|-7-7---7-7-7---X-|-9-9---9-9-9---X-|-9-9---9-9-9---9-|-9-9---9-9-9---X-|
A|-7-7---7-7-7---X-|-7-7---7-7-7---X-|-9-9---9-9-9---9-|-9-9---9-9-9---X-|
E|-5-5---5-5-5---X-|-0-0---0-0-0---X-|-7-7---7-7-7---7-|-7-7---7-7-7---X-|

Gtr 1
   E E E E E E E E   E E E E E E E E   E E E E E E E E   E E E E E E E E
e|-----------------|-----------------|-----------------|-----------------|
B|-9-9---9-9-9---X-|-----------------|-5-5---5-5-5---5-|-5-5---5-5-5---X-|
G|-9-9---9-9-9---X-|-4-4---4-4-4---X-|-6-6---6-6-6---6-|-6-6---6-6-6---X-|
D|-9-9---9-9-9---X-|-6-6---6-6-6---X-|-6-6---6-6-6---6-|-6-6---6-6-6---X-|
A|-7-7---7-7-7---X-|-6-6---6-6-6---X-|-4-4---4-4-4---4-|-4-4---4-4-4---X-|
E|-0-0---0-0-0---X-|-4-4---4-4-4---X-|-----------------|-----------------|

Gtr 1
   E E E E E E E E   E E E E E E E E   E E E E E E E E   E E E E E E Q 
e|-----------------|-----------------|-----------------|-----------------|
B|-----------------|-----------------|-----------------|-----------------|
G|-6-6---6-6-6---X-|-1-1---1-1-1---X-|-8-8---8-8-8---8-|-8-8---8-8-8-----|
D|-7-7---7-7-7---X-|-2-2---2-2-2---X-|-9-9---9-9-9---9-|-9-9---9-9-9-----|
A|-7-7---7-7-7---X-|-2-2---2-2-2---X-|-9-9---9-9-9---9-|-9-9---9-9-9-----|
E|-5-5---5-5-5---X-|-0-0---0-0-0---X-|-7-7---7-7-7---7-|-7-7---7-7-7-12\-|

Gtr 1
   Q.    Q.    Q    +E E Q   E E E E   Q.    Q.    Q     E E E e Q   Q 
e|-----------------|-----------------|-----------------|-----------------||
B|-----------------|-----------------|-----------------|-----------------||
G|-6-----6-----6---|(6)6-6---6-6-6-X-|-8-----8-----8---|-8-8-8-8-----X---||
D|-7-----7-----7---|(7)7-7---7-7-7-X-|-9-----9-----9---|-9-9-9-9-----X---||
A|-7-----7-----7---|(7)7-7---7-7-7-X-|-9-----9-----9---|-9-9-9-9-----X---||
E|-5-----5-----5---|(5)5-5---5-5-5-X-|-7-----7-----7---|-7-7-7-7-----X---||
Gtr 2                                                                    ||
   Q.    Q.    Q    +W                 Q.    Q.    Q    +H       Q   Q   ||
e|-----------------|-----------------|-----------------|-----------------||
B|-5-----------5---|(5)--------------|-4-----5-----7---|-------------0---||
G|-------2---------|-----------------|-----------------|-------------0---||
D|-----------------|-----------------|-----------------|-------------0---||
A|-----------------|-----------------|-----------------|-----------------||
E|-----------------|-----------------|-----------------|-----------------||

Chorus
Gtr 1
   E E E E E E E E   E E E E E E E E   E E E E E E E E   E E E E E E E E
e|-----------------|-----------------|-----------------|-----------------|
B|-9-9-9-9-9-9-9-9-|-9-9-9-9-9-9-9-X-|-----------------|-----------------|
G|-9-9-9-9-9-9-9-9-|-9-9-9-9-9-9-9-X-|-4-4-4-4-4-4-4-4-|-4-4-4-4-4-4-4-X-|
D|-9-9-9-9-9-9-9-9-|-9-9-9-9-9-9-9-X-|-6-6-6-6-6-6-6-6-|-6-6-6-6-6-6-6-X-|
A|-7-7-7-7-7-7-7-7-|-7-7-7-7-7-7-7-X-|-6-6-6-6-6-6-6-6-|-6-6-6-6-6-6-6-X-|
E|-0-0-0-0-0-0-0-0-|-0-0-0-0-0-0-0-X-|-4-4-4-4-4-4-4-4-|-4-4-4-4-4-4-4-X-|

Gtr 1
   Q   Q   E E E E  +E E Q   E E E E   Q   Q   E E E E  +E E Q   E E E E 
e|-----------------|-----------------|-----------------|-----------------|
B|-5---5---5-5-5-5-|(5)5-5---5-5-5-X-|-----------------|-----------------|
G|-6---6---6-6-6-6-|(6)6-6---6-6-6-X-|-6---6---6-6-6-6-|(6)6-6---6-6-6-X-|
D|-6---6---6-6-6-6-|(6)6-6---6-6-6-X-|-7---7---7-7-7-7-|(7)7-7---7-7-7-X-|
A|-4---4---4-4-4-4-|(4)4-4---4-4-4-X-|-7---7---7-7-7-7-|(7)7-7---7-7-7-X-|
E|-----------------|-----------------|-5---5---5-5-5-5-|(5)5-5---5-5-5-X-|

Gtr 1
   Q   Q   E E E E  +E E Q   E E E E   Q   E E E E E E  +E E Q   E E E E 
e|-----------------|-----------------|-----------------|-----------------|
B|-----------------|-----------------|---------4-4-X-5-|(5)5-5---5-5-5-X-|
G|-5---5---5-5-5-5-|(5)5-5---5-5-5-X-|-1---1-X-4-4-X-6-|(6)6-6---6-6-6-X-|
D|-7---7---7-7-7-7-|(7)7-7---7-7-7-X-|-2---2-X-4-4-X-6-|(6)6-6---6-6-6-X-|
A|-7---7---7-7-7-7-|(7)7-7---7-7-7-X-|-2---2-X-2-2-X-4-|(4)4-4---4-4-4-X-|
E|-5---5---5-5-5-5-|(5)5-5---5-5-5-X-|-0---0-X---------|-----------------|

Gtr 1
   Q   E E E E E E  +E E E E E E E E   Q   E E E E E E  +E E E E E E E E 
e|-----------------|-----------------|-----------------|-----------------|
B|-----------------|-----------------|-----------------|-----------------|
G|-6---6-6-6-6-6-6-|(6)6-6-6-6-6-6-X-|-8---8-8-8-8-8-8-|(8)8-8-8-8-8-8-X-|
D|-7---7-7-7-7-7-7-|(7)7-7-7-7-7-7-X-|-9---9-9-9-9-9-9-|(9)9-9-9-9-9-9-X-|
A|-7---7-7-7-7-7-7-|(7)7-7-7-7-7-7-X-|-9---9-9-9-9-9-9-|(9)9-9-9-9-9-9-X-|
E|-5---5-5-5-5-5-5-|(5)5-5-5-5-5-5-X-|-7---7-7-7-7-7-7-|(7)7-7-7-7-7-7-X-|

Gtr 1
   E E E E E E E E   E E E E E E E E   E E E E E E E E   E E E E E E E E
e|-----------------|-----------------|-----------------|-----------------|
B|-9-9-9-9-9-9-9-9-|-9-9-9-9-9-9-9-X-|-----------------|-----------------|
G|-9-9-9-9-9-9-9-9-|-9-9-9-9-9-9-9-X-|-4-4-4-4-4-4-4-4-|-4-4-4-4-4-4-4-X-|
D|-9-9-9-9-9-9-9-9-|-9-9-9-9-9-9-9-X-|-6-6-6-6-6-6-6-6-|-6-6-6-6-6-6-6-X-|
A|-7-7-7-7-7-7-7-7-|-7-7-7-7-7-7-7-X-|-6-6-6-6-6-6-6-6-|-6-6-6-6-6-6-6-X-|
E|-0-0-0-0-0-0-0-0-|-0-0-0-0-0-0-0-X-|-4-4-4-4-4-4-4-4-|-4-4-4-4-4-4-4-X-|

Gtr 1
   Q   Q   E E E E  +E E Q   E E E E   Q   Q   E E E E  +E E Q   E E E E 
e|-----------------|-----------------|-----------------|-----------------|
B|-5---5---5-5-5-5-|(5)5-5---5-5-5-X-|-----------------|-----------------|
G|-6---6---6-6-6-6-|(6)6-6---6-6-6-X-|-6---6---6-6-6-6-|(6)6-6---6-6-6-X-|
D|-6---6---6-6-6-6-|(6)6-6---6-6-6-X-|-7---7---7-7-7-7-|(7)7-7---7-7-7-X-|
A|-4---4---4-4-4-4-|(4)4-4---4-4-4-X-|-7---7---7-7-7-7-|(7)7-7---7-7-7-X-|
E|-----------------|-----------------|-5---5---5-5-5-5-|(5)5-5---5-5-5-X-|

Gtr 1
   Q   Q   E E E E  +E E Q   E E E E   Q   E E E E E E  +E E Q   E E E E 
e|-----------------|-----------------|-----------------|-----------------|
B|-----------------|-----------------|---------4-4-X-5-|(5)5-5---5-5-5-X-|
G|-5---5---5-5-5-5-|(5)5-5---5-5-5-X-|-1---1-X-4-4-X-6-|(6)6-6---6-6-6-X-|
D|-7---7---7-7-7-7-|(7)7-7---7-7-7-X-|-2---2-X-4-4-X-6-|(6)6-6---6-6-6-X-|
A|-7---7---7-7-7-7-|(7)7-7---7-7-7-X-|-2---2-X-2-2-X-4-|(4)4-4---4-4-4-X-|
E|-5---5---5-5-5-5-|(5)5-5---5-5-5-X-|-0---0-X---------|-----------------|

Gtr 1
   Q   E E E E E E  +E E E E E E E E   Q   E E E E E E  +E E E E E E E SS 
e|-----------------|-----------------|-----------------|-----------------||
B|-----------------|-----------------|-----------------|-----------------||
G|-6---6-6-6-6-6-6-|(6)6-6-6-6-6-6-X-|-8---8-8-8-8-8-8-|(8)8-8-8-8-8-8---||
D|-7---7-7-7-7-7-7-|(7)7-7-7-7-7-7-X-|-9---9-9-9-9-9-9-|(9)9-9-9-9-9-9---||
A|-7---7-7-7-7-7-7-|(7)7-7-7-7-7-7-X-|-9---9-9-9-9-9-9-|(9)9-9-9-9-9-9---||
E|-5---5-5-5-5-5-5-|(5)5-5-5-5-5-5-X-|-7---7-7-7-7-7-7-|(7)7-7-7-7-7-7-00||
Gtr 2                                                                    ||
   W                 W                 W                 H       Q   E E ||
e|-----------------|-----------------|-----------------|-----------------||
B|-----------------|-----------------|-----------------|---------------10||
G|-----------------|-----------------|-----------------|-----------------||
D|-----------------|-----------------|-----------------|-----------------||
A|-----------------|-----------------|-----------------|-----------------||
E|-----------------|-----------------|-----------------|-----------------||

Outro
Gtr 1
   H.         +E SS  H.         +E SS  Q.    SSQ.    SS  H.         +E SS
e|-----------------|-0---------------|-----------------|-0---------------|
B|-2---------------|-0---------------|-2-----222-------|-0---------------|
G|-2---------------|-1---------------|-2-----222-------|-1---------------|
D|-2---------------|-2---------------|-2-----222-------|-2---------------|
A|-0---------------|-2---------------|-0-----000-------|-2---------------|
E|---------------00|-0-------------00|---------------00|-0-------------00|
Gtr 2                                                                    |
   H.         +E E   H.         +E E   Q.    E Q.    E   H.         +E E |
e|-12--------------|-12--------------|-12------12------|-12--------------|
B|---------------9-|---------------10|-------10------9-|---------------10|
G|-----------------|-----------------|-----------------|-----------------|
D|-----------------|-----------------|-----------------|-----------------|
A|-----------------|-----------------|-----------------|-----------------|
E|-----------------|-----------------|-----------------|-----------------|

Gtr 1
   H.         +E SS  H.         +E SS  H.         +E SS  Q.    SSQ.    E 
e|-----------------|-0---------------|-----------------|-----------------|
B|-2---------------|-0---------------|-4---------------|-5-------4-------|
G|-2---------------|-1---------------|-4---------------|-4-------4-------|
D|-2---------------|-2---------------|-4---------------|-4-------4-------|
A|-0---------------|-2---------------|-2-------------22|-2-----222-------|
E|---------------00|-0-------------00|-----------------|---------------0-|
Gtr 2                                                                    |
   H.         +E E   H.         +E E   H.         +E E   Q.    E Q.    E |
e|-12--------------|-12--------------|-11--------------|-12------11------|
B|---------------9-|---------------12|---------------12|-------12------10|
G|-----------------|-----------------|-----------------|-----------------|
D|-----------------|-----------------|-----------------|-----------------|
A|-----------------|-----------------|-----------------|-----------------|
E|-----------------|-----------------|-----------------|-----------------|

Gtr 1
   H.         +E SS  H.         +E SS  Q.    SSQ.    SS  H.         +E SS
e|-----------------|-0---------------|-----------------|-0---------------|
B|-2---------------|-0---------------|-2-----222-------|-0---------------|
G|-2---------------|-1---------------|-2-----222-------|-1---------------|
D|-2---------------|-2---------------|-2-----222-------|-2---------------|
A|-0---------------|-2---------------|-0-----000-------|-2---------------|
E|---------------00|-0-------------00|---------------00|-0-------------00|
Gtr 2                                                                    |
   H.         +E E   H.         +E E   Q.    E Q.    E   H.         +E E |
e|-12--------------|-12--------------|-12------12------|-12--------------|
B|---------------9-|---------------10|-------10------9-|---------------10|
G|-----------------|-----------------|-----------------|-----------------|
D|-----------------|-----------------|-----------------|-----------------|
A|-----------------|-----------------|-----------------|-----------------|
E|-----------------|-----------------|-----------------|-----------------|

Gtr 1
   H.         +E SS  H.         +E SS  H.         +E SS  Q.    SSQ.    E 
e|-----------------|-0---------------|-----------------|-----------------|
B|-2---------------|-0---------------|-4---------------|-5-------4-------|
G|-2---------------|-1---------------|-4---------------|-4-------4-------|
D|-2---------------|-2---------------|-4---------------|-4-------4-------|
A|-0---------------|-2---------------|-2-------------22|-2-----222-------|
E|---------------00|-0-------------00|-----------------|---------------0-|
Gtr 2                                                                    |
   H.         +E E   H.         +E E   H.         +E E   Q.    E Q.    E |
e|-12--------------|-12--------------|-11--------------|-12------11------|
B|---------------9-|---------------12|---------------12|-------12------10|
G|-----------------|-----------------|-----------------|-----------------|
D|-----------------|-----------------|-----------------|-----------------|
A|-----------------|-----------------|-----------------|-----------------|
E|-----------------|-----------------|-----------------|-----------------|

Gtr 1 Q=118
   H       H         H       H         Q   E E H        
e|-0-------0-------|-0-------0-------|-0---------------||
B|-0-------0-------|-0-------0-------|-0---------------||
G|-1-------1-------|-1-------1-------|-1---------------||
D|-2-------2-------|-2-------2-------|-2---------------||
A|-2-------2-------|-2-------2-------|-2---------------||
E|-0-------0-------|-0-------0-------|-0--/12----------||
Gtr 2                                                  ||
   W                +W                +Q.    E H       ||
e|-----------------|-----------------|-----------------||
B|-9---------------|(9)--------------|(9)--------------||
G|-----------------|-----------------|-----------------||
D|-----------------|-----------------|-----------------||
A|-----------------|-----------------|-----------------||
E|-----------------|-----------------|-----------------||

| /  slide up
| \  slide down
| h  hammer-on
| p  pull-off
| ~  vibrato
| +  harmonic
| x  Mute note
===============================================================================
comments
We did not receive enough feedback on this tab! Please rate:
print report bad tab
1 2 3 4 5
2 comments total.
+1 reply
TJ1991 wrote on November 4 2009, 12:09 pm

Very impressed. 5 star.

0 reply
Triple7Hack wrote on September 13 2010, 02:15 pm

best tab on the site man. 5 stars

I want to post or [tab]
guest
You may want to rate the tab now too:
select rating
Please do not post tabs as comments. Select "correction" instead!