Oops, an error
Loading. Please wait.

Warning Bass Tab

ver1
ver1
More versions @911Tabs.com
17,970 views 18 this week
21 commentsread comments
1 2 3 4 5
worth learning
x 9
Autoscroll
+/-
esc
set tempo
stop
Contributor
WARNING: You are trying to view
                                    content from Ultimate-Guitar.com
                                    in an unauthorized application,
                                    which is prohibited.

                                    Please use an official Ultimate
                                    Guitar Tabs application for iPhone,
                                    iPad or Android to access legitimate
                                    chords, guitar, bass, and drum tabs
                                    from Ultimate-Guitar.com database.

                                    Type "ultimate guitar tabs" in Apple
                                    App Store's or Android Market's
                                    search to find the application.
Green Day Warning Album bass Tab
Warning released 2000
Tabbed by Liam
Email: guitar_rocker_47@hotmail.com 

Yet again I will say this I don't actually own a bass but im in a band so I know mostly
that bass plays the root finger of most chords and no one else has submitted a warning
album bass tab (I think...) so here you go. And cud saturns_bassman please leave a comment
telling me which tabs he has submitted on Ultimate Guitar thanks

Warning
Blood, Sex and booze
Church on Sunday 
Fashion Victim
Castaway
Misery
Deadbeat Holiday
Hold on
Jackass
Waiting
Minority
Macy's Day Parade
86 (Live in Prague) I think this track is only on special warning albums


------------------------------------------------------------------------------------
Green Day Warning
------------------------------------------------------------------------------------
Tuning: Standard

Main Riff
G|-------------------------------------------------------------------------|
D|----------0-0-2-4--5-5--4-2-0-0------------------------------------------|
A|--0-0-2-4-----------------------2-4--------------------------------------|
E|-------------------------------------------------------------------------|

Fill 1 (the bit on the 2nd verse where Billie sings 'or shut up and be a victim of authority'
G|-------------------------------------------------------------------------|
D|-------------------------------------------------------------------------|
A|-------------------------------------------------------------------------|
E|--55--55--7--------------------------------------------------------------|

Mini Bass solo
G|-------------------------------------------------------------------------|
D|-------------------------------------------------------------------------|
A|--0-4-0-------0-0-4-0----------------------------------------------------|
E|---------3-0-----------3-0-----------------------------------------------|

Order

Main riff             x16
Mini bass solo        x2
Main riff             x19
Mini bass solo        x6
Main riff             x 3
Fill 1                x 1
Main riff             x 9


------------------------------------------------------------------------------------
Green Day,  Blood, sex and booze.
------------------------------------------------------------------------------------
Tuning: Standard

  Intro
G|---------------------------------------------|
D|---------------------------------------------|
A|-7-7-7-7-7-7-7-7-7-7-7-7-7-7-7-7-------------|
E|---------------------------------------------|
 PM  * * * * * * * * * * * * * * * *

Verse
G|---------------------------------------------------------|
D|---------------------------------------------------------|
A|-7-7-7-7-7-7-7-7-7-7-7-3-3-3-3-3-3-3-3-3-3-3---3-3-------|
E|----------------------------------------------------0-0--|
 PM  * * * * * * * * * * * * * * * * * * * * * *

Chorus:
G|---------------------------------------------------|
D|---------------------------------------------------|
A|-4-4-4-4-4-4-4-7-7-7-7---------4-4-4-4-4-----------|
E|-----------------------0-0-0-0-----------5-5-5-5-7-|

Bridge
G|-----------------------------------------|
D|-----------------------------------------|
A|-7-7-7-7-7-7-7-4-4-4-4-4-4-4-4-----------|
E|-------------------------------5-5-5-5-7-|

Interlude
G|------------------------------------------------------------------|
D|------------------------------------------------------------------| x2
A|----------------------------------3-3-----3-----3-3-----3-3-------|
E|-0-0-7-7-0-0-7-7-0-0-7-7-0-0-7-7------3-3---3-3-----3-3-----3-3---|

Outro:
G|--------------------------------------------------------------------|
D|--------------------------------------------------------------------|
A|--7-7-7-7-7-7---5-5-5-5-5-5---4-4-4-4-4-4---3-3-3-3-3-3-------------|
E|----------------------------------------------------------7---------|

Order

Intro
Verse
Chorus
Bridge
Intro
Verse
Chorus
Bridge
Interlude
Chorus
Interlude
Outro


------------------------------------------------------------------------------------
Green Day Church On Sunday 
------------------------------------------------------------------------------------
Tuning: Standard
This song kicks everyone ones ass, yes-even urs

Main Riff
G|-----------------------------------------------|
D|-----------------------------------------------|
A|--------------------------5-5-5-5--7-7-7-7-7-7-|
E|--5-5-5-5-5-5-5-5-5-5-5-5----------------------|

Pre Chorus
G|------------------------------------------------|
D|------------------------------------------------|
A|----------------------------7-7-7-7-7-7-7-7-7-7-|
E|--2-2-2-2-\-5-5-5-5-5-5-5-5---------------------|

Chorus
G|-----------------------------|    G|-----------------------------| 
D|-----------------------------|    D|-----------------------------|
A|--0-0-0-0-0-0-0-0--5-5--7-7--| x3 A|-7-7-7-7-7-7----------------|
E|-----------------------------|    E|-----------------------------|
Interlude
G|------------------------------------|
D|------------------------------------|
A|------------------------------------|
E|-x-x-5-5--x-x-5-5--x-x-5-5--x-x-5-5-|

Outro
G|-----------------------------------|
D|-----------------------------------|
A|-----------------------------------|
E|--5-5-5-5-5-5-5-5-5-5-5-5-5-5-5-5~-|

G|-----------------------------------|
D|-----------------------------------|
A|-----------------------------------|
E|--5-5-5-5-5-5-5-5-5-5-5-5-5-5-5-7~-|

Order

Main Riff x6
Pre Chorus x2
Chorus 
Main Riff x5
Pre Chorus x2
Chorus x2
Main Riff x4
Interlude x 5
Chorus x2
Outro


------------------------------------------------------------------------------------
Green Day Fashion Victim
------------------------------------------------------------------------------------
Tuning: Standard

Intro
G|------------|
D|------------|  (x8)
A|------------|
E|-5-5--x-x-x-|

Verse
|---------------------------------------------------------------------------------|
|---------------------------------------------------------------------------------|
|-----------4-4-x-x-x---------------------5-5-x-x-x-4-4-x-x-x---------------------|
|-5-5-x-x-x-----------2-2-x-x-x-2-2-x-x-x---------------------0-0-x-x-x-0-0-x-x-x-|

|---------------------------------------------------------------------------------|
|---------------------------------------------------------------------------------|
|-----------4-4-x-x-x---------------------5-5-x-x-x-----------7-7-7-7-7-7-7-7-7-7-|
|-5-5-x-x-x-----------2-2-x-x-x-2-2-x-x-x-----------5-5-x-x-x---------------------|

|---------------------------------------------------------------------------------|
|---------------------------------------------------------------------------------|
|-----------4-4-x-x-x---------------------5-5-x-x-x-4-4-x-x-x---------------------|
|-5-5-x-x-x-----------2-2-x-x-x-2-2-x-x-x---------------------0-0-x-x-x-0-0-x-x-x-|

|---------------------------------------------------------------------------------|
|---------------------------------------------------------------------------------|
|-----------4-4-x-x-x---------------------5-5-x-x-x-----------7-7-7-7-7-7-7-7-7-7-|
|-5-5-x-x-x-----------2-2-x-x-x-2-2-x-x-x-----------5-5-x-x-x---------------------|

Chorus
|---------------------------------------------------------------------------------|
|---------------------------------------------------------------------------------|
|-2-2-2-2-2-2-2-2-2-2-2-2---------------------------------------------------------|
|-------------------------3-3-3-3-3-3-3-3-3-3-3-0-0-0-0-0-0-0-0-0-0-0-------------|

Bridge
|------------------------------------------------|
|------------------------------------------------|
|------------------------------------------------|
|-5-5-5-3-3-3-2-2-2-0-0-0--5-5-5-3-3-3-2-2-2-0-4-|

Outro
|-----------|
|-----------|
|---5---5---|
|-5---5---5-|


Order

Intro  
Verse
Intro
Verse 2
Chorus
Bridge
Intro
Verse 3
Chorus 2
Bridge 
Bridge
Intro  
Intro
Outro

------------------------------------------------------------------------------------
Green Day Castaway
------------------------------------------------------------------------------------
Tuning: Standard

h = hammer-on
p = pull-off
b = bend
/ = slide up
\ = slide down
5 = power chord
 
Intro 
G|---------------------------------------------------------------|  
D|---------------------------------------------------------------|   
A|-x-x-x-x---3-x-3-x-3-------------------3-3 --------------------|  
E|----------------------5-5---1-x-1-x-1--------------------------| 

Verse
G|---------------------------------------------------------------|    
D|---------------------------------------------------------------|   
A|-3-x-3-x-3-------------------3--3------------------------------| x4
E|------------5—5---1-x-1-x-1------------------------------------|

Pre-Chorus
G|------------------------------------------------------------------------|
D|------------------------------------------------------------------------|
A|-----------------3-x-3-x-3--2-3--3-x-3-x-3--2-3-------------------------| x2
E|-1-1-1-1-1-1-1-1----------------------------------3--1-1-1-1-1-1-1-1--3-|

Chorus
G|---------------------------------------------------------------|
D|--Intro x4----------------------intro x2-----------------------|
A|---------------------------------------------------------------|
E|----------------1~~---3~~--------------------------------------|

Solo
G|------------------------------(REST while guitar plays solo)---|
D|-verse--x2-----------------------------------------------------|
A|---------------------------------------------------------------|
E|---------------------------------------------------------------|

Order

Intro (x2 PM, x2 no PM)
Verse 1
Pre-Chorus
Chorus
Verse 2
Pre-Chorus
Chorus
Solo
Verse 1 (there is no guitar playing here)
Pre-Chorus
Chorus 
Verse x 4        

------------------------------------------------------------------------------------
Green Day Misery
------------------------------------------------------------------------------------
Tuning: 1/2 step down
This song is very cool and fun to play

Intro (played by some weird instrument)
e|---------------------------------------------------------------|
B|-/12-11-12-----8--------12-11-12--14-15----12------------------|
G|------------11---9-11-------------------15---------------------|
D|---------------------------------------------------------------|
A|---------------------------------------------------------------|
E|---------------------------------------------------------------|
						
e|---------------------------------------------------------------|
B|-------------------12--------------15-12-----------------------|
G|-11-11-10-9--11-12----11--11-12-11-----------------------------|
D|---------------------------------------------------------------|
A|---------------------------------------------------------------|
E|---------------------------------------------------------------|

Verse
G|---------------------------------------------------------------|
D|---------------------------------------------------------------|
A|-2----2----2----2----2----2-------1----1---2----2--------------|
E|---2----2----2----2----2----2---2----2-------2----2---0-----3--|

G|---------------------------------------------------------------|
D|---------------------------------------------------------------|
A|---1----1---2----2---------------------------------------------|
E|-2----2-------2----2-------------------------------------------|

Chorus
G|---------------------------------------------------------------|
D|---------------------------------------------------------------|
A|---1----1---2----2---------------------------------------------|
E|-2----2-------2----2-----0----3-----2--------------------------|

Bridge
G|---------------------------------------------------------------|
D|---------------------------------------------------------------|
A|-------2--------2--------2------2------------------------------|
E|-3--2-----3--2-----3--2------2-----2---3---2-------------------|

Solo
(Played on mandolin) play really fast
e|---------------------------------------------------------------|
B|-15-15-15-15-15--12--14--15-15-15-15-15--12--14--15------------|
G|-----------------------------------------------------11--------|
D|---------------------------------------------------------------|
A|---------------------------------------------------------------|
E|---------------------------------------------------------------|

e|---------------------------------------------------------------|
B|-15-15-15-15-17--14-15-11--15-14-12-14-15-14-12----11-12-14-15-|
G|-------------------------------------------------11------------|
D|---------------------------------------------------------------|
A|---------------------------------------------------------------|
E|---------------------------------------------------------------|
				 |guitar|
e|-----------------------------|---------------------------------|
B|-14-12---14--11-----15-14-12-|---------------------------------|
G|----------------11-----------|---------------------------------|
D|-----------------------------|-0--0-0--0---0-2-0---0-----------|
A|-----------------------------|-----------4-------4----4--1-----|
E|-----------------------------|------------------------------2--|

e|---------------------------------------------------------------|
B|---------------------------------------------------------------|
G|---------------------------------------------------------------|
D|-0-0-0-2-0---0-0----0------------------------------------------|
A|-----------4------4-----4--1---5-4-2---------------------------|
E|----------------------------2----------------------------------|

Order

Intro
Verse 1
Verse 2
Chorus 1
Intro
Verse 3
Verse 4
Intro
Chorus 2
Bridge
Solo
Chorus 3
Intro

------------------------------------------------------------------------------------
Green Day Deadbeat holiday
------------------------------------------------------------------------------------
Tuning: Standard

Verse 1 
G|--------------------------------------------------|
D|--------------------------------------------------|
A|----5-----3--------3--5------5-----3--------3--5--|
E|-3-----3-----3--0---------3-----3-----3--0--------|

Pre Chorus 
G|---------------------------------------------------------------------------|
D|---------------------------------------------------------------------------|
A|-2----2-3----3------3----------------------2-2-2-2-2-2-2-2-3-3-3-3-3-3-3-3-|
E|---------------3------3----0-0-0-0-0-0-0-0---------------------------------|
 Pm                              *********************************************

G|---------------------------------------------|
D|---------------------------------------------|
A|5-5-5-5-5-5-5-5------------------------------|
E|---------------------------------------------|

Chorus
G|---------------------------------------------------------------------------|
D|---------------------------------------------------------------------------|
A|-------------2-2-2-2-2-2-2-2-3-3-3-3-3-3-----------------3-3-3-3-3-3-------|
E|-3-3-3-3-3-3-----------------------------3-3-3-3-3-3-3-3-------------3-3-3-|

G|------------------------------------------------------------------|
D|------------------------------------------------------------------|
A|-----------------------5-5-5-5-5-5-5-5----------------------------|
E|-3-3-3-3-3-1-1-1-1-1-1--------------------------------------------|

Verse 
Note: im not 100% on the pm here just play what sounds right
G|---------------------------------------------------------------------------|
D|---------------------------------------------------------------------------|
A|---------------5-5-5-5-5-5-5---------------3-3-3-3-3-3-3-------------------|
E|-3-3-3-3-3-3-3---------------3-3-3-3-3-3-3---------------3-3-3-3-3-3-3-3-0-|
Pm   * *   * *   * * *   * * *   * * *   * *   * * *   *
 
G|-----------------------------------------------------------------|
D|-----------------------------------------------------------------|
A|---------------3-3-3-3-3-3-3-3-5-5-5-5-5-5-5-5-------------------|
E|-0-0-0-0-0-0-0---------------------------------------------------|

Pre Chorus 
G|---------------------------------------------------------------------------|
D|---------------------------------------------------------------------------|
A|-2---2--3---3------3-----------------------2-2-2-2-2-2-2-2-3-3-3-3-3-3-3-3-|
E|---------------3------3----0-0-0-0-0-0-0-0---------------------------------|
 Pm                              *******************************************

G|---------------------------------------------|
D|---------------------------------------------|
A|5-5-5-5-5-5-5-5------------------------------|
E|---------------------------------------------|


Order

Verse 1
Pre-Chorus 1
Chorus
Verse 2
Pre-Chorus 1
Chorus
Bridge (played by guitar)
Pre-Chorus 2
Chorus x2 (hold last note for about 15 extra measures)


------------------------------------------------------------------------------------
Green Day Hold on
------------------------------------------------------------------------------------
Tuning: Standard

Intro
G|---------------------------------------------------------------------------| 
D|---------------------------------------------------------------------------|
A|---------------------------------------------------------------------------| x2
E|-3-3--0-0--3-3--0-0--3-3--0-0----------------------------------------------|

Verse
G|----------------2-2-------------------2-2-------------------2-2--------2-2-|
D|----------------0-0-------------------0-0-------------------0-0--------0-0-|
A|---------------------------------------------------------------------------|
E|-3-3--0-0--3-3---------3-3--0-0--3-3---------3-3--0-0--3-3--------0-0------|

G|---------------------------------------------------------------------------|
D|---------------------------------------------------------------------------|
A|---------------------------------------------------------------------------|
E|-3-3--3-3-3-3--0-0-0-0-----------------------------------------------------|

G|----------------2-2-------------------2-2-------------------2-2--------2-2-|
D|----------------0-0-------------------0-0-------------------0-0--------0-0-|
A|---------------------------------------------------------------------------|
E|-3-3--0-0--3-3---------3-3--0-0--3-3---------3-3--0-0--3-3--------0-0------|

G|---------------------------------------------------------------------------|
D|---------------------------------------------------------------------------|
A|---------------------------------------------------------------------------|
E|-3-3--3-3-3-3--0-0-0-0-----------------------------------------------------|

Chorus
G|-----------------------2-2---------------------------------------------2-2-2-2-2-|
D|-----------------------0-0---------------------------------------------0-0-0-0-0-|
A|-2-2-2-2-2-------------------------------2-2-2-2------------3-3-3-3-3------------|
E|-0-0-0-0-0---3-3-3-3---------3-3-3-3-3---0-0-0-0---3-3-3-3-----------------------|

Solo (bass plays verse while guitar plays a note solo)

Order

Intro 
Verse 1 
Chorus
Intro
Verse 2
Chorus
Intro
Solo
Chorus 
Intro 
(end on G) |3|


------------------------------------------------------------------------------------
Green Day Jackass
------------------------------------------------------------------------------------
Tuning Standard

Intro
G|-------------------------------------------------------------------------------|
D|-------------------------------------------------------------------------------|
A|-3-3-2-2-0-0-0-0-0-0--3-3-2-2-0-0-0-0-0-0--3-3-2-2-0-0-0-0-0-0-5-5-5-5-5-5-5-5-|
E|-------------------------------------------------------------------------------|

Pre verse/bridge 1
G|--------------------------------------|
D|--------------------------------------|
A|---------------1-1--------------------|
E|-3-3-3-3-3-1-1------------------------|

Verse
G|------------------------------------------------------------------------|
D|------------------------------------------------------------------------|
A|-----------------------------------5-5-5-5-5-5-5-5-3-3-2-2-0-0-0-0-0-0--|
E|-3-3-3-3-3-3-3-3-3-3-3-3-3-3-3-3----------------------------------------|

G|-----------------------------------------------------------|
D|-----------------------------------------------------------|
A|-3-3-2-2-0-0-0-0-0-0--3-3-2-2-0-0-0-0-0-0--5-5-5-5-5-5-5-5-|
E|-----------------------------------------------------------|

Chorus
G|-----------------------------------------------------------------|
D|-----------------------------------------------------------------|
A|---------------------------------3-3-3-3-3-3-3-3-----------------|
E|-0-0-0-0-0-0-0-0-7-7-7-7-7-7-7-7-----------------3-3-3-3-2-2-2-2-|

G|-----------------------------------------------------------------|
D|-----------------------------------------------------------------|
A|---------------------------------3-3-3-3-3-3-3-3-5-5-5-5-5-5-5-5-|
E|-0-0-0-0-0-0-0-0-7-7-7-7-7-7-7-7---------------------------------|

  
Bridge 2                      Outro
e|-------------------|        e|-----------------------|
B|-------------------|        B|-----------------------|
G|-------------------|        G|-----------------------|
D|-------------------|        D|-----------------------|
A|-5-5-5-5-3-3-10-10-|        A|-3----2----0----0------|
E|-------------------|        E|---------------------0-|

Saxophone Solo (arranged for guitar)
E|-------------------------------------------------------|
B|-------------------------------------------------5-----|
G|-7--7--7--7--7--5--5--4--5---x3---7--7--7--7--7-----7--|
D|-0--0--0--0--0--0--0--0--0--------0--0--0--0--0--------|
A|-------------------------------------------------------|
E|-------------------------------------------------------|


Intro x1
Pre verse/bridge 1 x4
Verse x2
Chorus   
Verse
Chorus
Saxophone Solo with Bridge 2 x4 in background 
Bridge 2 x4 
Verse
Outro

--------------------------------------------------------------------------------------
Green Day Waiting
--------------------------------------------------------------------------------------
Tuning Standard

Intro (Guitar plays this - no bass or drums)


Verse  
G|---------------------------------------------------------------|
D|---------------------------------------------------------------|
A|---------------4-4-4-4-4-4-4----------------4-4-4-4-4-4-4------|  
E|-4-4-4-4-4-4------------------6-6-6-6-6-6----------------------|

Chorus
G|---------------------------------------------------------------|
D|---------------------------------------------------------------|
A|---------------------------------------------------------------|
E|-1-1-1-1-1-1---0-0-0-0-0-0---4-4-4-4-4-4---6-6-6-6-6-6-6-------|

Bridge
G|---------------------------------------------------------------|
D|---------------------------------------------------------------|
A|-4-4-4-----------4-4-4----(Drum Fill)--------------------------|
E|---------4-4-4-------------------------------------------------|

Bridge 2
G|--------------------------------------|--------------------------------|
D|--------------------------------------|--------------------------------|
A|-4-4-4-------4-4-4-------4---4---(x3)-|-4-4-4-------4---6-6-6-6-6-6-6--|
E|-------4-4-4-------4-4-4---4---4------|-------4-4-4---4----------------|

Solo (Bass plays this while Billie plays a note solo
G|---------------------------------------------------------------|
D|---------------------------------------------------------------| 
A|---------------4-4-4-4-4-4-4----------------4-4-4-4-4-4-4------| 
E|-4-4-4-4-4-4------------------6-6-6-6-6-6----------------------|

G|---------------------------------------------------------------|
D|---------------------------------------------------------------| 
A|---------------4-4-4-4-4-4-4----------------4-4-4-4-4-4-4------| 
E|-4-4-4-4-4-4------------------6-6-6-6-6-6----------------------|

G|---------------------------------------------------------------|
D|---------------------------------------------------------------|
A|---------------------------------------------------------------|
E|-1-1-1-1-1-1---0-0-0-0-0-0---4-4-4-4-4-4---6-6-6-6-6-6-6-------|


Play Bridge 2 again
Interlude (played by guitar - no bass or drums)
Play verse again but only three times not four

Outro
G|---------------------------------------------------------------|
D|---------------------------------------------------------------|
A|---------------4-4-4-4-4-4-4----------------4~~~---------------|
E|-4-4-4-4-4-4------------------6-6-6-6-6-6----------------------|


Order

Intro (Guitar plays this - no bass or drums)
Verse x4
Chorus
Bridge
Verse x4
Chorus
Bridge 2
Solo
Bridge 2
Interlude (played by guitar - no bass or drums)
Verse x3
Outro

--------------------------------------------------------------------------------------
Green Day Minority
--------------------------------------------------------------------------------------
Tuning: Standard

Intro (Played by guitar - no bass)

Chorus
Only play the scratches on the first time
G|--------------------------------------------------------|
D|--------------------------------------------------------|
A|-x-x-3-3-3-3--------------------------------------------|
E|--------------1-1-1-1--3-3-3-3--1-1-1-1-----------------|
   
Verse
G|-------------------------------------|-------------------------------------|
D|---2-2-----------3-3-2-2-0-0---------|---2-2-------------------------------|
A|-3----------2-2--------------3-3-2-2-|-3----------2-2----------------------|
E|--------3-3--------------------------|--------3-3------1-1--0-0--1-1—-3-3--|
 
G|-------------------------------------|-------------------------------------|
D|---2-2-----------3-3-2-2-0-0---------|---2-2---3-3--2-2--------------------|
A|-3----------2-2--------------3-3-2-2-|-3--------------------2-2-2-3--------|
E|--------3-3--------------------------|------------------3-3--------—-------|
   
Bridge
G|-----------------------------------|---------------------------------------|
D|---------------2--3-3-3-3----------|---------------------------------------|
A|-0-0-0-0-0-0-0-------------3-3-3-3-|-0-0-0-0-0-0-0-------------------------|
E|-----------------------------------|----------------0--1-1-1-1--3-3-3-3----|

G|-----------------------------------|----------------------------------------------|
D|---------------2--3-3-3-3----------|----------------------------------------------|
A|-0-0-0-0-0-0-0-------------3-3-3-3-|-0-0-0-0-0-0-0------------------------------2-|
E|-----------------------------------|---------------1--3-3-x-x-3-3-x-x-3-3-3-3-3---|

Outro (Played by guitar - no bass)


Intro  (acoustic guitar)
Chorus x4
Verse
Chorus x4
Bridge
Verse 
Chorus x4
Bridge 
Verse (again with accordion)
Chorus x4
Chorus x4 (while Billie plays a note solo)
Outro (acoustic guitar)


------------------------------------------------------------------------------------
Green Day Macy's Day Parade
------------------------------------------------------------------------------------
Tuning: Standard
Note: very simple song I think this tab is right it only took 2mins to write it
So it might have one or two errors

Verse
G|--------------------------------------------------------------------|
D|--------------------------------------------------------------------|
A|--2-2-x-2-2-2-x-2-2-2-x-2-2-2-x-------------------------------------|
E|--------------------------------4-4-x-4-4-4-x-4-4-4-x-4-4-4-x-------|

G|--------------------------------------------------------------------|
D|--------------------------------------------------------------------|
A|------------------------------2-2-x-2-2-2-x-2-2-2-x-2-2-2-x---------|
E|--0-0-x-0-0-0-x-2-2-x-2-2-2-x---------------------------------------|

Chorus
G|--------------------------------------------------------------------|
D|--------------------------------------------------------------------|
A|--7-7-x-7-7-7-x-7-7-7-x-7-7-7-x-9-9--x-9-9-9--x-9-9-9--x-9-9-9--x---|
E|--------------------------------------------------------------------|

G|--------------------------------------------------------------------|
D|--------------------------------------------------------------------|
A|--7-7-x-7-7-7-x-7-7-7-x-7-7-7-x-------------------------------------|
E|--------------------------------2-2-x-2-2-2-x-2-2-2-x-2-2-2-x-------|

Bridge ('Because I'm thinking about a brand new hope...')
G|--------------------------------------------------------------------|
D|--------------------------------------------------------------------|
A|--------------------------------------------------------------------|
E|--7-7-6-6-4-4-2-2-0-0-0-0-0-0-0-0-2-2-2-2-2-------------------------|

Order

Verse
Chorus
Verse
Chorus
Bridge
Verse
Chorus
Bridge
Bridge
Bridge
Verse (only the first top bar)


------------------------------------------------------------------------------------
Green Day 86 (live in Prague)
------------------------------------------------------------------------------------
Tuning: 1/2 step down
One of the greatest songs of the warning album and also one of the easiest to play, ENJOY!  

Intro/chorus
G|-----------------------------------------------------------------|
D|-----------------------------------------------------------------|
A|-7-7-7-7-7-7-7---------------------------------------------------|
E|----------------4-4-4-4-4-4-5-5-5-5-5-5-5-5-5-5-5-5-5-5----------|

Verse
G|-----------------------------------------------------------------------|
D|-----------------------------------------------------------------------|
A|-----------------------------------------------------------------------|
E|-0-0-0-0-0-0-0-0-0-0-0-0-0-0-0--7-7-7-7-7-7-7-7-7-7-7--5-5-5-5-5-5-5-5-|
pm * * * * * * * * * *   * * *    * * *   * * * *   * *  * * * *   * * *  

G|----------------------------------------------------------------------------|
D|----------------------------------------------------------------------------|
A|----------------------------------------------------------------------------|
E|-0-0-0-0-0-0-0-0-0--5-5--0-0-0-0-0-0-0-0-0-0--7-7-7-7-7-7-7-7-5-5-5-5-5-5-5-|
PM * * * * * * * * *       * * * *   * * * * *  * * * *   * * *

G|------------------------------------------|
D|------------------------------------------|
A|------------------------------------------|
E|-0-0-0-0-0-0-0-0-0-0-0-0-----7-7----------|

Interlude
G|------------------------------------------------------------------------|
D|------------------------------------------------------------------------|
A|------------------------------------------------------------------------|
E|-7-7-7-7-7-7-7-7-7-7-7-7-7-5-5-5-5-5-5-5-5-5-5-5-5----------------------|

Bridge
G|------------------------------------------------------------------------|
D|------------------------------------------------------------------------|
A|-7-7-7-7-7-7-7----------------------------------------------------------|
E|----------------4-4-4-4-4-4-5-5-5-5-5-5-5-5-5-5-5-5-5-5-----------------|

Bridge 2
E|------------------------------------------------------------------------|
B|------------------------------------------------------------------------|
G|------------------------------------------------------------------------|
D|-9-9-9-9-9-9-9-9-9--7---------2-2-0--9-9-9-9-9-9-7-7-7-7-7-7-7-7-7-7-7--|
A|-9-9-9-9-9-9-9-9-7--7--2-2-0---------9-9-9-9-9-9-7-7-7-7-7-7-7-7-7-7-7--|
E|-7-7-7-7-7-7-7-7-7--5----------------7-7-7-7-7-7-5-5-5-5-5-5-5-5-5-5-5--|

End
G|---------------------------------------------------|
D|---------------------------------------------------|
A|---------------------------------------------------|
E|-7-7-7-7-7-7-----5---------------------------------|

Order

Guitar Pick Slide
Intro x2
Verse
Interlude x2
Chorus     x4
Verse
Interlude x2
Chorus     x4
Bridge     x4
Bridge 2
Chorus
End


And there it is Green Day Warning
If you would like some more Green Day bass tabs that sound good just leave 
a comment and I will see what I can do.

Cud you please rate this tab if you like it, thanks


Tab Notation

b = bend
h = hammer-on
p = Pull-off
x = scratch
~ = Let ring
Pm *** = palm mute  (the chord with a * under it you palm mute
comments
print report bad tab
21 comments total. Showing first comments.
0 reply
saturns_bassman wrote on January 10 2005, 12:00 am

here you go,my list of tabs ive submitted:
beatles-in my life(ver.2)
bowling for soup-1985
def leppard-armageddon it
photograph
pour some sugar on me
pour some sugar on me(ver.2)
stand up
tonight
wasted
jackson,alan-remember when
lonestar-amazed(ver.2)
montgomery,john,michael-i swear
relient k-pressing on(ver.4)
toto-hold the line

0 reply
Liam wrote on January 11 2005, 12:00 am

those tabs are all crap, they suck my ass. I can playbass better than youand bass isnt even my first instrument.u ***in suck

0 reply
saturns_bassman wrote on January 15 2005, 12:00 am

yea ok sorry for bein a *** to you

I want to post or [tab]
guest
You may want to rate the tab now too:
select rating
Please do not post tabs as comments. Select "correction" instead!