Oops, an error
Loading. Please wait.

Wild One Tab

ver1
ver1

Whole song

Interactive

Video

More versions @911Tabs.com
20,502 views 42 this week
no commentswrite comment
1 2 3 4 5
excellent!
x 18
Autoscroll
+/-
esc
set tempo
stop
Difficulty
novice
Hey! There's an official Ultimate Guitar app which is ideal
for learning songs when you're away from computer. Get the app
WARNING: You are trying to view
                                    content from Ultimate-Guitar.com
                                    in an unauthorized application,
                                    which is prohibited.

                                    Please use an official Ultimate
                                    Guitar Tabs application for iPhone,
                                    iPad or Android to access legitimate
                                    chords, guitar, bass, and drum tabs
                                    from Ultimate-Guitar.com database.

                                    Type "ultimate guitar tabs" in Apple
                                    App Store's or Android Market's
                                    search to find the application.

INTRO
Guitar 1
e|-------------------------------------------------------------------------------|
B|-------------------------------------------------------------------------------|
G|-------------------6666666666666666-77777777-1010101010101010------------------|
D|--7777777777777777-6666666666666666-77777777-1010101010101010-777777777777-7~~-|
A|--7777777777777777-4444444444444444-55555555-8-8-8-8-8-8-8-8--777777777777-7~~-|
E|--5555555555555555--------------------------------------------555555555555-5~~-|

Guitar 2
e|------------------------------------------------------------------------------------|
B|--5--x-55--x-555555-9pb99-666666666666-9pb999-77777777-6pb6666666-5pb55555555555-5\-|
G|------------------------------------------------------------------------------------|
D|------------------------------------------------------------------------------------|
A|------------------------------------------------------------------------------------|
E|------------------------------------------------------------------------------------|

VERSE (BOTH GUITARS)

e|----------------------------------------------------------|
B|----------------------------------------------------------|
G|--------------------------6~-x-66~-x-66~-x-66~-x-67~-x-77~|
D|--7~-x-77~-x-77~-x-77~-x-76~-x-66~-x-66~-x-66~-x-67~-x-77~|
A|--7~-x-77~-x-77~-x-77~-x-74~-x-44~-x-44~-x-44~-x-45~-x-55~|
E|--5~-x-55~-x-55~-x-55~-x-5--------------------------------|

--------------------------------------------|
--------------------------------------------|
-x-710~-x-1010~-x-10------------------------|
-x-710~-x-1010~-x-107~-x-77~-x-77~-x-77~-xx-|
-x-58-~-x-8-8-~-x-8-7~-x-77~-x-77~-x-77~-xx-|
--------------------5~-x-55~-x-55~-x-55~-xx-|

PRE-CHORUS (BOTH GUITARS)
e|-------------------------------------------------------------------------------|
B|-------------------------------------------------------------------------------|
G|-------------------6666666666666666-77777777-1010101010101010------------------|
D|--7777777777777777-6666666666666666-77777777-1010101010101010-7777777777777777-|
A|--7777777777777777-4444444444444444-55555555-8-8-8-8-8-8-8-8--7777777777777777-|
E|--5555555555555555--------------------------------------------5555555555555555-|

CHORUS (BOTH GUITARS)
e|--------------------------------------------------------------------------|
B|--------------------------------------------------------------------------|
G|--77777777----------77777777----------------------------------------------|
D|--77777777-77777777-77777777-77777766-44444444-77777777-55555555-222222xx-|
A|--55555555-77777777-55555555-77777766-44444444-77777777-55555555-222222xx-|
E|-----------55555555----------55555544-22222222-55555555-33333333-000000xx-|

INTERLUDE
Guitar 1
e|-------------------------------------------------------------------------------|
B|-------------------------------------------------------------------------------|
G|-------------------6666666666666666-77777777-1010101010101010------------------|
D|--7777777777777777-6666666666666666-77777777-1010101010101010-777777777777-7~~-|
A|--7777777777777777-4444444444444444-55555555-8-8-8-8-8-8-8-8--777777777777-7~~-|
E|--5555555555555555--------------------------------------------555555555555-5~~-|

Guitar 2
e|------------------------------------------------------------------------------------|
B|--5--x-55--x-555555-9pb99-666666666666-9pb999-77777777-6pb6666666-5pb55555555555-5\-|
G|------------------------------------------------------------------------------------|
D|------------------------------------------------------------------------------------|
A|------------------------------------------------------------------------------------|
E|------------------------------------------------------------------------------------|

VERSE 2 (BOTH GUITARS)

e|-----------------------------------------------------------------|
B|-----------------------------------------------------------------|
G|--------------------------6~-x-66~-x-66~-x-66~-x-67~-x-77~-x-710~|
D|--7~-x-77~-x-77~-x-77~-x-76~-x-66~-x-66~-x-66~-x-67~-x-77~-x-710~|
A|--7~-x-77~-x-77~-x-77~-x-74~-x-44~-x-44~-x-44~-x-45~-x-55~-x-58-~|
E|--5~-x-55~-x-55~-x-55~-x-5---------------------------------------|

-------------------------------------|
-------------------------------------|
-x-1010~-x-10------------------------|
-x-1010~-x-107~-x-77~-x-77~-x-77~-xx-|
-x-8-8-~-x-8-7~-x-77~-x-77~-x-77~-xx-|
-------------5~-x-55~-x-55~-x-55~-xx-|


PRE-CHORUS (BOTH GUITARS)
e|-------------------------------------------------------------------------------|
B|-------------------------------------------------------------------------------|
G|-------------------6666666666666666-77777777-1010101010101010------------------|
D|--7777777777777777-6666666666666666-77777777-1010101010101010-7777777777777777-|
A|--7777777777777777-4444444444444444-55555555-8-8-8-8-8-8-8-8--7777777777777777-|
E|--5555555555555555--------------------------------------------5555555555555555-|

CHORUS (BOTH GUITARS)
e|--------------------------------------------------------------------------|
B|--------------------------------------------------------------------------|
G|--77777777----------77777777----------------------------------------------|
D|--77777777-77777777-77777777-77777766-44444444-77777777-55555555-222222xx-|
A|--55555555-77777777-55555555-77777766-44444444-77777777-55555555-222222xx-|
E|-----------55555555----------55555544-22222222-55555555-33333333-000000xx-|

PRE-SOLO
Guitar 1
e|-------------------------------------------------------------------------------|
B|-------------------------------------------------------------------------------|
G|-------------------6666666666666666-77777777-1010101010101010------------------|
D|--7777777777777777-6666666666666666-77777777-1010101010101010-777777777777-7~~-|
A|--7777777777777777-4444444444444444-55555555-8-8-8-8-8-8-8-8--777777777777-7~~-|
E|--5555555555555555--------------------------------------------555555555555-5~~-|

Guitar 2
e|-------------------------------------------------------------------------------------|
B|--5--x-55--x-555555-9pb99-666666666666-9pb999-77777777-6pb6666666-5pb55555555555-5~~-|
G|-------------------------------------------------------------------------------------|
D|-------------------------------------------------------------------------------------|
A|-------------------------------------------------------------------------------------|
E|-------------------------------------------------------------------------------------|

SOLO
Guitar 1
e|-------------------------------------------------------------------------|
B|-------------------------------------------------------------------------|
G|--------------------------6~-x-66~-x-66~-x-66~-x-67~-x-77~-x-710~-x-1010~|
D|--7~-x-77~-x-77~-x-77~-x-76~-x-66~-x-66~-x-66~-x-67~-x-77~-x-710~-x-1010~|
A|--7~-x-77~-x-77~-x-77~-x-74~-x-44~-x-44~-x-44~-x-45~-x-55~-x-58-~-x-8-8-~|
E|--5~-x-55~-x-55~-x-55~-x-5-----------------------------------------------|

-----------------------------|
-----------------------------|
-x-10------------------------|
-x-107~-x-77~-x-77~-x-77~-xx-|
-x-8-7~-x-77~-x-77~-x-77~-xx-|
-----5~-x-55~-x-55~-x-55~-xx-|

e|-------------------------------------------------------------------------------|
B|-------------------------------------------------------------------------------|
G|-------------------6666666666666666-77777777-1010101010101010------------------|
D|--7777777777777777-6666666666666666-77777777-1010101010101010-7777777777777777-|
A|--7777777777777777-4444444444444444-55555555-8-8-8-8-8-8-8-8--7777777777777777-|
E|--5555555555555555--------------------------------------------5555555555555555-|

Guitar 2
e|---------------------------------------------------------------|
B|---------------------------------------------------------------|
G|--6-9-6pbr-6-4-2-6-9-6pbr-6-4-2-4-2~-4-4pbr-2-------2/6\2/6pbr-|
D|----------------------------------------------3-2~~------------|
A|---------------------------------------------------------------|
E|---------------------------------------------------------------|

e|-------------------------------------------------------------------------|
B|--5--x-55-x-555555-13pb1313-999999999999-13b131312-101010101010-12121212-|
G|-------------------------------------------------------------------------|
D|-------------------------------------------------------------------------|
A|-------------------------------------------------------------------------|
E|-------------------------------------------------------------------------|

-------------------------12------------|
-13131313-12-10-12-10-12----12-10-12pb-|
---------------------------------------|
---------------------------------------|
---------------------------------------|
---------------------------------------|


LAST CHORUS
Guitar 1
e|--------------------------------------------------------------------------|
B|--------------------------------------------------------------------------|
G|--77777777----------77777777----------------------------------------------|
D|--77777777-77777777-77777777-77777766-44444444-77777777-55555555-222222xx-|
A|--55555555-77777777-55555555-77777766-44444444-77777777-55555555-222222xx-|
E|-----------55555555----------55555544-22222222-55555555-33333333-000000xx-|

e|-------------------------------------------------------------------------------|
B|-------------------------------------------------------------------------------|
G|-------------------6666666666666666-77777777-1010101010101010------------------|
D|--7777777777777777-6666666666666666-77777777-1010101010101010-7777777777777777-|
A|--7777777777777777-4444444444444444-55555555-8-8-8-8-8-8-8-8--7777777777777777-|
E|--5555555555555555--------------------------------------------5555555555555555-|

e|-------------------------------------------|
B|-------------------------------------------|
G|--77777777-1010101010101010----------------|
D|--77777777-1010101010101010-7~-x-77~-x-77~-|
A|--55555555-8-8-8-8-8-8-8-8--7~-x-77~-x-77~-|
E|----------------------------5~-x-55~-x-55~-|

Guitar 2
e|--------------------------------------------------------------------------|
B|--------------------------------------------------------------------------|
G|--77777777----------77777777----------------------------------------------|
D|--77777777-77777777-77777777-77777766-44444444-77777777-55555555-222222xx-|
A|--55555555-77777777-55555555-77777766-44444444-77777777-55555555-222222xx-|
E|-----------55555555----------55555544-22222222-55555555-33333333-000000xx-|

e|-------------------------------------------------------------------------------------|
B|--5--x-55--x-555555-9pb99-666666666666-9pb999-77777777-6pb6666666-5pb55555555555-5~~-|
G|-------------------------------------------------------------------------------------|
D|-------------------------------------------------------------------------------------|
A|-------------------------------------------------------------------------------------|
E|-------------------------------------------------------------------------------------|

e|-------------------------------------|
B|--77777777-6pb6666666----------------|
G|-------------------------------------|
D|----------------------7~-x-77~-x-77~-|
A|----------------------7~-x-77~-x-77~-|
E|----------------------5~-x-55~-x-55~-|
comments
print report bad tab
I want to post or [tab]
guest
You may want to rate the tab now too:
select rating
Please do not post tabs as comments. Select "correction" instead!