Oops, an error
Loading. Please wait.

Three Little Pigs Tab

ver4
ver4

Intro

Whole song

Interactive

More versions @911Tabs.com
4,597 views 12 this week
1 commentread comment
1 2 3 4 5
accurate
x 6
Autoscroll
+/-
esc
set tempo
stop
Contributor
WARNING: You are trying to view
                                    content from Ultimate-Guitar.com
                                    in an unauthorized application,
                                    which is prohibited.

                                    Please use an official Ultimate
                                    Guitar Tabs application for iPhone,
                                    iPad or Android to access legitimate
                                    chords, guitar, bass, and drum tabs
                                    from Ultimate-Guitar.com database.

                                    Type "ultimate guitar tabs" in Apple
                                    App Store's or Android Market's
                                    search to find the application.
#----------------------------------PLEASE NOTE---------------------------------#
#This file is the author's own work and represents their interpretation of the #
#song. You may only use this file for private study, scholarship, or research. #
#------------------------------------------------------------------------------##

                                THREE LITTLE PIGS
                           As recorded by Green Jello
                 (From the 1992 Album CEREAL KILLER SOUNDTRACK)

Words and Music by Bill Manspeaker and Marl Levinthal


Gtr I (E A D G B E) - 'Untitled'
Gtr II (E A D G B E) - 'Untitled'
Gtr III (E A D G B E) - 'Untitled'
Gtr IV (E A D G B E) - 'Drums'

 Intro
  Freely Q=150
  N.C.
 6/4
  Gtr I
            <
            |----6----| |----6----|
  W         S S S S S S S S S S S S
|-----------7p4p0h7p4p0h7p4p0h7p4p0h|
|-----------------------------------|
|-----------------------------------|
|-----------------------------------|
|-----------------------------------|
|-----------------------------------|
|
| Gtr II
| <
| ~~~~~~~~~~~~~~~~~~~~~~~~~~~~~~~~~~~
| W        +H
|-----------------------------------|
|-----------------------------------|
|-4--------(4)----------------------|
|-----------------------------------|
|-----------------------------------|
|-----------------------------------|
|
| Gtr III
|           <
|           ~~~~~~~~~~~~~~~~~~~~~~~~~
| W         H
|-----------------------------------|
|-----------------------------------|
|-----------------------------------|
|-----------0s======================|
|-----------0s======================|
|-----------0s======================|


   |----6----| |----6----|  |----6-----| |----6----| |----6----| |----6----|
   S S S S S S S S S S S S  S  S S S S S S S S S S S S S S S S S S S S S S S
|--7p4p0h7p4p0h7p4p0h7p4p0h=7p=4p0h7p4p0h7p4p0h7p4p0h7p4p0h7p4p0h7p4p0h7p4p0h=|
|-----------------------------------------------------------------------------|
|-----------------------------------------------------------------------------|
|-----------------------------------------------------------------------------|
|-----------------------------------------------------------------------------|
|-----------------------------------------------------------------------------|
|
|~~~~~~~~~~~~~~~~~~~~~~~~~~~~~~
| +H                       +W
|-----------------------------------------------------------------------------|
|-----------------------------------------------------------------------------|
|-(4)----------------------(4)------------------------------------------------|
|-----------------------------------------------------------------------------|
|-----------------------------------------------------------------------------|
|-----------------------------------------------------------------------------|
|
|~~~~~
|  W.
|-----------------------------------------------------------------------------|
|-----------------------------------------------------------------------------|
|-----------------------------------------------------------------------------|
|--5s=========================================================================|
|--5s=========================================================================|
|--5s=========================================================================|


  N.C.
   |-3-| |----6----| |----6----| |----6----| |----6----| |----6----| |-3-|
   S S S S S S S S S S S S S S S S S S S S S S S S S S S S S S S S S S S S
|--7p4p0h8p5p0h8p5p0h8p5p0h8p5p0h8p5p0h8p5p0h8p5p0h8p5p0h8p5p0h8p5p0h8p5p0h=|
|---------------------------------------------------------------------------|
|---------------------------------------------------------------------------|
|---------------------------------------------------------------------------|
|---------------------------------------------------------------------------|
|---------------------------------------------------------------------------|
|
|  ~~~
| +W.
|---------------------------------------------------------------------------|
|---------------------------------------------------------------------------|
|-(4)-----------------------------------------------------------------------|
|---------------------------------------------------------------------------|
|---------------------------------------------------------------------------|
|---------------------------------------------------------------------------|
|
|  ~~~
|  W.
|---------------------------------------------------------------------------|
|---------------------------------------------------------------------------|
|---------------------------------------------------------------------------|
|--8s=======================================================================|
|--8s=======================================================================|
|--8s=======================================================================|


  N.C.
   |--3---|  |-----6-----| |----6----| |----6----| |----6----| |----6----| |-3-|
   S S    S  S  S S  S S S S S S S S S S S S S S S S S S S S S S S S S S S S S S
|--8p5p===0h=9p=6p0h=9p6p0h9p6p0h9p6p0h9p6p0h9p6p0h9p6p0h9p6p0h9p6p0h9p6p0h9p6p0h===|
|-----------------------------------------------------------------------------------|
|-----------------------------------------------------------------------------------|
|-----------------------------------------------------------------------------------|
|-----------------------------------------------------------------------------------|
|-----------------------------------------------------------------------------------|
|
|  E         Q.                  W
|-----------------------------------------------------------------------------------|
|-----------------------------------------------------------------------------------|
|--4--------------------------------------------------------------------------------|
|-----------------------------------------------------------------------------------|
|-----------------------------------------------------------------------------------|
|-----------------------------------------------------------------------------------|
|
|  ~~~~~~~           ~~~~~~~~~~~~~~~
|  S    S    E       Q           W
|-----------------------------------------------------------------------------------|
|-----------------------------------------------------------------------------------|
|-----------------------------------------------------------------------------------|
|-12s==15---(0)-----15s==========7s=================================================|
|-12s==15---(0)-----15s==========7s=================================================|
|-12s==15---(0)-----15s==========7s=================================================|


  N.C.
   |-3-| |----6----|  |----6-----|  |----6-----|  |----6-----|  |------6-------|  |--3--|
   S S S S S S S S S  S S S  S S S  S S S  S S S  S S S  S S S  S S   S  S S   S  S S   S
|--9p6p0h9p6p0h9p6p0h10p7p0h10p7p0h10p7p0h10p7p0h10p7p0h10p7p0h10p7p==0h10p7p==0h10p7p==0h=|
|------------------------------------------------------------------------------------------|
|------------------------------------------------------------------------------------------|
|------------------------------------------------------------------------------------------|
|------------------------------------------------------------------------------------------|
|------------------------------------------------------------------------------------------|
|
|  W                                                     E      S   S    S   S    S   S
|------------------------------------------------------------------------------------------|
|------------------------------------------------------------------------------------------|
|---------------------------------------------------------------3---4----3---4----3---4----|
|------------------------------------------------------------------------------------------|
|------------------------------------------------------------------------------------------|
|------------------------------------------------------------------------------------------|
|
|  ~~~
|  W.
|------------------------------------------------------------------------------------------|
|------------------------------------------------------------------------------------------|
|------------------------------------------------------------------------------------------|
|-10s======================================================================================|
|-10s======================================================================================|
|-10s======================================================================================|


  N.C.
   |--3--|  |------6-------|  |--3--|  |--------6---------|  |----6-----|  |----6-----|  |----6-----|
   S S   S  S S   S  S S   S  S S   S  S S   S    S   S   S  S S S  S S S  S S S  S S S  S S S  S S S
|-10p7p==0h10p7p==0h10p7p==0h10p7p==0h11p8p==0h==11p==8p==0h11p8p0h11p8p0h11p8p0h11p8p0h11p8p0h11p8p0h=|
|------------------------------------------------------------------------------------------------------|
|------------------------------------------------------------------------------------------------------|
|------------------------------------------------------------------------------------------------------|
|------------------------------------------------------------------------------------------------------|
|------------------------------------------------------------------------------------------------------|
|
|                                                            |----6-----|  |----6-----|  |----6-----|
|  S   S    S   S    S   S    S   S    S   T   T  T T   S    S S S  S S S  S S S  S S S  S S S  S S S
|------------------------------------------------------------------------------------------------------|
|------------------------------------------------------------------------------------------------------|
|--3---4----3---4----3---4----3---4----3---4---3--4-3---0----4-3-0--4-3-0--4-3-0--4-3-0--4-3-0--4-3-0--|
|------------------------------------------------------------------------------------------------------|
|------------------------------------------------------------------------------------------------------|
|------------------------------------------------------------------------------------------------------|
|
|  ~~~
|  W.
|------------------------------------------------------------------------------------------------------|
|------------------------------------------------------------------------------------------------------|
|------------------------------------------------------------------------------------------------------|
|-15s==================================================================================================|
|-15s==================================================================================================|
|-15s==================================================================================================|


  N.C.
   |------6------|  |------6-------|  |-3-|  |------6-------|  |----6-----|  |----6-----|  |-3-|
   S    S S  S S S  S     S S  S S S  S S S  S     S S  S S S  S S S  S S S  S S S  S S S  S S S
|-11p===8p0h11p8p0h11p====8p0h11p8p0h11p8p0h12p====9p0h12p9p0h12p9p0h12p9p0h12p9p0h12p9p0h12p9p0h=|
|-------------------------------------------------------------------------------------------------|
|-------------------------------------------------------------------------------------------------|
|-------------------------------------------------------------------------------------------------|
|-------------------------------------------------------------------------------------------------|
|-------------------------------------------------------------------------------------------------|
|
|  Q               +Q.                      +H                               Q.
|-------------------------------------------------------------------------------------------------|
|-------------------------------------------------------------------------------------------------|
|--0tr4------------(0tr4)-------------------(0tr4)------------------------------------------------|
|-------------------------------------------------------------------------------------------------|
|-------------------------------------------------------------------------------------------------|
|-------------------------------------------------------------------------------------------------|
|
|  ~~~~~~~~~~~~~~~~~~~~~~~~~~~~~~~~~~~~~~
|  H                                  W
|-------------------------------------------------------------------------------------------------|
|-------------------------------------------------------------------------------------------------|
|-------------------------------------------------------------------------------------------------|
|-17s================================18s==========================================================|
|-17s================================18s==========================================================|
|-17s================================18s==========================================================|


  N.C.
 9/8
   |-3-|  |-----6------|  |-----6------|  |-----6------|
   S S S  S  S S  S  S S  S  S S  S  S S  S  S S  S  S S  E.    S
|-12p9p0h13p10p0h13p10p0h13p10p0h13p10p0h13p10p0h13p10p0h15-------|
|-----------------------------------------------------------------|
|-----------------------------------------------------------------|
|-----------------------------------------------------------------|
|-----------------------------------------------------------------|
|-----------------------------------------------------------------|
|
|  W                                                          E
|-----------------------------------------------------------------|
|-----------------------------------------------------------------|
|-----------------------------------------------------------------|
|-----------------------------------------------------------------|
|-----------------------------------------------------------------|
|-----------------------------------------------------------------|
|
|  ~~~~~~~~~~~~~~~~~~~~~~~~~~~~~~~~~~~~~~~~~~~~~~~~~~~~~~~~~~~~~
|  W                                                          E
|-----------------------------------------------------------------|
|-----------------------------------------------------------------|
|-----------------------------------------------------------------|
|-24s========================================================29---|
|-24s========================================================29---|
|-24s========================================================29---|


  N.C.(F#)                  E5
 14/4
   Q    H       Q    H       H.       E  E  S   S Q.  H
|-11-----------11-----------14-----------------10s9s==0----||
|-10-----------10-----------13-------13s12s11S=10s9s==0----||
|--9------------9-----------12-----------------------------||
|--8------------8-----------11-----------------------------||
|----------------------------------------------------------||
|----------------------------------------------------------||
|
|  Q    H       Q    H       W              W
|--5------------6------------8-----------------------------||
|--4------------5------------7-----------------------------||
|--3------------4------------6-----------------------------||
|--2------------3------------5-----------------------------||
|----------------------------------------------------------||
|----------------------------------------------------------||
|
|  Q   +H       Q   +H       W             +W
|----------------------------------------------------------||
|----------------------------------------------------------||
|----------------------------------------------------------||
|----------------------------2-------------(2)-------------||
|----------------------------2-------------(2)-------------||
|-14--(14)\----14--(14)\-----0-------------(0)-------------||


      Moderately Slow Rock H=74
 2/2
                            Gtr IV
  +H     H       H            E  E E E
|-(0)---------|------------------------|
|-(0)---------|---------------1----1---|
|-------------|------------------------|
|-------------|------------------1---1-|
|-------------|------------------------|
|-------------|------------------------|
|
|  W             W
|-------------|------------------------|
|-------------|------------------------|
|-------------|------------------------|
|-------------|------------------------|
|-------------|------------------------|
|-------------|------------------------|
|
|                \0.5_________|
| +W            +Q      +Q   +Q.     E
|-------------|------------------------|
|-------------|------------------------|
|-------------|------------------------|
|-(2)---------|-(2)-----(2)--(2)-------|
|-(2)---------|-(2)-----(2)--(2)-------|
|-(0)---------|-(0)-----(0)--(0)-------|


 Main Riff
  F#5A5 C5       DbC5A5C5     F#5A5 C5       DbC5A5C5
  Gtr I
  q  q  H      E E E E H      q  q  H      E E E E  H
|------------|--------------|------------|----------------------|
|------------|--------------|------------|----------------------|
|----2--5----|-5-6-5-2-5----|----2--5----|-5-6-5-2--5-----------|
|-4--2--5----|-5-6-5-2-5----|-4--2--5----|-5-6-5-2--5-----------|
|-4--0--3----|--------------|-4--0--3----|----------------------|
|-2----------|--------------|-2----------|----------------------|
|
|                                                      ~~
| W            W              W            H        E  Q   +E
|------------|--------------|------------|----------------------|
|------------|--------------|------------|----------------------|
|------------|--------------|------------|---------11h17--(17)\-|
|------------|--------------|------------|----------------------|
|------------|--------------|------------|----------------------|
|------------|--------------|------------|----------------------|


  F#5A5 C5       DbC5A5C5     F#5A5 C5       DbC5A5C5
  q  q  H      E E E E H      q  q  H      E E E E H
|------------|--------------|------------|--------------||
|------------|--------------|------------|--------------||
|----2--5----|-5-6-5-2-5----|----2--5----|-5-6-5-2-5----||
|-4--2--5----|-5-6-5-2-5----|-4--2--5----|-5-6-5-2-5----||
|-4--0--3----|--------------|-4--0--3----|--------------||
|-2----------|--------------|-2----------|--------------||


 Verse
  F#5A5 C5       DbC5A5C5     F#5A5 C5        DbC5A5C5
  q  q  H      E E E E H      q  q  H      E  E E E H
|------------|--------------|------------|-----------------|
|------------|--------------|------------|-----------------|
|----2--5----|-5-6-5-2-5----|----2--5----|-5--6-5-2-5------|
|-4--2--5----|-5-6-5-2-5----|-4--2--5----|-5--6-5-2-5------|
|-4--0--3----|--------------|-4--0--3----|-----------------|
|-2----------|--------------|-2----------|-----------------|
|
| Gtr II
| W            W              W            Q.     E Q  E E
|------------|--------------|------------|-----------------|
|------------|--------------|------------|-------------0---|
|------------|--------------|------------|----------0----0-|
|------------|--------------|------------|--------0-0------|
|------------|--------------|------------|-----------------|
|------------|--------------|------------|-----------------|


  F#5A5 C5       DbC5A5C5     F#5A5 C5       DbC5A5C5
  q  q  H      E E E E H      q  q  H      E E E E H
|------------|--------------|------------|------------------------|
|------------|--------------|------------|------------------------|
|----2--5----|-5-6-5-2-5----|----2--5----|-5-6-5-2-5--------------|
|-4--2--5----|-5-6-5-2-5----|-4--2--5----|-5-6-5-2-5--------------|
|-4--0--3----|--------------|-4--0--3----|------------------------|
|-2----------|--------------|-2----------|------------------------|
|
| W            W              W            H       E E    +E  +E
|------------|--------------|------------|------------------------|
|------------|--------------|------------|------------------------|
|------------|--------------|------------|-----------4b6==(4)r(4)-|
|------------|--------------|------------|------------------------|
|------------|--------------|------------|------------------------|
|------------|--------------|------------|------------------------|


  F#5A5 C5       DbC5A5C5     F#5A5 C5        DbC5A5C5
  q  q  H      E E E E H      q  q  H      E  E E E H
|------------|--------------|------------|-------------------------|
|------------|--------------|------------|-------------------------|
|----2--5----|-5-6-5-2-5----|----2--5----|-5--6-5-2-5--------------|
|-4--2--5----|-5-6-5-2-5----|-4--2--5----|-5--6-5-2-5--------------|
|-4--0--3----|--------------|-4--0--3----|-------------------------|
|-2----------|--------------|-2----------|-------------------------|
|
| W            W              W            Q.     E E E    +E  +E
|------------|--------------|------------|-------------------------|
|------------|--------------|------------|-------------------------|
|------------|--------------|------------|-------------------------|
|------------|--------------|------------|--------0-0-4b6==(4)r(4)-|
|------------|--------------|------------|-------------------------|
|------------|--------------|------------|-------------------------|


  F#5A5 C5       DbC5A5C5     F#5A5 C5        DbC5A5C5
  q  q  H      E E E E H      q  q  H      E  E E E H
|------------|--------------|------------|-----------------||
|------------|--------------|------------|-----------------||
|----2--5----|-5-6-5-2-5----|----2--5----|-5--6-5-2-5------||
|-4--2--5----|-5-6-5-2-5----|-4--2--5----|-5--6-5-2-5------||
|-4--0--3----|--------------|-4--0--3----|-----------------||
|-2----------|--------------|-2----------|-----------------||
|
| W            W              W            H.          E E
|------------|--------------|------------|-----------------||
|------------|--------------|------------|-------------0-0-||
|------------|--------------|------------|-----------------||
|------------|--------------|------------|-----------------||
|------------|--------------|------------|-----------------||
|------------|--------------|------------|-----------------||


 Chorus
  F#5A5 C5       DbC5A5C5           F#5
                           \0.5/
  q  q  H      E E E E Q  +Q        Q  H.        Q..   S  Q   Q
|------------|--------------------|------------|------------------|
|------------|---------5--(5)-----|------------|------------------|
|----2--5----|-5-6-5-2-5--(5)-----|------------|------------------|
|-4--2--5----|-5-6-5-2-5--(5)-----|-4----------|------------------|
|-4--0--3----|--------------------|-4----------|------------------|
|-2----------|--------------------|-2----------|-------4s14\--9\--|


  F#5A5 C5       DbC5A5C5           F#5
                           \0.5/
  q  q  H      E E E E Q  +Q        Q  H.        H     H
|------------|--------------------|------------|-------------||
|------------|---------5--(5)-----|------------|-------------||
|----2--5----|-5-6-5-2-5--(5)-----|------------|------<5>----||
|-4--2--5----|-5-6-5-2-5--(5)-----|-4----------|-------------||
|-4--0--3----|--------------------|-4----------|-------------||
|-2----------|--------------------|-2----------|-------------||


 Bridge
  F#5
  PM----------------------|
  E E E E E E E E   E E E E Q     E  E
|-----------------|-------------------------|
|-----------------|---------2---------------|
|-----------------|---------2---------------|
|-4-4-4-4-4-4-4-4-|-4-4-4-4-------4s=5------|
|-4-4-4-4-4-4-4-4-|-4-4-4-4-------4s=5------|
|-2-2-2-2-2-2-2-2-|-2-2-2-2-----------------|
|
| Gtr II
| PM----------------------|
| E E E E E E E E   E E E E Q.      +S  +S
|-2-2-2-2-2-2-2-2-|-2-2-2-2-2-------(2)-(2)-|
|-2-2-2-2-2-2-2-2-|-2-2-2-2-2-------(2)-(2)-|
|-----------------|---------4b6=====(4)r(4)-|
|-----------------|-------------------------|
|-----------------|-------------------------|
|-----------------|-------------------------|


  G5
  PM----------------------|
  E E E E E E E E   E E E E Q     E  E
|-----------------|---------------------------|
|-----------------|---------3-----------------|
|-----------------|---------3-----------------|
|-5-5-5-5-5-5-5-5-|-5-5-5-5-------5s=6--------|
|-5-5-5-5-5-5-5-5-|-5-5-5-5-------5s=6--------|
|-3-3-3-3-3-3-3-3-|-3-3-3-3-------------------|
|
| PM----------------------|
| E E E E E E E E   E E E E Q.      +S  +S
|-3-3-3-3-3-3-3-3-|-3-3-3-3-3-------(3)-(3)---|
|-3-3-3-3-3-3-3-3-|-3-3-3-3-3-------(3)-(3)---|
|-----------------|---------5b7=====(5)r(5)---|
|-----------------|---------------------------|
|-----------------|---------------------------|
|-----------------|---------------------------|


  G#5
  PM----------------------|
  E E E E E E E E   E E E E Q     E  E
|-----------------|-------------------------|
|-----------------|---------4---------------|
|-----------------|---------4---------------|
|-6-6-6-6-6-6-6-6-|-6-6-6-6-------6s=7------|
|-6-6-6-6-6-6-6-6-|-6-6-6-6-------6s=7------|
|-4-4-4-4-4-4-4-4-|-4-4-4-4-----------------|
|
| E E E E E E E E   E E E E Q.      +S  +S
|-4-4-4-4-4-4-4-4-|-4-4-4-4-4-------(4)-(4)-|
|-4-4-4-4-4-4-4-4-|-4-4-4-4-4-------(4)-(4)-|
|-----------------|---------6b8=====(6)r(6)-|
|-----------------|-------------------------|
|-----------------|-------------------------|
|-----------------|-------------------------|


  A5
  PM---------------------------------------|
  E E E E E E E E   E     E  E     E  E     E  E E
|-----------------|--------------------------------|
|-----------------|--------------------------------|
|-----------------|--------------------------------|
|-7-7-7-7-7-7-7-7-|-7-----7--7-----7--7-----7----5-|
|-7-7-7-7-7-7-7-7-|-7-----7--7-----7--7-----7----5-|
|-5-5-5-5-5-5-5-5-|-5-----5--5-----5--5-----5------|
|
| E E E E E E E E   E    +E  E    +E  E    +E  E E
|-5-5-5-5-5-5-5---|-5--------5--------5------------|
|-5-5-5-5-5-5-5-8-|-8b10r(8)-8b10r(8)-8b10r(8)-----|
|-----------------|----------------------------6-6-|
|-----------------|----------------------------4-4-|
|-----------------|--------------------------------|
|-----------------|--------------------------------|


  F#5A5     C5         Db5C5 A5 C5
  q  q       H       E  E  E  E  H
|-----------------|---------------------|
|-----------------|---------------------|
|----2-------5----|--5--6--5--2--5------|
|-4--2-------5----|--5--6--5--2--5------|
|-4--0-------3----|---------------------|
|-2---------------|---------------------|
|
|            ~~
| q  E +E    H       E  E  E  E  Q.   E
|-----------------|---------------------|
|-----------------|---------------------|
|-6--9-(9)/-12----|-12-13-12----12------|
|-4--7-(7)/-------|----------14---------|
|-----------------|---------------------|
|-----------------|---------------------|


  F#5A5     C5         Db5C5 A5 C5
  q  q       H       E  E  E  E  H
|-----------------|------------------------||
|-----------------|------------------------||
|----2-------5----|--5--6--5--2--5---------||
|-4--2-------5----|--5--6--5--2--5---------||
|-4--0-------3----|------------------------||
|-2---------------|------------------------||
|
|            ~~
| q  E +E    H       E  E  E  E  E  E  Q
|-----------------|------------------------||
|-----------------|------------------------||
|-6--9-(9)/-12----|-12-13-12----12-11------||
|-4--7-(7)/-------|----------14-------10\--||
|-----------------|------------------------||
|-----------------|------------------------||


 2nd Verse
  F#5A5 C5       DbC5A5C5     F#5A5 C5        DbC5A5C5
  q  q  H      E E E E H      q  q  H      E  E E E H
|------------|--------------|------------|-------------------------|
|------------|--------------|------------|-------------------------|
|----2--5----|-5-6-5-2-5----|----2--5----|-5--6-5-2-5--------------|
|-4--2--5----|-5-6-5-2-5----|-4--2--5----|-5--6-5-2-5--------------|
|-4--0--3----|--------------|-4--0--3----|-------------------------|
|-2----------|--------------|-2----------|-------------------------|
|
| W            W              W            Q.     E E E    +E  +E
|------------|--------------|------------|-------------------------|
|------------|--------------|------------|-------------------------|
|------------|--------------|------------|-------------------------|
|------------|--------------|------------|--------0-0-4b6==(4)r(4)-|
|------------|--------------|------------|-------------------------|
|------------|--------------|------------|-------------------------|


  F#5A5 C5       DbC5A5C5     F#5A5 C5       DbC5A5C5
  q  q  H      E E E E H      q  q  H      E E E E H
|------------|--------------|------------|---------------|
|------------|--------------|------------|---------------|
|----2--5----|-5-6-5-2-5----|----2--5----|-5-6-5-2-5-----|
|-4--2--5----|-5-6-5-2-5----|-4--2--5----|-5-6-5-2-5-----|
|-4--0--3----|--------------|-4--0--3----|---------------|
|-2----------|--------------|-2----------|---------------|
|
|                                                  \7
| W            W              W            H       H
|------------|--------------|------------|---------------|
|------------|--------------|------------|---------------|
|------------|--------------|------------|---------0-----|
|------------|--------------|------------|---------------|
|------------|--------------|------------|---------------|
|------------|--------------|------------|---------------|


  F#5A5 C5       DbC5A5C5     F#5A5 C5       DbC5A5C5
  q  q  H      E E E E H      q  q  H      E E E E H
|------------|--------------|------------|------------------------|
|------------|--------------|------------|------------------------|
|----2--5----|-5-6-5-2-5----|----2--5----|-5-6-5-2-5--------------|
|-4--2--5----|-5-6-5-2-5----|-4--2--5----|-5-6-5-2-5--------------|
|-4--0--3----|--------------|-4--0--3----|------------------------|
|-2----------|--------------|-2----------|------------------------|
|
| W            W              W            H       E E    +E  +E
|------------|--------------|------------|------------------------|
|------------|--------------|------------|------------------------|
|------------|--------------|------------|-----------4b6==(4)r(4)-|
|------------|--------------|------------|------------------------|
|------------|--------------|------------|------------------------|
|------------|--------------|------------|------------------------|


  F#5A5 C5       DbC5A5C5     F#5A5 C5       DbC5A5C5
  q  q  H      E E E E H      q  q  H      E E E E H
|------------|--------------|------------|------------------||
|------------|--------------|------------|------------------||
|----2--5----|-5-6-5-2-5----|----2--5----|-5-6-5-2-5--------||
|-4--2--5----|-5-6-5-2-5----|-4--2--5----|-5-6-5-2-5--------||
|-4--0--3----|--------------|-4--0--3----|------------------||
|-2----------|--------------|-2----------|------------------||
|
|                                                      ~~~~
| W            W              W            H       E   Q.
|------------|--------------|------------|------------------||
|------------|--------------|------------|------------------||
|------------|--------------|------------|-----------/17----||
|------------|--------------|------------|------------------||
|------------|--------------|------------|------------------||
|------------|--------------|------------|------------------||


 2nd Chorus
  F#5A5 C5       DbC5A5C            F#5A5 C5       DbC5A5C5
                           \0.5/
  q  q  H      E E E E Q  +Q        q  q  H      E E E E  H
|------------|--------------------|------------|------------------|
|------------|---------5--(5)-----|------------|------------------|
|----2--5----|-5-6-5-2-5--(5)-----|----2--5----|-5-6-5-2--5-------|
|-4--2--5----|-5-6-5-2-5--(5)-----|-4--2--5----|-5-6-5-2--5-------|
|-4--0--3----|--------------------|-4--0--3----|------------------|
|-2----------|--------------------|-2----------|------------------|
|
|                                                         \1.5
| W            W                    W            H        H
|------------|--------------------|------------|------------------|
|------------|--------------------|------------|------------------|
|------------|--------------------|------------|---------<7>------|
|------------|--------------------|------------|------------------|
|------------|--------------------|------------|------------------|
|------------|--------------------|------------|------------------|


  F#5A5 C5       DbC5A5C            F#5A5 C5        DbC5A5  C5
                           \0.5/
  q  q  H      E E E E Q  +Q        q  q  H      E  E E  E    H
|------------|--------------------|------------|----------------------||
|------------|---------5--(5)-----|------------|----------------------||
|----2--5----|-5-6-5-2-5--(5)-----|----2--5----|-5--6-5--2----5-------||
|-4--2--5----|-5-6-5-2-5--(5)-----|-4--2--5----|-5--6-5--2----5-------||
|-4--0--3----|--------------------|-4--0--3----|----------------------||
|-2----------|--------------------|-2----------|----------------------||
|
|                                                             \1.5
| W            W                    W            Q.      E   +H
|------------|--------------------|------------|----------------------||
|------------|--------------------|------------|----------------------||
|------------|--------------------|------------|--------<5>-(<5>)-----||
|------------|--------------------|------------|----------------------||
|------------|--------------------|------------|----------------------||
|------------|--------------------|------------|----------------------||


   2nd & 3rd Bridges
    F#5
    E E E E E E E E   E E E E E    E Q
||------------------|--------------------------|
||o-----------------|-----2-2------------------|
||------------------|-----2-2-2----------------|
||--4-4-4-4-4-4-4-4-|-4-4-----4----4-4---------|
||o-4-4-4-4-4-4-4-4-|-4-4------------4---------|
||--2-2-2-2-2-2-2-2-|-2-2----------------------|
|
|   E E E E E E E E   E E E E Q.       +S  +S
||--2-2-2-2-2-2-2-2-|-2-2-2-2-2--------(2)-(2)-|
||o-2-2-2-2-2-2-2-2-|-2-2-2-2-2--------(2)-(2)-|
||------------------|---------4b6======(4)r(4)-|
||------------------|--------------------------|
||o-----------------|--------------------------|
||------------------|--------------------------|


  G5
  E E E E E E E E   E E E E Q.      E
|-----------------|-------------------------|
|-----------------|-----3-3-----------------|
|-----------------|-----3-3-3---------------|
|-5-5-5-5-5-5-5-5-|-5-5-----5---------------|
|-5-5-5-5-5-5-5-5-|-5-5-------------5-------|
|-3-3-3-3-3-3-3-3-|-3-3---------------------|
|
| E E E E E E E E   E E E E Q.     +S  +S
|-3-3-3-3-3-3-3-3-|-3-3-3-3-3------(3)-(3)--|
|-3-3-3-3-3-3-3-3-|-3-3-3-3-3------(3)-(3)--|
|-----------------|---------5b7====(5)r(5)--|
|-----------------|-------------------------|
|-----------------|-------------------------|
|-----------------|-------------------------|


  G#5
  E E E E E E E E   E E Q   Q     E  E
|-----------------|-------------------------|
|-----------------|---------4---------------|
|-----------------|-----4---4-----4s=5------|
|-6-6-6-6-6-6-6-6-|-6-6-----6-----6s=7------|
|-6-6-6-6-6-6-6-6-|-6-6---------------------|
|-4-4-4-4-4-4-4-4-|-4-4---------------------|
|
| E E E E E E E E   E E E E Q.      +S  +S
|-4-4-4-4-4-4-4-4-|-4-4-4-4-4-------(4)-(4)-|
|-4-4-4-4-4-4-4-4-|-4-4-4-4-4-------(4)-(4)-|
|-----------------|---------6b8=====(6)r(6)-|
|-----------------|-------------------------|
|-----------------|-------------------------|
|-----------------|-------------------------|


  A5
  E E E E E     E  E     E    E     E  E     E  E     E  E     E
|---------------------------|-------------------------------------|
|---------------------------|-------------------------------------|
|---------------------------|-------------------------------------|
|-7-7-7-7-7-----7--7-----7--|-7-----7--7-----7--7-----7--7--------|
|-7-7-7-7-7-----7--7-----7--|-7-----7--7-----7--7-----7--7--------|
|-5-5-5-5-5-----5--5-----5--|-5-----5--5-----5--5-----5--5--------|
|
| E E E E E    +E  E    +E    E    +E  E    +E  E    +E  E    +E
|---5-----5--------5--------|-5--------5--------5--------5--------|
|-5-5-5-8-8b10r(8)-8b10r(8)-|-8b10r(8)-8b10r(8)-8b10r(8)-8b10r(8)-|
|---------------------------|-------------------------------------|
|---------------------------|-------------------------------------|
|---------------------------|-------------------------------------|
|---------------------------|-------------------------------------|


  1.
  Gtr I
   E H..              W
   |
   /

  Gtr II
   E E    Q   H       E  E  E  E  H
|------------------|-------------------|
|------------------|-------------------|
|---------9--12----|-12-13-12--9-12----|
|--8---------10----|-10-11-10--7-10----|
|------------------|-------------------|
|------------------|-------------------|
|
| Gtr III
|  q      q   H       E  E  E  E  H
|------------------|-------------------|
|------------------|----18-------------|
|--------18--20----|-20----20-18-20----|
|-20---------------|-------------------|
|------------------|-------------------|
|------------------|-------------------|


   W                W
                    TP
   E E  Q   H       W                          a
|----------------|-19\------------------------(0)-||
|----------------|-19\------------------------(0)-||
|--6----9--12----|--------------------------------||
|--4----7--11----|--------------------------------||
|----------------|--------------------------------||
|----------------|--------------------------------||
|
|  q    q   H       E   E  E  E  Q.      +E
|----------------|--------------------------------||
|----------------|-----18-------21b23---(21)\-----||
|------18--20----|-20-----20-18-------------------||
|-20-------------|--------------------------------||
|----------------|--------------------------------||
|----------------|--------------------------------||


 3rd Verse
  F#5A5 C5       DbC5A5C5     F#5A5 C5        DbC5A5C5
  Gtr I
  q  q  H      E E E E H      q  q  H      E  E E E H
|------------|--------------|------------|-------------------------|
|------------|--------------|------------|-------------------------|
|----2--5----|-5-6-5-2-5----|----2--5----|-5--6-5-2-5--------------|
|-4--2--5----|-5-6-5-2-5----|-4--2--5----|-5--6-5-2-5--------------|
|-4--0--3----|--------------|-4--0--3----|-------------------------|
|-2----------|--------------|-2----------|-------------------------|
|
| Gtr II
| W            W              W            Q.     E E E    +E  +E
|------------|--------------|------------|-------------------------|
|------------|--------------|------------|-------------------------|
|------------|--------------|------------|-------------------------|
|------------|--------------|------------|--------0-0-4b6==(4)r(4)-|
|------------|--------------|------------|-------------------------|
|------------|--------------|------------|-------------------------|


  F#5A5 C5       DbC5A5C5     F#5A5 C5        DbC5A5  C5
  q  q  H      E E E E H      q  q  H      E  E E  E    H
|------------|--------------|------------|----------------------|
|------------|--------------|------------|----------------------|
|----2--5----|-5-6-5-2-5----|----2--5----|-5--6-5--2----5-------|
|-4--2--5----|-5-6-5-2-5----|-4--2--5----|-5--6-5--2----5-------|
|-4--0--3----|--------------|-4--0--3----|----------------------|
|-2----------|--------------|-2----------|----------------------|
|
|                                                       \2.5
| W            W              W            Q.      E   +H
|------------|--------------|------------|----------------------|
|------------|--------------|------------|----------------------|
|------------|--------------|------------|--------<5>-(<5>)-----|
|------------|--------------|------------|----------------------|
|------------|--------------|------------|----------------------|
|------------|--------------|------------|----------------------|


  F#5A5 C5       DbC5A5C5     F#5A5 C5        DbC5A5C5
  q  q  H      E E E E H      q  q  H      E  E E E H
|------------|--------------|------------|-----------------|
|------------|--------------|------------|-----------------|
|----2--5----|-5-6-5-2-5----|----2--5----|-5--6-5-2-5------|
|-4--2--5----|-5-6-5-2-5----|-4--2--5----|-5--6-5-2-5------|
|-4--0--3----|--------------|-4--0--3----|-----------------|
|-2----------|--------------|-2----------|-----------------|
|
| W            W              W            H.          E E
|------------|--------------|------------|-----------------|
|------------|--------------|------------|-------------0-0-|
|------------|--------------|------------|-----------------|
|------------|--------------|------------|-----------------|
|------------|--------------|------------|-----------------|
|------------|--------------|------------|-----------------|


  F#5A5 C5       DbC5A5C5     F#5A5 C5       DbC5A5C5
  q  q  H      E E E E H      q  q  H      E E E E  H
|------------|--------------|------------|------------------||
|------------|--------------|------------|------------------||
|----2--5----|-5-6-5-2-5----|----2--5----|-5-6-5-2--5-------||
|-4--2--5----|-5-6-5-2-5----|-4--2--5----|-5-6-5-2--5-------||
|-4--0--3----|--------------|-4--0--3----|------------------||
|-2----------|--------------|-2----------|------------------||
|
|                                                   \1.5
| W            W              W            H        H
|------------|--------------|------------|------------------||
|------------|--------------|------------|------------------||
|------------|--------------|------------|---------<7>------||
|------------|--------------|------------|------------------||
|------------|--------------|------------|------------------||
|------------|--------------|------------|------------------||


 3rd Chorus
  F#5A5 C5       DbC5A5C            F#5A5 C5       DbC5A5C5
                           \0.5/
  q  q  H      E E E E Q  +Q        q  q  H      E E E E  H
|------------|--------------------|------------|------------------|
|------------|---------5--(5)-----|------------|------------------|
|----2--5----|-5-6-5-2-5--(5)-----|----2--5----|-5-6-5-2--5-------|
|-4--2--5----|-5-6-5-2-5--(5)-----|-4--2--5----|-5-6-5-2--5-------|
|-4--0--3----|--------------------|-4--0--3----|------------------|
|-2----------|--------------------|-2----------|------------------|
|
|                                                         \1.5
| W            W                    W            H        H
|------------|--------------------|------------|------------------|
|------------|--------------------|------------|------------------|
|------------|--------------------|------------|---------<7>------|
|------------|--------------------|------------|------------------|
|------------|--------------------|------------|------------------|
|------------|--------------------|------------|------------------|


  F#5A5 C5       DbC5A5C            F#5A5 C5       DbC5A5C5
                           \0.5/
  q  q  H      E E E E Q  +Q        q  q  H      E E E E H
|------------|--------------------|------------|---------------||
|------------|---------5--(5)-----|------------|--------------o||
|----2--5----|-5-6-5-2-5--(5)-----|----2--5----|-5-6-5-2-5-----||
|-4--2--5----|-5-6-5-2-5--(5)-----|-4--2--5----|-5-6-5-2-5-----||
|-4--0--3----|--------------------|-4--0--3----|--------------o||
|-2----------|--------------------|-2----------|---------------||


  2.
  N.C.
  Gtr II
  Q  E E H      E E E E H      Q  Q  H      E E E E Q  Q
|-------------|--------------|------------|---------------||
|-------------|--------------|------------|---------------||
|-------------|--------------|------------|---------------||
|--------6----|--------------|----6--5----|-----7-8-7-----||
|----9s8------|-7-6-5---6----|------------|-7-8-----------||
|-------------|--------------|-5----------|---------------||


 4th Verse
  F#5A5 C5       DbC5A5C5     F#5A5 C5       DbC5A5C5
  Gtr I
  q  q  H      E E E E H      q  q  H      E E E E H
|------------|--------------|------------|--------------------|
|------------|--------------|------------|--------------------|
|----2--5----|-5-6-5-2-5----|----2--5----|-5-6-5-2-5----------|
|-4--2--5----|-5-6-5-2-5----|-4--2--5----|-5-6-5-2-5----------|
|-4--0--3----|--------------|-4--0--3----|--------------------|
|-2----------|--------------|-2----------|--------------------|
|
| Gtr II
|                                                         ~~~
| W            W              W            H       E E   +Q
|------------|--------------|------------|--------------------|
|------------|--------------|------------|--------------------|
|------------|--------------|------------|-----------4b5-(4)--|
|------------|--------------|------------|--------------------|
|------------|--------------|------------|--------------------|
|------------|--------------|------------|--------------------|


  F#5A5 C5       DbC5A5C5     F#5A5 C5       DbC5A5C5
  q  q  H      E E E E H      q  q  H      E E E E H
|------------|--------------|------------|----------------|
|------------|--------------|------------|----------------|
|----2--5----|-5-6-5-2-5----|----2--5----|-5-6-5-2-5------|
|-4--2--5----|-5-6-5-2-5----|-4--2--5----|-5-6-5-2-5------|
|-4--0--3----|--------------|-4--0--3----|----------------|
|-2----------|--------------|-2----------|----------------|
|
| W            W              W            H       Q  e E
|------------|--------------|------------|----------------|
|------------|--------------|------------|------------0---|
|------------|--------------|------------|----------------|
|------------|--------------|------------|----------------|
|------------|--------------|------------|----------------|
|------------|--------------|------------|----------------|


  F#5A5 C5       DbC5A5C5     F#5A5 C5       DbC5A5C5
  q  q  H      E E E E H      q  q  H      E E E E H
|------------|--------------|------------|----------------|
|------------|--------------|------------|----------------|
|----2--5----|-5-6-5-2-5----|----2--5----|-5-6-5-2-5------|
|-4--2--5----|-5-6-5-2-5----|-4--2--5----|-5-6-5-2-5------|
|-4--0--3----|--------------|-4--0--3----|----------------|
|-2----------|--------------|-2----------|----------------|
|
| W            W              W            H       Q  E E
|------------|--------------|------------|----------------|
|------------|--------------|------------|------------0-0-|
|------------|--------------|------------|----------------|
|------------|--------------|------------|----------------|
|------------|--------------|------------|----------------|
|------------|--------------|------------|----------------|


  F#5A5 C5       DbC5A5C5           F#5A5 C5       DbC5A5C5
                           \0.5/                             \0.5/
  q  q  H      E E E E Q  +Q        q  q  H      E E E E Q  +Q
|------------|--------------------|------------|---------------------|
|------------|--------------------|------------|---------------------|
|----2--5----|-5-6-5-2-5--(5)-----|----2--5----|-5-6-5-2-5--(5)------|
|-4--2--5----|-5-6-5-2-5--(5)-----|-4--2--5----|-5-6-5-2-5--(5)------|
|-4--0--3----|--------------------|-4--0--3----|---------------------|
|-2----------|--------------------|-2----------|---------------------|
|
| W            W                    W            H       Q   E     E
|------------|--------------------|------------|---------------------|
|------------|--------------------|------------|-------------0-----0-|
|------------|--------------------|------------|---------------------|
|------------|--------------------|------------|---------------------|
|------------|--------------------|------------|---------------------|
|------------|--------------------|------------|---------------------|


  F#5A5 C5       DbC5A5C5           F#5A5 C5       DbC5A5
                           \0.5/                         \1.5
  q  q  H      E E E E Q  +Q        q  q  H      E E E E Q.      +E
|------------|--------------------|------------|---------------------|
|------------|--------------------|------------|---------------------|
|----2--5----|-5-6-5-2-5--(5)-----|----2--5----|-5-6-5-2-------------|
|-4--2--5----|-5-6-5-2-5--(5)-----|-4--2--5----|-5-6-5-2-5-------(5)-|
|-4--0--3----|--------------------|-4--0--3----|---------------------|
|-2----------|--------------------|-2----------|---------------------|
|
| W            W                    W            H       Q     E  E
|------------|--------------------|------------|---------------------|
|------------|--------------------|------------|---------------0--0--|
|------------|--------------------|------------|---------------------|
|------------|--------------------|------------|---------------------|
|------------|--------------------|------------|---------------------|
|------------|--------------------|------------|---------------------|


                                Breakdown
  F#5A5 C5       DbC5A5C5        N.C.
                           ~~~
  q  q  H      E E E E Q  +Q     Wx10          H     Q    Q
|------------|-----------------|-------------|----------------||
|------------|-----------------|-------------|----------------||
|----2--5----|-5-6-5-2-5--(5)--|-------------|----------------||
|-4--2--5----|-5-6-5-2-5--(5)--|-------------|----------------||
|-4--0--3----|-----------------|-------------|----------------||
|-2----------|-----------------|-------------|------/8\--/8\--||


 5th Verse
  F#5A5 C5       DbC5A5C5     F#5A5 C5       DbC5A5C5
  q  q  H      E E E E H      q  q  H      E E E E H
|------------|--------------|------------|----------------|
|------------|--------------|------------|----------------|
|----2--5----|-5-6-5-2-5----|----2--5----|-5-6-5-2-5------|
|-4--2--5----|-5-6-5-2-5----|-4--2--5----|-5-6-5-2-5------|
|-4--0--3----|--------------|-4--0--3----|----------------|
|-2----------|--------------|-2----------|----------------|
|
| Gtr II
| W            W              W            H       E Q  E
|------------|--------------|------------|----------------|
|------------|--------------|------------|---------0-0----|
|------------|--------------|------------|----------------|
|------------|--------------|------------|----------------|
|------------|--------------|------------|----------------|
|------------|--------------|------------|----------------|


  F#5A5 C5       DbC5A5C5     F#5A5 C5       DbC5A5C5
  q  q  H      E E E E H      q  q  H      E E E E H
|------------|--------------|------------|----------------|
|------------|--------------|------------|----------------|
|----2--5----|-5-6-5-2-5----|----2--5----|-5-6-5-2-5------|
|-4--2--5----|-5-6-5-2-5----|-4--2--5----|-5-6-5-2-5------|
|-4--0--3----|--------------|-4--0--3----|----------------|
|-2----------|--------------|-2----------|----------------|
|
| W            W              W            H       Q  E E
|------------|--------------|------------|----------------|
|------------|--------------|------------|------------0-0-|
|------------|--------------|------------|----------------|
|------------|--------------|------------|----------------|
|------------|--------------|------------|----------------|
|------------|--------------|------------|----------------|


  F#5A5 C5       DbC5A5C            F#5
                           \0.5/
  q  q  H      E E E E Q  +Q        Q  H.        Q..   S  Q   Q
|------------|--------------------|------------|------------------|
|------------|---------5--(5)-----|------------|------------------|
|----2--5----|-5-6-5-2-5--(5)-----|------------|------------------|
|-4--2--5----|-5-6-5-2-5--(5)-----|-4----------|------------------|
|-4--0--3----|--------------------|-4----------|------------------|
|-2----------|--------------------|-2----------|-------4s14\--9\--|


  F#5A5 C5       DbC5A5C            F#5
                           \0.5/
  q  q  H      E E E E Q  +Q        Q  H.        H     H
|------------|--------------------|------------|--------------------||
|------------|---------5--(5)-----|------------|--------------------||
|----2--5----|-5-6-5-2-5--(5)-----|------------|------<5>-----------||
|-4--2--5----|-5-6-5-2-5--(5)-----|-4----------|--------------------||
|-4--0--3----|--------------------|-4----------|--------------------||
|-2----------|--------------------|-2----------|--------------------||
|
| Gtr II
|                                                      \2.5
| W            W                    W            H     Q.      +E
|------------|--------------------|------------|--------------------||
|------------|--------------------|------------|--------------------||
|------------|--------------------|------------|------<5>-----(<5>)-||
|------------|--------------------|------------|--------------------||
|------------|--------------------|------------|--------------------||
|------------|--------------------|------------|--------------------||


 4th Bridge
  F#5
  E    E  E    E  E    E  E    E    E    E  E    E  E    E  Q
|---------------------------------|---------------------------------|
|---------------------------------|---------2----2------------------|
|---------------------------------|---------2----2--2---------------|
|-4----4--4----4--4----4--4----4--|-4----4----------4----4--4-------|
|-4----4--4----4--4----4--4----4--|-4----4------------------4-------|
|-2----2--2----2--2----2--2----2--|-2----2--------------------------|
|
| E   +E  E   +E  E   +E  E   +E    E   +E  E   +E  E   +E  E   +E
|-2-------2-------2-------2-------|-2-------2-------2-------2-------|
|-5b7r(5)-5b7r(5)-5b7r(5)-5b7r(5)-|-5b7r(5)-5b7r(5)-5b7r(5)-5b7r(5)-|
|---------------------------------|---------------------------------|
|---------------------------------|---------------------------------|
|---------------------------------|---------------------------------|
|---------------------------------|---------------------------------|


  G5
  E    E  E    E  E    E  E    E    E    E  E    E  Q.           E
|---------------------------------|---------------------------------|
|---------------------------------|---------3----3------------------|
|---------------------------------|---------3----3--3---------------|
|-5----5--5----5--5----5--5----5--|-5----5----------5---------------|
|-5----5--5----5--5----5--5----5--|-5----5-----------------------5--|
|-3----3--3----3--3----3--3----3--|-3----3--------------------------|
|
| E   +E  E   +E  E   +E  E   +E    E   +E  E   +E  E   +E  E   +E
|-3-------3-------3-------3-------|-3-------3-------3-------3-------|
|-6b8r(6)-6b8r(6)-6b8r(6)-6b8r(6)-|-6b8r(6)-6b8r(6)-6b8r(6)-6b8r(6)-|
|---------------------------------|---------------------------------|
|---------------------------------|---------------------------------|
|---------------------------------|---------------------------------|
|---------------------------------|---------------------------------|


  G#5
  E    E  E    E  E    E  E    E    E    E  Q       Q       E    E
|---------------------------------|---------------------------------|
|---------------------------------|-----------------4---------------|
|---------------------------------|---------4-------4-------4s===5--|
|-6----6--6----6--6----6--6----6--|-6----6----------6-------6s===7--|
|-6----6--6----6--6----6--6----6--|-6----6--------------------------|
|-4----4--4----4--4----4--4----4--|-4----4--------------------------|
|
| E   +E  E   +E  E   +E  E   +E    E   +E  E   +E  E   +E  E   +E
|-4-------4-------4-------4-------|-4-------4-------4-------4-------|
|-6b8r(6)-6b8r(6)-6b8r(6)-6b8r(6)-|-6b8r(6)-6b8r(6)-6b8r(6)-6b8r(6)-|
|---------------------------------|---------------------------------|
|---------------------------------|---------------------------------|
|---------------------------------|---------------------------------|
|---------------------------------|---------------------------------|


  A5
  E     E  E     E  E     E  E     E    E     E  E     E  E     E  E     E
|-------------------------------------|-------------------------------------|
|-------------------------------------|-------------------------------------|
|-------------------------------------|-------------------------------------|
|-7-----7--7-----7--7-----7--7-----7--|-7-----7--7-----7--7-----7--7--------|
|-7-----7--7-----7--7-----7--7-----7--|-7-----7--7-----7--7-----7--7--------|
|-5-----5--5-----5--5-----5--5-----5--|-5-----5--5-----5--5-----5--5--------|
|
| E    +E  E    +E  E    +E  E    +E    E    +E  E    +E  E    +E  E    +E
|-5--------5--------5--------5--------|-5--------5--------5--------5--------|
|-8b10r(8)-8b10r(8)-8b10r(8)-8b10r(8)-|-8b10r(8)-8b10r(8)-8b10r(8)-8b10r(8)-|
|-------------------------------------|-------------------------------------|
|-------------------------------------|-------------------------------------|
|-------------------------------------|-------------------------------------|
|-------------------------------------|-------------------------------------|


  Gtr I
  E     E  E     E  E     E  E     E    E     E  E     E  E     E  E     E
  |     |  |     |  |     |  |     |    |     |  |     |  |     |  |     |
  /     /  /     /  /     /  /     /    /     /  /     /  /     /  /     /

  Gtr II
  E    +E  E    +E  E    +E  E    +E    E    +E  E    +E  E    +E  E    +E
|-6--------6--------6--------6--------|-6--------6--------6--------6--------|
|-9b11r(9)-9b11r(9)-9b11r(9)-9b11r(9)-|-9b11r(9)-9b11r(9)-9b11r(9)-9b11r(9)-|
|-------------------------------------|-------------------------------------|
|-------------------------------------|-------------------------------------|
|-------------------------------------|-------------------------------------|
|-------------------------------------|-------------------------------------|


   E      E   E      E   E      E   E      E     E      E   E      E   E      E   E      E
   |      |   |      |   |      |   |      |     |      |   |      |   |      |   |      |
   /      /   /      /   /      /   /      /     /      /   /      /   /      /   /      /

   E     +E   E     +E   E     +E   E     +E     E     +E   E     +E   E     +E   E     +E
|--7----------7----------7----------7---------|--7----------7----------7----------7---------|
|-10b12r(10)-10b12r(10)-10b12r(10)-10b12r(10)-|-10b12r(10)-10b12r(10)-10b12r(10)-10b12r(10)-|
|---------------------------------------------|---------------------------------------------|
|---------------------------------------------|---------------------------------------------|
|---------------------------------------------|---------------------------------------------|
|---------------------------------------------|---------------------------------------------|


   E      E   E      E   E      E   E      E
   |      |   |      |   |      |   |      |
   /      /   /      /   /      /   /      /

   E     +E   E     +E   E     +E   E     +E
|--8----------8----------8----------8---------|
|-11b13r(11)-11b13r(11)-11b13r(11)-11b13r(11)-|
|---------------------------------------------|
|---------------------------------------------|
|---------------------------------------------|
|---------------------------------------------|


   E      E   E      E   E      E   E      E     E      E   E      E   E      E   E      E
   |      |   |      |   |      |   |      |     |      |   |      |   |      |   |      |
   /      /   /      /   /      /   /      /     /      /   /      /   /      /   /      /

   E     +E   E     +E   E     +E   E     +E     E     +E   E     +E   E     +E   E     +E
|--8----------8----------8----------8---------|--9----------9----------9----------9---------|
|-11b13r(11)-11b13r(11)-11b13r(11)-11b13r(11)-|-12b14r(12)-12b14r(12)-12b14r(12)-12b14r(12)-|
|---------------------------------------------|---------------------------------------------|
|---------------------------------------------|---------------------------------------------|
|---------------------------------------------|---------------------------------------------|
|---------------------------------------------|---------------------------------------------|


  C#5                          F#5 A5  C5
  Gtr I
                                       TP     TP
   E      E   E    E E E E E   E E E E H      W
|----------------------------|--------------|-----------|
|----------------------------|--------------|-----------|
|--6------6---6----6-6-6-6-6-|---------5----|-5---------|
|--6------6---6----6-6-6-6-6-|-4---7---5----|-5---------|
|--4------4---4----4-4-4-4-4-|-4---7---3----|-3---------|
|----------------------------|-2---5--------|-----------|
|
| Gtr II
|                                      TP     TP   TP
|  E     +E   Q      H         E E E E H      H    H
|--9----------9--------------|-2------------|------8----|
|-12b14r(12)-12b14-----------|-2---5s7-8----|-8----8----|
|----------------------------|-2------------|-----------|
|----------------------------|--------------|-----------|
|----------------------------|--------------|-----------|
|----------------------------|--------------|-----------|


  C5                                               BbG5
  W                                   +W           E E  Q  H
|-----------------------------------|------------|--------------*|
|-----------------------------------|------------|--------------*|
|-5---------------------------------|-(5)--------|-3------------*|
|-5---------------------------------|-(5)--------|-3-5\---------*|
|-3---------------------------------|-(3)--------|-1-5\---------*|
|-----------------------------------|------------|---3\---------*|
|
| TP
| Q.   E    +E. +S  S   +S  S   +S     W           E E  Q  H
|-8----7b8==(7)r(7)-7b8r(7)-7b8r(7)-|------------|--------------*|
|-8---------------------------------|------------|--------------*|
|-----------------------------------|--5---------|-3------------*|
|-----------------------------------|--5---------|-3-5\---------*|
|-----------------------------------|------------|-1-5\---------*|
|-----------------------------------|------------|---3\---------*|


Duration Legend
---------------
W - whole; H - half; Q - quarter; E - 8th; S - 16th; T - 32nd; X - 64th; a - acciaccatura
+ - note tied to previous; . - note dotted; .. - note double dotted
Uncapitalized letters represent notes that are staccato (1/2 duration)
Irregular groupings are notated above the duration line
Duration letters will always appear directly above the note/fret number it represents the
duration for.  Duration letters with no fret number below them represent rests.  Multi-
bar rests are notated in the form Wxn, where n is the number of bars to rest for.  Low
melody durations appear below the staff

Tablature Legend
----------------
 h   - hammer-on
 p   - pull-off
 b   - bend
 pb  - pre-bend
 r   - bend release (if no number after the r, then release immediately)
 /\  - slide into or out of (from/to "nowhere")
 s   - legato slide
 S   - shift slide
<n>  - natural harmonic
[n]  - artificial harmonic
n(n) - tapped harmonic
 ~   - vibrato
 tr  - trill
 T   - tap
 TP  - trem. picking
 PM  - palm muting
\n/  - tremolo bar dip; n = amount to dip
 \n  - tremolo bar down
 n/  - tremolo bar up
/n\  - tremolo bar inverted dip
 =   - hold bend; also acts as connecting device for hammers/pulls
 <>  - volume swell (louder/softer)
 x   - on rhythm slash represents muted slash
 o   - on rhythm slash represents single note slash

Misc Legend
-----------
 |  - bar
||  - double bar
||o - repeat start
o|| - repeat end
*|  - double bar (ending)
 :  - bar (freetime)
 $  - Segno
 &  - Coda
Tempo markers - <E/E./Q/Q./H/H.> = BPM(8/16=s8/s16), where s8 = swing 8ths, s16 = swing 16ths
comments
print report bad tab
1 comment total.
0 reply
80smetalfreke wrote on February 23 2009, 12:03 pm

dude great tab thanks oh yeah and thanks for posting as green jello

I want to post or [tab]
guest
You may want to rate the tab now too:
select rating
Please do not post tabs as comments. Select "correction" instead!