Oops, an error
Loading. Please wait.

Red Tab Tab

335 views 3 this week
no commentswrite comment
1 2 3 4 5
please rate
add to favorites launch autoscroll
font size
0
reset
Autoscroll
+/-
esc
set tempo
stop
Contributor
WARNING: You are trying to view
                                    content from Ultimate-Guitar.com
                                    in an unauthorized application,
                                    which is prohibited.

                                    Please use an official Ultimate
                                    Guitar Tabs application for iPhone,
                                    iPad or Android to access legitimate
                                    chords, guitar, bass, and drum tabs
                                    from Ultimate-Guitar.com database.

                                    Type "ultimate guitar tabs" in Apple
                                    App Store's or Android Market's
                                    search to find the application.
red tab


greenleaf


TRANSCRIBED BY RUDY GUZMAN


guzman_84@hotmail.com



e:------|
B:------|
G:-0----|
D:-0----|
A:-0----|
E:------|
                                               
e:--------------------------------------|
B:--------------------------------------|
G:---------------------5h6-5-3--5-5-3-5-|
D:--------------------------------------|
A:-3/5--5-5-5-5-5-5-5-------------------|
E:-1/3--3-3-3-3-3-3-3-------------------|

e:------------------------------------------|
B:------------------------------------------|
G:---------------------5h6-5-3--5-5-3-5-----|
D:--------------------------------------3-5-|
A:-3/5--5-5-5-5-5-5-5-----------------------|
E:-1/3--3-3-3-3-3-3-3-----------------------|

e:--------------------------------------|
B:--------------------------------------|
G:---------------------5h6-5-3--5-5-3-5-|
D:--------------------------------------|
A:-3/5--5-5-5-5-5-5-5-------------------|
E:-1/3--3-3-3-3-3-3-3-------------------|

e:--------------------------------|
B:--------------------------------|
G:--------------------------------|
D:---------------------3--5---5-5-|
A:-3/5--5-5-5-5-5-5-5--1--3---3-3-|
E:-1/3--3-3-3-3-3-3-3-------------|

  verse
e:--------------------------------------|
B:--------------------------------------|
G:---------------------5h6-5-3--5-5-3-5-|
D:--------------------------------------|
A:-3/5--5-5-5-5-5-5-5-------------------|
E:-1/3--3-3-3-3-3-3-3-------------------|

e:------------------------------------------|
B:------------------------------------------|
G:---------------------5h6-5-3--5-5-3-5-----|
D:--------------------------------------3-5-|
A:-3/5--5-5-5-5-5-5-5-----------------------|
E:-1/3--3-3-3-3-3-3-3-----------------------|

e:--------------------------------------|
B:--------------------------------------|
G:---------------------5h6-5-3--5-5-3-5-|
D:--------------------------------------|
A:-3/5--5-5-5-5-5-5-5-------------------|
E:-1/3--3-3-3-3-3-3-3-------------------|

e:--------------------------------|
B:--------------------------------|
G:--------------------------------|
D:---------------------3--5---5-5-|
A:-3/5--5-5-5-5-5-5-5--1--3---3-3-|
E:-1/3--3-3-3-3-3-3-3-------------|

                                                                           x2
e:---------------------------------------------------------------5bf~~--3~~~-|
B:----------------------------------------------------3-------6b-------------|
G:------------------------------------------------3-5---5-3-5----------------|
D:-3--5--5-5-5-5-5-5-5---3--5--5-5-5-5-5-5-5--3h5----------------------------|
A:-1--3--3-3-3-3-3-3-3---1--3--3-3-3-3-3-3-3---------------------------------|
E:---------------------------------------------------------------------------|


e:--------------------------------------|
B:--------------------------------------|
G:---------------------5h6-5-3--5-5-3-5-|
D:--------------------------------------|
A:-3/5--5-5-5-5-5-5-5-------------------|
E:-1/3--3-3-3-3-3-3-3-------------------|

e:------------------------------------------|
B:------------------------------------------|
G:---------------------5h6-5-3--5-5-3-5-----|
D:--------------------------------------3-5-|
A:-3/5--5-5-5-5-5-5-5-----------------------|
E:-1/3--3-3-3-3-3-3-3-----------------------|

e:--------------------------------------|
B:--------------------------------------|
G:---------------------5h6-5-3--5-5-3-5-|
D:--------------------------------------|
A:-3/5--5-5-5-5-5-5-5-------------------|
E:-1/3--3-3-3-3-3-3-3-------------------|

e:--------------------------------|
B:--------------------------------|
G:--------------------------------|
D:---------------------3--5---5-5-|
A:-3/5--5-5-5-5-5-5-5--1--3---3-3-|
E:-1/3--3-3-3-3-3-3-3-------------|




e:--------------------------|
B:--------------------------|
G:--------------------------|
D:---------------------3--5-|
A:-3/5--5-5-5-5-5-5-5--1--3-|
E:-1/3--3-3-3-3-3-3-3-------|

                                                                          
e:---------------------------------------------------------------5bf~~--3~~~-|
B:----------------------------------------------------3-------6b-------------|
G:------------------------------------------------3-5---5-3-5----------------|
D:-3--5--5-5-5-5-5-5-5---3--5--5-5-5-5-5-5-5--3h5----------------------------|
A:-1--3--3-3-3-3-3-3-3---1--3--3-3-3-3-3-3-3---------------------------------|
E:---------------------------------------------------------------------------|

e:---------------------------------------------------------------4b~~~--5bf~~--4~~~\-|
B:----------------------------------------------------3-------6b---------------------|
G:------------------------------------------------3-5---5-3-5------------------------|
D:-3--5--5-5-5-5-5-5-5---3--5--5-5-5-5-5-5-5--3h5------------------------------------|
A:-1--3--3-3-3-3-3-3-3---1--3--3-3-3-3-3-3-3-----------------------------------------|
E:-----------------------------------------------------------------------------------|

             pm.............   . .  ...............   . .
e:--------------------------------------------------------|
B:--------------------------------------------------------|
G:--------------------------------------------------------|
D:--------------------------------------------------------|
A:--------------------------------------------------------|
E:-2h4--4-4--4-4-4-4-4-4-4-4---4-4--4-4-4-4-4-4-4-4---4-4-|

                                  x3
e:----------------------------------|
B:----------------------------------|
G:----------------------------------|
D:------5------------5-5-------5-5--|
A:----------------------------------|
E:-3-3-----3-3-3--3-------3-3-------|


  solo
                         ----
e:----------------------/--------------------------------------------------------------|
B:---------------------/---------------------------------------------------------------|
G:-----------3-5-3-5bf/--5-5p3---3--------------------------3-5-5bfp3------------------|
D:-5p3---3-5-------------------5---5-3-5-5----------3-5~~-5-----------5-3----------3-5-|
A:-----5----------------------------------------3-5--------------------------1-3/5-----|
E:-----------------------------------------3~~-----------------------------3-----------|
-
e:-------------------------------------------------------------------------------------|
B:--------------------------------------------------6-5-4-3-------------------7b-7-6---|
G:---3---5-3-------------------------3---5-3-5b-5-4---------5-4-3--5-4-3h4p3---------7-|
D:-5---5-----5-3------------3-4-5--5---5-----------------------------------------------|
A:------------------1-3-4-5------------------------------------------------------------|
E:----------------3--------------------------------------------------------------------|

e:----------------------------------------------------------------------------------------|
B:----6-------------------7b-7-6----------------------------------------------------------|
G:-5b---5h6p5--3-5-3-------------7-5b--x----5bfp3-----------------3-----------------------|
D:-------------------3-5--------------------------3~~~~~----3-4-5---5-5~~~-5-3------------|
A:--------------------------------------------------------5--------------------5-4-3-1b~~-|
E:----------------------------------------------------------------------------------------|

e:----------------------------------------------------------------------------------|
B:----------------7b-7-6-------6---------------------7b-7-6-------------------------|
G:-----------------------7--5b---5h6p5--3-5-3---------------7-5b--x----5bfp3--------|
D:---------------------------------------------3-5---------------------------3~~~~~-|
A:-------1-3-1-3--------------------------------------------------------------------|
E:-3-1-3----------------------------------------------------------------------------|

e:---------------------------------------------------------------------------------------|
B:---------------------------------------------------------------------------------------|
G:-----------------------5-3-------------------------------------------------------------|
D:---------------3-5-3-5-----5--5p3---3--------3-x-3-3-3--5-5-x-5-5--5p3---3-------------|
A:-----1-3-1-3/5--------------------5---5-4-3--1-x-1-1-1--3-3-x-3-3------5---5-4-3--1b---|
E:-1-3---------------------------------------------------------------------------------3-|

e:----------------------------------------------------------------------|
B:----------------------------------------------------------------------|
G:------------------------------5bp3---3-5-5b-5-3-----------------------|
D:--------3-x-3-3-3--5-5-x-5-5-------5------------5-5--5p3---3-5-3~~----|
A:-1h3p1--1-x-1-1-1--3-3-x-3-3-----------------------------5------------|
E:----------------------------------------------------------------------|

e:--------------------------------------------------------------------------------|
B:--------------------------------------------------------------------------------|
G:-------------------------------------3-3----------------------------------------|
D:-3-x-3-3-3--5-5-x-5-5------------3-5-----5p3---3-5\--3-x-3-3-3--5-5-x-5-5-5-5-5-|
A:-1-x-1-1-1--3-3-x-3-3------1-3/5-------------5-------1-x-1-1-1--3-3-x-3-3-3-3-3-|
E:-----------------------1h3------------------------------------------------------|

e:------------------------------------------------------------|
B:------------------------------------------------------------|
G:------------------------------------------------------------|
D:------------------------------------------------------------|
A:-5-5-5-5-5-5-5--5\------------------------------------------|
E:-3-3-3-3-3-3-3--3\------------------------------------------|

  you gotta turn it off you gotta pay the food...
e:---------------------------------------------------------------5bf~~--3~~~-|
B:----------------------------------------------------3-------6b-------------|
G:------------------------------------------------3-5---5-3-5----------------|
D:-3--5--5-5-5-5-5-5-5---3--5--5-5-5-5-5-5-5--3h5----------------------------|
A:-1--3--3-3-3-3-3-3-3---1--3--3-3-3-3-3-3-3---------------------------------|
E:---------------------------------------------------------------------------|

e:---------------------------------------------------------------4b~~~--5bf~~--4~~~\-|
B:----------------------------------------------------3-------6b---------------------|
G:------------------------------------------------3-5---5-3-5------------------------|
D:-3--5--5-5-5-5-5-5-5---3--5--5-5-5-5-5-5-5--3h5------------------------------------|
A:-1--3--3-3-3-3-3-3-3---1--3--3-3-3-3-3-3-3-----------------------------------------|
E:-----------------------------------------------------------------------------------|

                             x4
e:-----------------------------|
B:-----------------------------|
G:-----------3-3--5-5--3h5p3---|
D:-5-5--3-3------------------5-|
A:-----------------------------|
E:-----------------------------|

e:------------------------------------------------------------|
B:------------------------------------------------------------|
G:------------------------------------------------------------|
D:------------------------------------------------------------|
A:-3--5-------------------------------------------------------|
E:-1--3-------------------------------------------------------|


http://www.myspace.com/greenleafheavyrock                        myspace
http://www.last.fm/music/Greenleaf                               website
www.youtube.com/watch?v=oOdsoc2Gi38                              song
http://www.amazon.com/gp/product/B008ZSBE1S/ref=dm_sp_alb        album 
http://www.amazon.com/Red-Tab/dp/B008ZS9ZV4                      single



hillo son mex

25/02/10
comments
We did not receive enough feedback on this tab! Please rate:
1 2 3 4 5
I want to post or [tab]
guest
You may want to rate the tab now too:
select rating
Please do not post tabs as comments. Select "correction" instead!