Oops, an error
Loading. Please wait.

All Aboard Tab

by Guns
121 views 1 this week
no commentswrite comment
1 2 3 4 5
please rate
Autoscroll
+/-
esc
set tempo
stop
Contributor
Tuning
D A D G B E
Hey! There's an official Ultimate Guitar app which is ideal
for learning songs when you're away from computer. Get the app
WARNING: You are trying to view
                                    content from Ultimate-Guitar.com
                                    in an unauthorized application,
                                    which is prohibited.

                                    Please use an official Ultimate
                                    Guitar Tabs application for iPhone,
                                    iPad or Android to access legitimate
                                    chords, guitar, bass, and drum tabs
                                    from Ultimate-Guitar.com database.

                                    Type "ultimate guitar tabs" in Apple
                                    App Store's or Android Market's
                                    search to find the application.
The Guns - All Aboard 
Album - Alter The Press! 2010.02

I know everyone says this but this is literally my first ever tab aha go easy on me ;D

Tuning - Drop D

Intro -

e||--------------------|--------------------|---------------------|------------------| 
B||--------------------|--------------------|---------------------|------------------| 
G||--------------------|--------------------|---------------------|------------------| 
D||-9-9-6-9-9-6-9------|-9-9-6-9-9-6-9------|-9-9-6-9-9-6-9-------|-9-9-6-11-10-9-8--| 
A||-9-9-6-9-9-6-9------|-9-9-6-9-9-6-9------|-9-9-6-9-9-6-9-------|-9-9-6-11-10-9-8--| 
D||-9-9-6-9-9-6-9------|-9-9-6-9-9-6-9------|-9-9-6-9-9-6-9-------|-9-9-6-11-10-9-8--| 
     
e||--------------------|--------------------|---------------------|------------------|
B||--------------------|--------------------|---------------------|------------------|
G||--------------------|--------------------|---------------------|------------------|
D||-6-6-6-6-6-6-6-(9)--|-6-6-6-6-6-6-6-(9)--|-6-6-6-6-6-6-6-------|-9-9-6-9-9-6-9----|
A||-6-6-6-6-6-6-6-(9)--|-6-6-6-6-6-6-6-(9)--|-6-6-6-6-6-6-6-------|-9-9-6-9-9-6-9----|
D||-6-6-6-6-6-6-6-(9)--|-6-6-6-6-6-6-6-(9)--|-6-6-6-6-6-6-6-------|-9-9-6-9-9-6-9----|

e||--------------------|--------------------|---------------------|------------------|
B||--------------------|--------------------|---------------------|------------------|
G||--------------------|--------------------|---------------------|------------------|
D||-6-6-6-6-6-6-6-(9)--|-6-6-6-6-6-6-6-(9)--|-6-6-6-6-6-6-6-------|-9-9-6-9-9-6-9----|
A||-6-6-6-6-6-6-6-(9)--|-6-6-6-6-6-6-6-(9)--|-6-6-6-6-6-6-6-------|-9-9-6-9-9-6-9----|
D||-6-6-6-6-6-6-6-(9)--|-6-6-6-6-6-6-6-(9)--|-6-6-6-6-6-6-6-------|-9-9-6-9-9-6-9----|

e||--------------------|--------------------|---------------------|------------------|
B||--------------------|--------------------|---------------------|------------------|
G||--------------------|--------------------|---------------------|------------------|
D||-6-6-6-6-6-6-6-6-6--|-6-6-6-6-6-6-6-6-6--|-6-6-6-6-6-----------|-9-9-6-9-9-6-9----|
A||-6-6-6-6-6-6-6-6-6--|-6-6-6-6-6-6-6-6-6--|-6-6-6-6-6-----------|-9-9-6-9-9-6-9----|
D||-6-6-6-6-6-6-6-6-6--|-6-6-6-6-6-6-6-6-6--|-6-6-6-6-6-----------|-9-9-6-9-9-6-9----|

e||--------------------|--------------------|---------------------|------------------|
B||--------------------|--------------------|---------------------|------------------|
G||--------------------|--------------------|---------------------|------------------|
D||-6-6-6-6-6-6-6-6-6--|-6-6-6-6-6-6-6-6-6--|-6-6-6-6-6-----------|-9-9-6-9-9-6-9----|
A||-6-6-6-6-6-6-6-6-6--|-6-6-6-6-6-6-6-6-6--|-6-6-6-6-6-----------|-9-9-6-9-9-6-9----|
D||-6-6-6-6-6-6-6-6-6--|-6-6-6-6-6-6-6-6-6--|-6-6-6-6-6-----------|-9-9-6-9-9-6-9----|

e||--------------------|--------------------|---------------------|------------------|
B||--------------------|--------------------|---------------------|------------------|
G||--------------------|--------------------|---------------------|------------------|
D||-9-9-6-9-9-6-9------|--------------------|---------------------|------------------|
A||-9-9-6-9-9-6-9------|--------------------|---------------------|------------------|
D||-9-9-6-9-9-6-9------|--------------------|---------------------|------------------|

Verse 1 -

e||--------------------|--------------------|---------------------|------------------|
B||--------------------|--------------------|---------------------|------------------|
G||--------------------|--------------------|---------------------|------------------|
D||-13-15-16-15-13-15--|-16-15--------------|-13-15-16-15-13-15---|-16-15------------|
A||-13-15-16-15-13-15--|-16-15--------------|-13-15-16-15-13-15---|-16-15------------|
D||-13-15-16-15-13-15--|-16-15--------------|-13-15-16-15-13-15---|-16-15------------|

e||--------------------|--------------------|---------------------|------------------|
B||--------------------|--------------------|---------------------|------------------|
G||--------------------|--------------------|---------------------|------------------|
D||-2-2-2-2-2-2-2------|-4-4-4-4-4-4-4------|---------------------|------------------|
A||-2-2-2-2-2-2-2------|-4-4-4-4-4-4-4------|---------------------|------------------|
D||-2-2-2-2-2-2-2------|-4-4-4-4-4-4-4------|---------------------|------------------|

e||--------------------|--------------------|---------------------|------------------|
B||--------------------|--------------------|---------------------|------------------|
G||--------------------|--------------------|---------------------|------------------|
D||-13-15-16-15-13-15--|-16-15--------------|-13-15-16-15-13-15---|-16-15------------|
A||-13-15-16-15-13-15--|-16-15--------------|-13-15-16-15-13-15---|-16-15------------|
D||-13-15-16-15-13-15--|-16-15--------------|-13-15-16-15-13-15---|-16-15------------|


e||--------------------|--------------------|---------------------|------------------|
B||--------------------|--------------------|---------------------|------------------|
G||--------------------|--------------------|---------------------|------------------|
D||-2-2-2-2-2-2-2------|-4-4-4-4-4-4-4------|---------------------|------------------|
A||-2-2-2-2-2-2-2------|-4-4-4-4-4-4-4------|---------------------|------------------|
D||-2-2-2-2-2-2-2------|-4-4-4-4-4-4-4------|---------------------|------------------|

e||--------------------|--------------------|---------------------|------------------|
B||--------------------|--------------------|---------------------|------------------|
G||--------------------|--------------------|---------------------|------------------|
D||-13-15-16-15-13-15--|-16-15--------------|-13-15-16-15-13-15---|-16-15------------|
A||-13-15-16-15-13-15--|-16-15--------------|-13-15-16-15-13-15---|-16-15------------|
D||-13-15-16-15-13-15--|-16-15--------------|-13-15-16-15-13-15---|-16-15------------|


e||--------------------|--------------------|---------------------|------------------|
B||--------------------|--------------------|---------------------|------------------|
G||--------------------|--------------------|---------------------|------------------|
D||-2-2-2-2-2-2-2------|-4-4-4-4-4-4-4------|-6-9-11-12-11-9------|-9-9-6-9-9-6-9----|
A||-2-2-2-2-2-2-2------|-4-4-4-4-4-4-4------|-6-9-11-12-11-9------|-9-9-6-9-9-6-9----|
D||-2-2-2-2-2-2-2------|-4-4-4-4-4-4-4------|-6-9-11-12-11-9------|-9-9-6-9-9-6-9----|

Chorus -

e||--------------------|--------------------|---------------------|------------------|
B||--------------------|--------------------|---------------------|------------------|
G||--------------------|--------------------|---------------------|------------------|
D||-6-6-6-6-6-6-6-6-6--|-6-6-6-6-6-6-6-6-6--|-6-6-6-6-6-----------|-9-9-6-9-9-6-9----|
A||-6-6-6-6-6-6-6-6-6--|-6-6-6-6-6-6-6-6-6--|-6-6-6-6-6-----------|-9-9-6-9-9-6-9----|
D||-6-6-6-6-6-6-6-6-6--|-6-6-6-6-6-6-6-6-6--|-6-6-6-6-6-----------|-9-9-6-9-9-6-9----|

e||--------------------|--------------------|---------------------|------------------|
B||--------------------|--------------------|---------------------|------------------|
G||--------------------|--------------------|---------------------|------------------|
D||-6-6-6-6-6-6-6-6-6--|-6-6-6-6-6-6-6-6-6--|-6-6-6-6-6-----------|-9-9-6-9-9-6-9----|
A||-6-6-6-6-6-6-6-6-6--|-6-6-6-6-6-6-6-6-6--|-6-6-6-6-6-----------|-9-9-6-9-9-6-9----|
D||-6-6-6-6-6-6-6-6-6--|-6-6-6-6-6-6-6-6-6--|-6-6-6-6-6-----------|-9-9-6-9-9-6-9----|

e||--------------------|--------------------|---------------------|------------------|
B||--------------------|--------------------|---------------------|------------------|
G||--------------------|--------------------|---------------------|------------------|
D||-6-6-6-6-6-6-6-6-6--|-6-6-6-6-6-6-6-6-6--|-6-6-6-6-6-----------|-9-9-6-9-9-6-9----|
A||-6-6-6-6-6-6-6-6-6--|-6-6-6-6-6-6-6-6-6--|-6-6-6-6-6-----------|-9-9-6-9-9-6-9----|
D||-6-6-6-6-6-6-6-6-6--|-6-6-6-6-6-6-6-6-6--|-6-6-6-6-6-----------|-9-9-6-9-9-6-9----|

e||--------------------|--------------------|---------------------|------------------|
B||--------------------|--------------------|---------------------|------------------|
G||--------------------|--------------------|---------------------|------------------|
D||-6-6-6-6-6-6-6-6-6--|-6-6-6-6-6-6-6-6-6--|-6-6-6-6-6-----------|-9-9-6-9-9-6-9----|
A||-6-6-6-6-6-6-6-6-6--|-6-6-6-6-6-6-6-6-6--|-6-6-6-6-6-----------|-9-9-6-9-9-6-9----|
D||-6-6-6-6-6-6-6-6-6--|-6-6-6-6-6-6-6-6-6--|-6-6-6-6-6-----------|-9-9-6-9-9-6-9----|

Verse 2 -

e||--------------------|--------------------|---------------------|------------------|
B||--------------------|--------------------|---------------------|------------------|
G||--------------------|--------------------|---------------------|------------------|
D||-13-15-16-15-13-15--|-16-15--------------|-13-15-16-15-13-15---|-16-15------------|
A||-13-15-16-15-13-15--|-16-15--------------|-13-15-16-15-13-15---|-16-15------------|
D||-13-15-16-15-13-15--|-16-15--------------|-13-15-16-15-13-15---|-16-15------------|

e||--------------------|--------------------|---------------------|------------------|
B||--------------------|--------------------|---------------------|------------------|
G||--------------------|--------------------|---------------------|------------------|
D||-2-2-2-2-2-2-2------|-4-4-4-4-4-4-4------|---------------------|------------------|
A||-2-2-2-2-2-2-2------|-4-4-4-4-4-4-4------|---------------------|------------------|
D||-2-2-2-2-2-2-2------|-4-4-4-4-4-4-4------|---------------------|------------------|

e||--------------------|--------------------|---------------------|------------------|
B||--------------------|--------------------|---------------------|------------------|
G||--------------------|--------------------|---------------------|------------------|
D||-13-15-16-15-13-15--|-16-15--------------|-13-15-16-15-13-15---|-16-15------------|
A||-13-15-16-15-13-15--|-16-15--------------|-13-15-16-15-13-15---|-16-15------------|
D||-13-15-16-15-13-15--|-16-15--------------|-13-15-16-15-13-15---|-16-15------------|


e||--------------------|--------------------|---------------------|------------------|
B||--------------------|--------------------|---------------------|------------------|
G||--------------------|--------------------|---------------------|------------------|
D||-2-2-2-2-2-2-2------|-4-4-4-4-4-4-4------|---------------------|------------------|
A||-2-2-2-2-2-2-2------|-4-4-4-4-4-4-4------|---------------------|------------------|
D||-2-2-2-2-2-2-2------|-4-4-4-4-4-4-4------|---------------------|------------------|

e||--------------------|--------------------|---------------------|------------------|
B||--------------------|--------------------|---------------------|------------------|
G||--------------------|--------------------|---------------------|------------------|
D||-13-15-16-15-13-15--|-16-15--------------|-13-15-16-15-13-15---|-16-15------------|
A||-13-15-16-15-13-15--|-16-15--------------|-13-15-16-15-13-15---|-16-15------------|
D||-13-15-16-15-13-15--|-16-15--------------|-13-15-16-15-13-15---|-16-15------------|


e||--------------------|--------------------|---------------------|------------------|
B||--------------------|--------------------|---------------------|------------------|
G||--------------------|--------------------|---------------------|------------------|
D||-2-2-2-2-2-2-2------|-4-4-4-4-4-4-4------|-6-9-11-12-11-9------|-9-9-6-9-9-6-9----|
A||-2-2-2-2-2-2-2------|-4-4-4-4-4-4-4------|-6-9-11-12-11-9------|-9-9-6-9-9-6-9----|
D||-2-2-2-2-2-2-2------|-4-4-4-4-4-4-4------|-6-9-11-12-11-9------|-9-9-6-9-9-6-9----|

Chorus -

e||--------------------|--------------------|---------------------|------------------|
B||--------------------|--------------------|---------------------|------------------|
G||--------------------|--------------------|---------------------|------------------|
D||-6-6-6-6-6-6-6-6-6--|-6-6-6-6-6-6-6-6-6--|-6-6-6-6-6-----------|-9-9-6-9-9-6-9----|
A||-6-6-6-6-6-6-6-6-6--|-6-6-6-6-6-6-6-6-6--|-6-6-6-6-6-----------|-9-9-6-9-9-6-9----|
D||-6-6-6-6-6-6-6-6-6--|-6-6-6-6-6-6-6-6-6--|-6-6-6-6-6-----------|-9-9-6-9-9-6-9----|

e||--------------------|--------------------|---------------------|------------------|
B||--------------------|--------------------|---------------------|------------------|
G||--------------------|--------------------|---------------------|------------------|
D||-6-6-6-6-6-6-6-6-6--|-6-6-6-6-6-6-6-6-6--|-6-6-6-6-6-----------|-9-9-6-9-9-6-9----|
A||-6-6-6-6-6-6-6-6-6--|-6-6-6-6-6-6-6-6-6--|-6-6-6-6-6-----------|-9-9-6-9-9-6-9----|
D||-6-6-6-6-6-6-6-6-6--|-6-6-6-6-6-6-6-6-6--|-6-6-6-6-6-----------|-9-9-6-9-9-6-9----|

e||--------------------|--------------------|---------------------|------------------|
B||--------------------|--------------------|---------------------|------------------|
G||--------------------|--------------------|---------------------|------------------|
D||-6-6-6-6-6-6-6-6-6--|-6-6-6-6-6-6-6-6-6--|-6-6-6-6-6-----------|-9-9-6-9-9-6-9----|
A||-6-6-6-6-6-6-6-6-6--|-6-6-6-6-6-6-6-6-6--|-6-6-6-6-6-----------|-9-9-6-9-9-6-9----|
D||-6-6-6-6-6-6-6-6-6--|-6-6-6-6-6-6-6-6-6--|-6-6-6-6-6-----------|-9-9-6-9-9-6-9----|

e||--------------------|--------------------|---------------------|------------------|
B||--------------------|--------------------|---------------------|------------------|
G||--------------------|--------------------|---------------------|------------------|
D||-6-6-6-6-6-6-6-6-6--|-6-6-6-6-6-6-6-6-6--|-6-6-6-6-6-----------|-9-9-6-9-9-6-9----|
A||-6-6-6-6-6-6-6-6-6--|-6-6-6-6-6-6-6-6-6--|-6-6-6-6-6-----------|-9-9-6-9-9-6-9----|
D||-6-6-6-6-6-6-6-6-6--|-6-6-6-6-6-6-6-6-6--|-6-6-6-6-6-----------|-9-9-6-9-9-6-9----|

e||--------------------|--------------------|---------------------|------------------|
B||--------------------|--------------------|---------------------|------------------|
G||--------------------|--------------------|---------------------|------------------|
D||-9-9-6-9-9-6-9------|--------------------|---------------------|------------------|
A||-9-9-6-9-9-6-9------|--------------------|---------------------|------------------|
D||-9-9-6-9-9-6-9------|--------------------|---------------------|------------------|

Bridge - 

e||--------------------|--------------------|---------------------|------------------|
B||--------------------|--------------------|---------------------|------------------|
G||--------------------|--------------------|---------------------|------------------|
D||-6~-----------------|-4-6~---------------|-4-6~----------------|-4-6~-------------|
A||-6~-----------------|-4-6~---------------|-4-6~----------------|-4-6~-------------|
D||-6~-----------------|-4-6~---------------|-4-6~----------------|-4-6~-------------|

e||--------------------|--------------------|---------------------|------------------|
B||--------------------|--------------------|---------------------|------------------|
G||--------------------|--------------------|---------------------|------------------|
D||-4-6----------------|--------------------|---------------------|------------------|
A||-4-6----------------|--------------------|---------------------|------------------|
D||-4-6----------------|--------------------|---------------------|------------------|

Solo - (Rhythm guitar) -

e||--------------------|--------------------|---------------------|------------------|
B||--------------------|--------------------|---------------------|------------------|
G||--------------------|--------------------|---------------------|------------------|
D||-6-6-6-6-6-6-6-6-6--|-6-6-6-6-6-6-6-6-6--|-6-6-6-6-6-6-6-6-6---|-6-6-6------------|
A||-6-6-6-6-6-6-6-6-6--|-6-6-6-6-6-6-6-6-6--|-6-6-6-6-6-6-6-6-6---|-6-6-6------------|
D||-6-6-6-6-6-6-6-6-6--|-6-6-6-6-6-6-6-6-6--|-6-6-6-6-6-6-6-6-6---|-6-6-6------------|

e||--------------------|--------------------|---------------------|------------------|
B||--------------------|--------------------|---------------------|------------------|
G||--------------------|--------------------|---------------------|------------------|
D||-6-6-6-6-6-6-6-6-6--|-6-6-6-6-6-6-6-6-6--|-6-6-6-6-6-6-6-6-6---|-6-6-6------------|
A||-6-6-6-6-6-6-6-6-6--|-6-6-6-6-6-6-6-6-6--|-6-6-6-6-6-6-6-6-6---|-6-6-6------------|
D||-6-6-6-6-6-6-6-6-6--|-6-6-6-6-6-6-6-6-6--|-6-6-6-6-6-6-6-6-6---|-6-6-6------------|


e||--------------------|--------------------|---------------------|------------------|
B||--------------------|--------------------|---------------------|------------------|
G||--------------------|--------------------|---------------------|------------------|
D||-6-6-6-6-6-6-6-6-6--|-6-6-6-6-6-6-6-6-6--|-6-6-6-6-6-6-6-6-6---|-6-6-6------------|
A||-6-6-6-6-6-6-6-6-6--|-6-6-6-6-6-6-6-6-6--|-6-6-6-6-6-6-6-6-6---|-6-6-6------------|
D||-6-6-6-6-6-6-6-6-6--|-6-6-6-6-6-6-6-6-6--|-6-6-6-6-6-6-6-6-6---|-6-6-6------------|


e||--------------------|--------------------|---------------------|------------------|
B||--------------------|--------------------|---------------------|------------------|
G||--------------------|--------------------|---------------------|------------------|
D||-6-6-6-6-6-6-6-6-6--|-6-6-6-6-6-6-6-6-6--|-6-6-6-6-6-6-6-6-6---|-6-6-6------------|
A||-6-6-6-6-6-6-6-6-6--|-6-6-6-6-6-6-6-6-6--|-6-6-6-6-6-6-6-6-6---|-6-6-6------------|
D||-6-6-6-6-6-6-6-6-6--|-6-6-6-6-6-6-6-6-6--|-6-6-6-6-6-6-6-6-6---|-6-6-6------------|

e||--------------------|--------------------|---------------------|------------------|
B||--------------------|--------------------|---------------------|------------------|
G||--------------------|--------------------|---------------------|------------------|
D||-6-6-6-6-6-6-6-6-6--|-6-6-6-6-6-6-6-6-6--|-6-6-6-6-6-6-6-6-6---|-6-6-6------------|
A||-6-6-6-6-6-6-6-6-6--|-6-6-6-6-6-6-6-6-6--|-6-6-6-6-6-6-6-6-6---|-6-6-6------------|
D||-6-6-6-6-6-6-6-6-6--|-6-6-6-6-6-6-6-6-6--|-6-6-6-6-6-6-6-6-6---|-6-6-6------------|

Chorus -

e||--------------------|--------------------|---------------------|------------------|
B||--------------------|--------------------|---------------------|------------------|
G||--------------------|--------------------|---------------------|------------------|
D||-6-6-6-6-6-6-6-6-6--|-6-6-6-6-6-6-6-6-6--|-6-6-6-6-6-----------|-9-9--------------|
A||-6-6-6-6-6-6-6-6-6--|-6-6-6-6-6-6-6-6-6--|-6-6-6-6-6-----------|-9-9--------------|
D||-6-6-6-6-6-6-6-6-6--|-6-6-6-6-6-6-6-6-6--|-6-6-6-6-6-----------|-9-9--------------|

e||--------------------|--------------------|---------------------|------------------|
B||--------------------|--------------------|---------------------|------------------|
G||--------------------|--------------------|---------------------|------------------|
D||-6-6-6-6-6-6-6-6-6--|-6-6-6-6-6-6-6-6-6--|-6-6-6-6-6-----------|-9-9-6-9-9-6-9----|
A||-6-6-6-6-6-6-6-6-6--|-6-6-6-6-6-6-6-6-6--|-6-6-6-6-6-----------|-9-9-6-9-9-6-9----|
D||-6-6-6-6-6-6-6-6-6--|-6-6-6-6-6-6-6-6-6--|-6-6-6-6-6-----------|-9-9-6-9-9-6-9----|

e||--------------------|--------------------|---------------------|------------------|
B||--------------------|--------------------|---------------------|------------------|
G||--------------------|--------------------|---------------------|------------------|
D||-6-6-6-6-6-6-6-6-6--|-6-6-6-6-6-6-6-6-6--|-6-6-6-6-6-----------|-9-9-6-9-9-6-9----|
A||-6-6-6-6-6-6-6-6-6--|-6-6-6-6-6-6-6-6-6--|-6-6-6-6-6-----------|-9-9-6-9-9-6-9----|
D||-6-6-6-6-6-6-6-6-6--|-6-6-6-6-6-6-6-6-6--|-6-6-6-6-6-----------|-9-9-6-9-9-6-9----|

e||--------------------|--------------------|---------------------|------------------|
B||--------------------|--------------------|---------------------|------------------|
G||--------------------|--------------------|---------------------|------------------|
D||-6-6-6-6-6-6-6-6-6--|-6-6-6-6-6-6-6-6-6--|-6-6-6-6-6-----------|-9-9-6-9-9-6-9----|
A||-6-6-6-6-6-6-6-6-6--|-6-6-6-6-6-6-6-6-6--|-6-6-6-6-6-----------|-9-9-6-9-9-6-9----|
D||-6-6-6-6-6-6-6-6-6--|-6-6-6-6-6-6-6-6-6--|-6-6-6-6-6-----------|-9-9-6-9-9-6-9----|

e||--------------------|--------------------|---------------------|------------------|
B||--------------------|--------------------|---------------------|------------------|
G||--------------------|--------------------|---------------------|------------------|
D||-9-9-6-9-9-6-9------|--------------------|---------------------|------------------|
A||-9-9-6-9-9-6-9------|--------------------|---------------------|------------------|
D||-9-9-6-9-9-6-9------|--------------------|---------------------|------------------|

Done.
Tabbed by - Matt Wiggins.

comments
We did not receive enough feedback on this tab! Please rate:
print report bad tab
1 2 3 4 5
I want to post or [tab]
guest
You may want to rate the tab now too:
select rating
Please do not post tabs as comments. Select "correction" instead!