Oops, an error
Loading. Please wait.

Appetite For Destruction Tab

ver1
ver1

Album

Interactive

More versions @911Tabs.com
208,024 views 84 this week
40 commentsread comments
1 2 3 4 5
excellent!
x 49
Autoscroll
+/-
esc
set tempo
stop
Contributor
Hey! There's an official Ultimate Guitar app which is ideal
for learning songs when you're away from computer. Get the app
WARNING: You are trying to view
                                    content from Ultimate-Guitar.com
                                    in an unauthorized application,
                                    which is prohibited.

                                    Please use an official Ultimate
                                    Guitar Tabs application for iPhone,
                                    iPad or Android to access legitimate
                                    chords, guitar, bass, and drum tabs
                                    from Ultimate-Guitar.com database.

                                    Type "ultimate guitar tabs" in Apple
                                    App Store's or Android Market's
                                    search to find the application.
Band- Guns N Roses
Album- Appetite For Destruction

1.Welcome To The Jungle
2.It's So Easy
3.Nightrain
4.Outta Get Me
5.Mr.Brownstone
6.Paradise City
7.My Michelle
8.Think About You
9.Sweet Child O' Mine
10.You're Crazy
11.Anything Goes
12.Rocket Queen

1.WELCOME TO THE JUNGLE

Intro. with echo

e||------------------------------------------|
B||------------------------------------------|
G||--4--4-4--2-4--2----4------4-------4------|
D||-----------------4----4--2----2-0----2----|
A||---------------------------------------2--|
E||------------------------------------------|

------------------------------------------|
------------------------------------------|
--4--4-4--2-4--2----4------4-------4------|
-----------------4----4--2----2-0----2----|
---------------------------------------2--|
------------------------------------------|

------------------------------------------|
------------------------------------------|
--4--4-4--2-4--2----4------4-------4------|
-----------------4----4--2----2-0----2----|
---------------------------------------2--|
------------------------------------------|

------------------------------------------|
------------------------------------------|
--4--4-4--2-4--2----4------4-------4------|
-----------------4----4--2----2-0----2----|
---------------------------------------2--|
------------------------------------------|

------------------------------------------|
------------------------------------------|
--4--4-4--2-4--2----4------4-------4------|
-----------------4----4--2----2-0----2----|
---------------------------------------2--|
------------------------------------------|

------------------------------------------|
------------------------------------------|
--4--4-4--2-2--2--------------------------|
-----------------4--4-4--2-2--2-0--0------|
-------------------------------------2-0--|
------------------------------------------|

-------------------------------------------|
-------------------------------------------|
--4--4-4--2-2--2---------------------------|
-----------------4--4-4--2-2--2-0--0-------|
-------------------------------------2--0--|
-------------------------------------------|

------------------------------------------|--------------------------|
--0--0-0----------------------------------|--------------------------|
----------2-2--2--------------------------|--4--4--4--4--4--4--4--4--|
-----------------4--4-4--2-2--2-0--0------|--4--4--4--4--4--4--4--4--|
-------------------------------------2-0--|--2--2--2--2--2--2--2--2--|
------------------------------------------|--------------------------|

------------------------|--------------------------|
------------------------|--------------------------|
--4--4--4--4--4----4\---|--2-------2-2--0----------|
--4--4--4--4--4----4\---|--2-------2-2--0----------|
--2--2--2--2--2----2\---|--0-------0-0----------0--|
------------------------|-------3b--------3--2-----|

----------------------------|----------------------------|
----------------------------|----------------------------|
--2--x-x----2-2--0----------|--2--x-x----2-2--0----------|
--2--x-x----2-2--0----------|--2--x-x----2-2--0----------|
--0--x-x----0-0----------0--|--0--x-x----0-0----------0--|
---------3b--------3--2-----|---------3b--------3--2-----|


                              Welcome to the jungle
-----------x-5------------||---------------------------|
--------------------------||---------------------------|
--2-----x-----------------||---------------------------|
--2-----x-----------------||---------------------------|
--0--0--x----------3-0----||--0--0------0--0-----------|
-----------------------2--||--------3b-------3--2--0-0-|


  we got fun and games        We got everything you want
---------------------------|---------------------------|
---------------------------|---------------------------|
---------------------------|---------------------------|
---------------------------|---------------------------|
--0--0------0--0-----------|--0--0------0--0-----------|
--------3b-------3--2--0-0-|--------3b-------3--2--0-0-|


 honey we know the names we are the people that can find what
---------------------------|---------------------------|
---------------------------|---------------------------|
-----------------------7/9-|--9--9--7--x-9--9----------|
-----------------------7/9-|--9--9--7--x-9--9-7--6--4--|
--0--0------0--0----0--5/7-|--7--7--5--x-7--7-5--4--2--|
--------3b-------3---------|---------------------------|


  ever you may need           If you got the money honey
---------------------------|---------------------------|
---------------------------|---------------------------|
--9--9--7--x-9--9----------|--9--9--7--x-9--9----------|
--9--9--7--x-9--9-7--6--4--|--9--9--7--x-9--9-7--6--4--|
--7--7--5--x-7--7-5--4--2--|--7--7--5--x-7--7-5--4--2--|
---------------------------|---------------------------|

  we got your disease In the Welcome to the    jungle Want to bring you to your
                     jungle
---------------------------|----------------------|----------------------|
---------------------------|----------------------|----------------------|
--9--9--7--x-9--9----------|--5-------------------|--7-------------------|
--9--9--7--x-9--9-7--9-----|--5-------------------|--7-------------------|
--7--7--5--x-7--7-5--7--0--|--3----2--------------|--5----4--------------|
---------------------------|------------5----3----|------------7----5----|


  sha na na na na (11 na)      knees          knees
----------------------------|----------------------------|
----------------------------|----------------------------|
--9--9----------------------|----------------------------|
--9--9----------------------|----------------------------|
--7--7--5-------------------|--7--7--5-------------------|
-----------6-6~6\5-5--3--0--|-----------6-6-6\5-5--3--0--|


  Uh                ah         I wanna watch you bleed
----------------------------|------------------------|
----------------------------|------------------------|
----------------------------|------------------------|
----------------------------|------------------------|
--7--7--5-------------------|--7---5-----------------|
-----------6-6-6\5-5--3--0--|----------6----5--3--4--|

Welcome to the jungle we take it day by day
If you want it, you're gonna bleed,
but it's the price you pay.
And your a very sexy girl
who's very hard to please
You can taste the bright lights,
but you won't get there for free.
In the jungle, welcome to the jungle
Fell my, my, my,  my serpentine.
Uh ah I wanna hear you scream

        hear you scream       guitar solo 1
------------------------|-------------------------------|
------------------------|-------------------------------|
------------------------|----12/-13-----------13----13~-|
------------------------|----11/-12-----12-14-14----14~-|
--7---5-----------------|-------------------------------|
----------6----5--3--4--|------------0------------------|

--------------------------|----------------------------|
----12------------15~-----|------------------15----15~-|
----12--13--------16~-----|----12/-13--------13----13~-|
--------14----------------|----11/-12------------------|
--------------------------|----------------------------|
--------------------------|------------0--0------------|

------------------15--15-----|----------19b---------19--18--17b-|
---12-14--14\-----15--15-----|------17--------------------------|
------15--15\-------------6/-|--18------------------------------|
-----------------------------|----------------------------------|
-----------------------------|----------------------------------|
-----------------------------|----------------------------------|

--------15-16-------------|------------------------------------------|
--------------15~------15b|----15p-12--------------------------------|
--------------------------|------------14b-14r--12-14-12-------------|
--------------------------|------------------------------14-14-------|
--------------------------|------------------------------------13-13-|
--------------------------|------------------------------------------|

---------------------------|---------------------------|
---------------------------|---------------------------|
--------------8b-----------|---------------------------|
---------------------11\---|---------------------------|
--12r--10------------------|---------------------------|
----------12---------------|---------------------------|

Welcome to the jungle,
it's gets worse here every day
You learn to live like an animal,
in the jungle where we play
If you got a hunger for what you see
you'll take it eventually
You  can have anything you want,
but you better not take it from me
In the jungle, Welcome to the jungle
watch it bring you to your
sha na na na na na na na knees knees
Uh ah I'm gonna watch you bleed


|--------------------|
|--7-----------------|
|--7------------5----|
|--7------------3----|
|--5-----------------|
|--------------------|

--3--------3\--------|------------------------|----------------------------|
--3--------3\---6----|--7------8p-7-----------|--12------13--12---------8--|
--4--------4\---4----|--7------7--------------|--12-------------7-5--5-----|
--5--------5\--------|--7------7-----7--10----|--12------------------------|
--5--------5\--------|--5---------------8-----|--10------------------------|
--3--------3\--------|------------------------|----------------------------|


   And when you're high       you never                    ever want to come down
-------------------------|-------------------------------|---------------------|
--7----------------------|--12------13p-12--------10\-7--|--7------------------|
-----7-------------------|--12---------------------------|--7------------------|
--------7--6--7----10----|--12-------------12\10--10--7--|--7------------10----|
-------------------8-----|--10---------------------------|---------------8-----|
-------------------------|-------------------------------|---------------------|


                        so    down                          suck down
------------------------------|------------------------------|
--12--12--12--12--12----10----|--12--12--12--12--12----10----|
--12--12--12--12--12----10----|--12--12--12--12--12----10----|
--12--12--12--12--12----10----|--12--12--12--12--12----10----|
------------------------------|------------------------------|
------------------------------|------------------------------|


                          suck down
------------------------------|----------------------------------|
------------------------------|----------------------------------|
--12--12--12--12--12----10----|--14--14--14--14--14--14--14\-12--|
--12--12--12--12--12----10----|--14--14--14--14--14--14--14\-12--|
--10--10--10--10--10----8-----|--12--12--12--12--12--12--12\-10--|
------------------------------|----------------------------------|


 Yeah
--------------------------|---------------------------|
--------------------------|---------------------------|
-----6/-7--------9-----9--|--9--6/-7--------12~---12~-|
-----5/-6--------9-----9--|--9--5/-6--------12~---12~-|
--------------------------|---------------------------|
--0--------0--0-----0-----|-----------0--0------------|


                                                       guitar  solo2
--------------------------|---------------------------|----------------------|
--------------------------|---------------------------|----------------------|
-----6/-7--------9-----9--|--9--6/-7--------12~---12~-|----------------------|
-----5/-6--------9-----9--|--9--5/-6--------12~---12~-|----------------------|
--------------------------|---------------------------|-----------7-----9r---|
--0--------0--0-----0-----|-----------0--0------------|--9-----------9-------|

--------------------------|-----------------------|--------------------------|
--------------------------|-----------------------|----------------------12--|
--------------------------|----------9b-----11r---|----------11--9----9b-11r-|
----------------9--9b-11--|-------------11--------|----------------11--------|
--------7-9/11------------|-----------------------|--------------------------|
--------------------------|-----------------------|--------------------------|

------------------------|---------------------0--|------0----0----0----|
----------12------------|---------------5-----5--|------3----2----0----|
----------11---9--------|------------6-----6-----|---------------------|
-----------------11--9~-|--9\-----6--------------|---------------------|
------------------------|------------------------|---------------------|
------------------------|------------------------|---------------------|

------------------------|------------------------|-----------------------------|
--2r-----0-----0-----0--|----0--0--0--0----2--4--|---------------------15--15b-|
--2r-----0/-1--1--2/-4--|----4--2--2--1----2--4--|--------------4--------------|
------------------------|------------------4--4--|--2r--0-2--0--4--12----------|
------------------------|------------------------|-----------------------------|
------------------------|------------------------|-----------------------------|

------------------------|---------------------------------|
------15r---------------|------------------14\12----------|
------------14b---14r---|--14r-12----------------------6b-|
------------------------|---------14\12/14----12----------|
------------------------|---------------------------------|
------------------------|---------------------------------|

----------------------|---------------------|-------------------|
----------------------|---------------------|-------------------|
------4---------------|---------------------|-------------------|
---------6b-----4-----|---------------------|-------------------|
-------------------4r-|------2--------------|-------------------|
----------------------|---------4r-----0----|--2~---------------|


                                              slide up
------------------||-------------------|--------------------|
------------------||--4----------------|-------4/-----------|
------------------||--4----------------|-------4/-----------|
------------------||--4----------------|-------4/-----------|
------------------||--2----------------|--------------------|
------------------||-------------------|--------------------|

----------------------|----------------34--|--31\-----31--31\-30\-----|
------x---------------|--------------------|--------------------------|
------12--------------|--------------------|--------------------------|
------x---------------|--------------------|--------------------------|
------x---------------|--------------------|--------------------------|
----------------------|--------------------|--------------------------|

--28-----24---24\-------|--19\--------------||
------------------------|-------------------||
------------------------|-------------------||
------------------------|-------------------||
------------------------|-------------------||
------------------------|-------------------||

----------------------|-----------------------|
--7----6----7----3----|--5----3----5----6-----|
--6----5----6----4----|--6----4----6----7-----|
--4----3----4----5----|--7----5----7----8-----|
----------------------|-----------------------|
----------------------|--------------------0--|

1st 4 bars 3 times
In the jungle Welcome to the jungle
Watch it bring you to your
sha na na na na knees knees
In the jungle, welcome to the jungle
Feel my, my, my,  my serpentine.
etc..

2.IT'S SO EASY

4/4
  Gtr I

::Played during Duffs bass intro::

|-------------------------------|
|-12---<12>----12---12----------|
|-12---<12>----12-------<12>----|
|-12---<12>---------------------|
|------<12>---------------------|
|-------------------------------|

::Main riff::

|-----------0----0-0----|
|-----------0----0-0----|
|-3-3S2-0---------------|
|-3-3S2-0---------------|
|---------2-------------|
|---------0----0--------|

::Played by gtr 2 during main riff::

|-----------------------------|
|-----------------------------|
|-----------------------------|
|--------------------2--------|
|------------------2---1-0----|
|-5b6-5--3--0--3-4------------|

::verse::

Bb5    A5 G5   E  E5(2)                       Bb5
                  I see your sis - ter in her sun - day

A5    G5    (E)  E5
 Dress.          She's out to.......

::During chorus played by Slash::

|-5-5-3-5--6p5p3p0-0-0--<0>----|
|-5-5-3-5--6p5p3p0-0-0--<0>----|
|------------------------------|
|------------------------------|
|------------------------------|
|------------------------------|

::Chorus::
A5     G5  A5  Bb5         E          Esus#4 Esus4
               It's So     Eas    -   y,

p.m         slide
E      Esus#4    Esus4
Eas    -   y................


::Bridge 1::

|--------------------------------------------------------------------|
|--------------------------------------------------------------------|
|---------------------------------------0-----0---0-----0-----0---0--|
|-----0-----0---0------0-----0---0----4-----4---------1-----1--------|
|---0-----0----------2-----2--------2-----2-----2---0-----0-----0----|
|-2-----2-----2----3-----3-----3-------------------------------------|

::Bridge 1 continued - immidietly after first part gets over::

  PM|         PM----|     PM|     PM----|

|------------------------------------------------|
|------------------------------------------------|
|------------------------------------------------|
|------------------------------------------------|
|-----5-7-5-7---------5-7-----5-7---------5-7----|
|-0-0---------0-0-0-0-----0-0-----0-0-0-0--------|


  PM------|

|--------------------------|
|--------------------------|
|--------------------------|
|--------------------------|
|-----------7-7-7-5--------|
|-0-0-0-0-0---------7-5----|

::Pre solo verse::

|---------------0-0-------0----|
|---------------0-0-3-3S5-0----|
|-7-7-5-7-----------2-2S4------|
|-7-7-5-7-5-4-2----------------|
|-5-------5-4-2----------------|
|-------------0----------------|


::Solo::

|-------------------------------12---------------------------------------------|
|-17b19--17b19--17b19---15b16.5----15p-12-------------12-----------------------|
|---------------17b19---------------------14b15-12-14----12-----------12-14----|
|-----------------------------------------------------------14-14--14----------|
|------------------------------------------------------------------------------|
|------------------------------------------------------------------------------|


                               ~~

|-----------------------------------|
|-12----12----12-------12-----15----|
|----15----15----15-14----12--------|
|-----------------------------------|
|-----------------------------------|
|-----------------------------------|


                           ~~

|-------------------------------|
|-14b15-14b15-14----------15----|
|----------------12-------------|
|-------------------14-14-------|
|-------------------------------|
|-------------------------------|

::last verse::

F#5        G5              B5                     A5
Come with_ me.   Don't ask__ me where__ cause' I don't know._

       F#5             G5                 B5
I'll__ try__ to__ please_ you.  I ain't got no money but it

A5
goes to show

rake           rake
|------15--12-------10----(10)~~~~(10)s----------0--|
|----"------------"-10fb--(10)----(10)s-2fb--(2)----|
|---"------------"----------------------------------|
|--"------------"-----------------------------------|
|---------------------------------------------------|
|---------------------------------------------------|

|---------------------------------------------------|
|--3p0----------------------------------------------|
|------2fbr(2)p0------------------------------------|
|----------------2--2~~(2)~~-2--5fbr----------------|
|---------------------------------------------------|
|-------------------------------------5-(5)slowfb---|

|---------------------------------------------------|
|---------------------------------------------------|
|---------------------------------------------------|
|---------------------------5hb---------------------|
|-----------------5hb--7--5-------7-7-(7)-7-7---5hb-|
|-3-(3)-5fb--3-0------------------------------7-----|

|---------------------------------------------------|
|---------------------------------------------------|
|------------------------7--9p7---7-(7)-9--9-----7hb|
|----7s8s7p5-7p5-----7s5--------9-------------9-----|
|-7--------------7-5--------------------------------|
|---------------------------------------------------|
pm                          .....       ......

|---------------------------------------------------|
|--------8hb----------12-15-------------------------|
|-9---9----------14fb-------14fbr-12--14fb---15--12-|
|---------------------------------------------------|
|---------------------------------------------------|
|---------------------------------------------------|

|--------------12-----------------------------------|
|-----------------15--14h15p14p12---14---12---------|
|-14fb(14)rp12------------------------------14p12---|
|---------------------------------------------------|
|---------------------------------------------------|
|---------------------------------------------------|

|---------------------------------------------------|
|---------------------------------------------------|
|-14-(14)fb--14fb----14--13h14p13------12-----------|
|-----------------14---------------14---------------|
|---------------------------------------------------|
|---------------------------------------------------|
p.m               ..

|---------------------------------------------------|
|-14hb(14)rp12----14--------------------------------|
|--------------14----12-----------------------------|
|-----------------------14-14s12-12s8-7-7s5--(5)----|
|---------------------------------------------------|
|---------------------------------------------------|

|---------------------------------------------------|
|---------------------------------------------------|
|---------------------------------------------------|
|--------------8--7--5------------------------------|
|-----------------------7---------------------------|
|--3s(17)s-----------------6--5--3hb--0----(0)------|

|---------------------------------------------------|
|---------------------------------------------------|
|-9-9----7-----9------------------------------------|
|-9-9----7-----9-----8--7--5------------------------|
|-7-7----5-----7--------------7---------------------|
|-----7-----0----0---------------6--5--3hb--0----(0)|
p.m  ..     ..   ..

|---------------------------------------------------|
|---------------------------------------------------|
|-9-9----7-----9------------------------------------|
|-9-9----7-----9-----8--7--5------------------------|
|-7-7----5-----7--------------7---------------------|
|-----7-----0----0---------------6--5--3hb--0----(0)|
p.m  ..     ..   ..
|---------------------------------------------------|
|---------------------------------------------------|
|-9-9----7-----9------------------------------------|
|-9-9----7-----9-----8--7--5----------------2----(2)|
|-7-7----5-----7--------------7-------------2----(2)|
|-----7-----0----0---------------6--5--3hb--0----(0)|
p.m  ..     ..   ..

3.NIGHTRAIN

Intro:

 |--------------3--3-2p0-------0----0--0-0--0---------------------------------|
 |---------------------0--7\5--5----5--5-3--3\1-1-----/3--3\1--1-0-1-0--------|
 |---2-----------------------------------------------------------------2--0-2-|
 |---2------------------------------------------------------------------------|
 |---0------------------------------------------------------------------------|
 |----------------------------------------------------------------------------|
 |
 |---------------------------------------------1-----3------------------------|
 |-------------8--8--7----7---5----5--5-3--3---1-----3---3-3---3-3-3----------|
 |-------------9--9--7----7---5----5--5-4--4---2-----0---0-4---5-4-5--2--2-2--|
 |---7---------7--7--7----7---5----5--5-5--5-3-----3/5---5-5---5-5-5--2--0-2--|
 |---7-----0---------------------------------------------------------------0--|
 |---5------------------------------------------------------------------------|


First verse:

 -----------------------------------------------------------------------------------|
 -----------------------------------------------------------------------------------|
 ---------2-------2-------2--2--------2---------2---2-----------------2------2----2-|
 ---------2-------2-------2--2--------2---------2---2-----------------2------2----2-|
 ---------0-------0-------0--0--------0---------0---0-----------3b----0------0----0-|
 -------------3------------------0-3-----------------------0-3----------0-3-----3---|

Look out! Well I'm a west coast struttin',  one bad mother, got a rattlesnake suitcase

 ----------------------------------------------------|
 ----------------------------------------------------|
 ------2-----------2------2---2---------------2----2-|
 ------2-----------2------2---2---------------2----2-|
 ------0-----------0------0---0---------------0----0-|
 -------------0-3----------------------0--3----------|

under my arm. Said I'm a mean machine, been drinkin' gasoline

 ------------------------------------|
 ------------------------------------|
 -------------------2---------2----2-|
 -------------------2---------2----2-|
 --------3-b--------0---------0----0-|
 -0--3------------------0--3-----3---|

, and honey you can make my motor hum...

2nd and 3rd verses: same, finish with a D5

Chorus:
   play this part 5 times,   then play that:
 |------------------------|---------------------------------------------------|
 |-*--------------------*-|---------------------------------------------------|
 |-------------------2----|-------------------------------------------------2-|
 |---------2-----2---2----|-------------------------------------------------2-|
 |-*-0-3qb-0-3qb-0---0--*-|--0-3qb-0-3qb-0---------3-2-3--2--0----3-2-3-2---0-|
 |-----------------3------|----------------3-1---1--------------3---------3---|


 ------------------------------------------|
 -------------------3---------------12~~~--|
 -------------------2---------------12~~~--|
 -------------------0----------------------|
 --0-3qb-0-3qb-0---------------------------|
 -----------------3------------------------|


First solo:

 --------------7-7-------------------------------------------------|
 -7----7----7--7-7----7----7----7-7--9hb---r--9hb--9hb--7-9-7-9-7~-|
 ---9b---9b--------9b---9b---9b------9hb---r--9hb--9hb--7-9-7-9-7~-|
 ------------------------------------------------------------------|
 ------------------------------------------------------------------|
 ------------------------------------------------------------------|


 -10-9-7-------------------------------------------------------------|
 --------10-9-7------------------------------------------------------|
 ---------------9-9hb--r-p7-7-9-7------------------------------------|
 ---------------------------------9-7-9\7-7\5-5\4-4\2-2-0--4--5--6/7-|
 ----------------------------------------------------------4--5--6/7-|
 ----------------------------------------------------------2--3--4/5-|


 -10-----------------10------10-------------------9-12hb-12-r-----------------|
 -10-------10---10---10------10---10---10------10--------12----10-12-12br-p10-|
 -9b---9b--9br---7---9b------9b---9b-r--7--/11--------------------------------|
 -----------------------------------------------------------------------------|
 -----------------------------------------------------------------------------|
 -----------------------------------------------------------------------------|

 ---------------10----10----------10----13/14--10-----------------------|
 ---------------10----10----------10----12/13--10-----------------------|
 -11-11---11-------------12-10h11------------------12b-r-p10-12-10h11p0-|
 ------------12---------------------------------------------------------|
 -----------------------------------------------------------------------|
 -----------------------------------------------------------------------|

 ------14------------------------------------------------------------|
 -17b-----17p14------------------------------------------------------|
 ---------------19br-p14----16p14------------------------------------|
 ------------------------16-------16-14------------------------------|
 ---------------------------------------16-14\13----------13----12---|
 ---------------------------------------------------14-14----14------|

 -----------------------------------------------------------------|
 -7---7--6/7---7---6/7--7-------7/9---/10----9---9\7---\5--5\4\2--|
 -----------------------------------------------------------------|
 -7---7--6/7---7---6/7--7---0---7/9---/11----9---9\7---\6--6\4\2--|
 -----------------------------------------------------------------|
 -----------------------------------------------------------------|

                                                  A.H.
 ------4--5------------------------------------------------------------|
 ------------5b-r---2--5-----------------------------------------------|
 -4b----------------------4br-p2-4--2--4b-4p2--------------------------|
 ----------------------------------------------4--4hb------------r--\2-|
 ----------------------------------------------------------------------|
 ----------------------------------------------------------------------|

 ----------------0---0-1--2---2---0--2--1--0--|
 ----------------0---0-1--2---2---0--2--1--0--|
 ---------------------------------------------|
 ---------------------------------------------|
 ---------------------------------------------|
 -0-1-2---2-1-0-------------------------------|


Then comes the bridge:

 ------------------------------------------------------|
 -7///////////////14--8-----8--7-------7---*-*--7\5----|
 -7///////////////14--9-----9--7-------7---*-*--7\5----|
 -7///////////////14--7-----7--7-------7---*-*--7\5----|
 ----------------------------------0-------------------|
 ------------------------------------------------------|

 -----------------------------------------------3-|
 -----------------------------------------------3-|
 ----5----4--*-*-4-*-*-*------10-----------*-*--0-|
 ----7----5--*-*-5-*-*-*------10-----------*-*--0-|
 -------------------------8----8------------------|
 -0---------------------------------------------3-|

                                 A.H.
 ----------------------------------------------|
 -5------5-------------------------------------|
 -5------5----4---5------4----0--2hb-----------|
 -5------5----5---5------5----0----------------|
 ----*-*---------------------------------------|
 ----*-*----3----------------------------------|


Last Riff:

 --------------------------------------------------------------------------|
 --------------------------------------------------------------------------|
 ---------------2----------------------------------------------------------|
 ---------------2----------------------------------------------------------|
 -0-3-0-3-0-----0----0-3-0-3-0---------3-2-3-2-0----3-2-3-2-0----3-2-3-2-0-|
 ------------3-----------------3--1--1------------1------------3-----------|


Outro:
                                                                       A.H.
 -------------------------------------------------------------------------|
 -------------------------------------------------------------------------|
 --------------------------------------------2----2-2-2-2-2b-----2--r--2--|
 -------------------------------------------------------------------------|
 ---------------3-5-5b--r-p3--5---5b--3---0-------------------------------|
 -3---b----5--5-----------------------------------------------------------|


 -------------------------------------------------------------------------|
 -------------------------------------------------------------------------|
 -2-2-2b----2---5-5-4---4-4-4-4--4/7---7--7\5--5/9b---9b---9----9-11p9----|
 ------------------------------------------------------------12--------12-|
 -------------------------------------------------------------------------|
 -------------------------------------------------------------------------|

 ------------------------------------------------------------8------8----|
 --------------------------------8b-----------------------8b---8b--------|
 -9---------------7b----7-7b---5-----------7b---7--7---5--------------7b-|
 ---12p10----------------------------------------------------------------|
 ---------12-------------------------------------------------------------|
 ------------------------------------------------------------------------|
                                 A.H.
 --------------5------------------------------------------------------------|
 ----------5b-----8--5------------------------------------------------------|
 -7--7--5--------------7b-r-p5------------------------------------7hb---r-7-|
 ------------------------------7--7--5--------------------------------------|
 ---------------------------------------7-6-5-3-5-3-5b-5p3---5b-------------|
 ----------------------------------------------------------5----------------|

 -------------5-8---------------8------------------8-10---------------------|
 -------8b---------8b----r-b------8b-r--5--10b-----------10b--10b--10b-r--8-|
 -7-7-5---------------------------------------------------------------------|
 ---------------------------------------------------------------------------|
 ---------------------------------------------------------------------------|
 ---------------------------------------------------------------------------|

 -----------------------------------------------------------------------------|
 -13b---r--b--13-12-13-12h13p12p10----12----10h12p0----10-----10--------------|
 ----------------------------------12----12---------12----12b----12-9---------|
 ---------------------------------------------------------------------12br-10-|
 -----------------------------------------------------------------------------|
 -----------------------------------------------------------------------------|

 --------------------------------------------------------------------------|
 --------------------------------------------------------------------------|
 --------------------------------------------------------------------------|
 ----12----12--------------------------------------------------------------|
 -12----12----12p10----10------------------------------5b-r-p3-5-5-3-5--/8-|
 -------------------12----10\8---10hb---r--8-3hb----5----------------------|

 -----------------------------------------------------------------------------|
 --------------------------------------------------------10h12p10----10-12-13-|
 ---------------7----9------7--9-10/12-9h10p9----9-10-12----------12----------|
 -7-10-9h10p9p7---10-----10-------------------12------------------------------|
 -----------------------------------------------------------------------------|
 -----------------------------------------------------------------------------|

 -10----12----10-12-13--12h13p12p10----10--13b----r-b---13--12-13-12h13p12p10-|
 ----13----13-----------------------13----------------------------------------|
 -----------------------------------------------------------------------------|
 -----------------------------------------------------------------------------|
 -----------------------------------------------------------------------------|
 -----------------------------------------------------------------------------|

 -12~-----10--13--12h13p12p10-12\10p8----10----7h8h10p8p7-8-------------------------|
 -------------------------------------10----10---------------12b---r-12--12--10--10-|
 -----------------------------------------------------------------------------------|
 -----------------------------------------------------------------------------------|
 -----------------------------------------------------------------------------------|
 -----------------------------------------------------------------------------------|

 -----------10------------12-15-15-------------------------/15---\12-----------|
 -10--13b------13p10h13b-----------15br-p13-15-12hb--r--10------------16--15---|
 ------------------------------------------------------------------------------|
 ------------------------------------------------------------------------------|
 ------------------------------------------------------------------------------|
 ------------------------------------------------------------------------------|

 -----12-15-13h15p13p12----13----12h13p12----12------12-------------------------|
 -15b-------------------15----15----------15----13-15---15p13-15p13-12----13----|
 ----------------------------------------------------------------------14----14-|
 -------------------------------------------------------------------------------|
 -------------------------------------------------------------------------------|
 -------------------------------------------------------------------------------|

 ----------------------------15---------|
 -12h13p12----12-13-15-15b------15b-----|
 ----------14---------------------------|
 ---------------------------------------|
 ---------------------------------------|

4.OUTTA GET ME

---------|-----------------|---------------|----------------------------------|
---------|-----------------|---------------|----------------------------------|
--0--3-0-|--0--------------|-5--3---0-3-0--|----------------------------------|
--0--3-0-|--0-----3-5-5----|-5--3---0-3-0--|----------------------------------|
---------|--------3-5-5----|-3--1----------|----------------------------------|
---------|-----3---------3-|---------------|----------------------------------|
         __play 3 times___________________    the solo is below

------------------------|----15--------------17b19-|------17b19-17b19-17b19|--|
--18b20---18b20---18b20-|-------18b20rp15----------|------17----17----17---|--|
------------------18b19-|-----------------17-------|-----------------------|--|
------------------------|--------------------------|-----------------------|--|
------------------------|--------------------------|-----------------------|--|
------------------------|--------------------------|-----------------------|--|


-17b18---17b18--------|--------------------------------|---|-----|------------|
-17b18---17b18----17--|-17b19--17b19---17b19p15-----15-|---|-----|------------|
------------------17--|-17b19--17b19---17b19p15-----15-|---|-----|------------|
----------------------|-------------------------17-----|---|---5-|------------|
----------------------|--------------------------------|---|---5-|------------|
----------------------|--------------------------------|---|---3-|------------|
                     verse

---------------|-----------------|------------|-----------------|-------------|
---------------|-----------------|------------|-----------------|-------------|
---------------|-5---5---3-0-3---|------------|-------------3---|-------------|
---5-------5---|-5---5---3-0-3-5-|--3-5-----5-|-----5-------3-5-|-------------|
---5-------5---|-3-3-3-3-1-----5-|--3-5-----5-|-----5---------5-|-------------|
-3---3-3-3---3-|---------------3-|------3-3---|-3-3---3-3-3---3-|-------------|


---------------|------------------|-------------|------------|---------------|
---------------|------------------|-------------|------------|-----7-----5---|
---------------|--5---5---3-0-3---|-------------|-5---4--5-6-|-7---7-----5---|
---5-------5---|--5---5---3-0-3-5-|---3-5-----5-|-5---4--5-6-|-7-0---0-0--00-|
---5-------5---|--3-3-3-3-1-----5-|---3-5-----5-|-3---2--3-4-|-5-------------|
-3---3-3-3---3-|----------------3-|-------3-3---|------------|---------------|
                          -

---------------------|---------------|----------------------------------------|
-3-----1--0--1p0-----|---------------|----------------------------------------|
-4-----2---------2p0-|-----5------3--|-x2-------------------------------------|
---0-0---------------|-----5------3--|----------------------------------------|
---------------------|-33333--33333--|----------------------------------------|
---------------------|---------------|----------------------------------------|
             play the last 3 bars above 4 times then intro riff for chorus

-----------------------------|-----------------------------|------------------|
--17b18--17b18--17b18--17b18-|-17b18--17b18-17-15-17-------|------------------|
--17b19--17b19--17b19--17b19-|-17b19--17b19-17-15-17-------|------------------|
-----------------------------|-----------------------17-15-|------------------|
-----------------------------|-----------------------------|------------------|
-----------------------------|-----------------------------|------------------|


----------------------------------------|-------------------------------------|
-17--17-15b16--------17--17-15b16-------|-------------------------------------|
-17--17-15b16--------17--17-15b16-------|-------------------------------------|
---------------17-15--------------17-15-|-------------------------------------|
----------------------------------------|-------------------------------------|
----------------------------------------|-------------------------------------|
          x2                             play first 2 bars then go below

--------------------------|-----------------------------15-------18b20-|------|
-18b20--18-r15--18--15-18-|-17b18p15----15--------18b20----18p15-------|------|
--------------------------|----------17---15---------------------------|------|
--------------------------|-----------------17-15----------------------|------|
--------------------------|--------------------------------------------|------|
--------------------------|--------------------------------------------|------|


---18-----181715----|-----18-----------------|-------15------------------|----|
-----------------18-|-17---------------------|----------18---------------|----|
--------------------|--------17b19p15-15--17-|-17b19-------17b19--15--17-|----|
--------------------|------------------------|---------------------------|----|
--------------------|------------------------|---------------------------|----|
--------------------|------------------------|---------------------------|----|


-------------------------------------|---15---------15----|-------18-------|--|
----------------------18b20p0--15b17-|------15rb17-----15-|-18b20----18b19-|--|
-17b19p15-17p15----------------------|--------------------|----------18b19-|--|
----------------17p15----------------|--------------------|----------------|--|
-------------------------------------|--------------------|----------------|--|
-------------------------------------|--------------------|----------------|--|
 hold the last bend in the first bar above for the whole next bar.

----------------------------|-------------------|----------------------------|
-------18-18-18-------17b18-|-17b18-------------|----------------------------|
-17b19----------17r15-17b19-|-17b19----------17-|-17b18-17b18----17b18-17b18-|
----------------------------|----------17-17----|-------------19-------------|
----------------------------|-------------------|----------------------------|
----------------------------|-------------------|----------------------------|
 do the same again here.      all sorts of funny shit in these bends.

-------15----15------15--------|-------------------------|-15b17-15-15b17-12-|
-15b17----15----15------15rp13-|-15-15b17-13-15-13-------|-------------------|
-------------------------------|-------------------14-12-|-------------------|
-------------------------------|-------------------------|-------------------|
-------------------------------|-------------------------|-------------------|
-------------------------------|-------------------------|-------------------|
 and again here.

-15b17--15b17rp12-----------------|---------------------------------------|---|
------------------15b17-15b17rp13-|-1313----------------------------------|---|
----------------------------------|------1412141412----1212---------------|---|
----------------------------------|-----------------14------1412121210----|---|
----------------------------------|------------------------------------12-|---|
----------------------------------|---------------------------------------|---|
                                     these notes are v.fast!!!.

---------------------------|---------------|----------|---------------|--------|
---------------------------|---------------|--2b3r--0-|-5b6r-3--------|--------|
---------------------------|-12------------|--2b3r--0-|-5b6r-3--------|--------|
-10b11---------------10-12-|-1412-10-12/--|----------|---------0-3-0-|---------|
--------12p10-12--12-------|---------------|----------|---------0-3-0-|--------|
---------------------------|---------------|----------|---------------|--------|


---------|-------------------|------------------------------------------------|
-2b3r--0-|-12b13r--10--------|------------------------------------------------|
-2b3r--0-|-12b14r--10--0-3-0-|------------------------------------------------|
---------|-------------0-3-0-|-x2---------------------------------------------|
---------|-------------------|------------------------------------------------|
---------|-------------------|------------------------------------------------|
  last four bars are repeated

---------------|--------13-----|----------------|-------------|------------|--|
--12-----15----|-13-----16b18--|--12-----15-----|-13-----10---|-12----15---|--|
--14b16--17b19-|-15b17---------|--14b16--17b19--|-15b17--13b15|-14b16-17b19|--|
---------------|---------------|----------------|-------------|------------|--|
---------------|---------------|----------------|-------------|------------|--|
---------------|---------------|----------------|-------------|------------|--|


---------13------|--------------|-13------15-----|----------------------------|
-13------16b18---|-12-----15----|-16b18---18b20--|----------------------------|
-15b17-----------|-14b16--17b19-|----------------|----------------------------|
-----------------|--------------|----------------|----------------------------|
-----------------|--------------|----------------|----------------------------|
-----------------|--------------|----------------|----------------------------|
    improvise the ending solo..slash did!. jam in G dorian.

------------------------------------------------------------------------------|
------------------------------------------------------------------------------|
------------------------------------------------------------------------------|
------------------------------------------------------------------------------|
------------------------------------------------------------------------------|
------------------------------------------------------------------------------|


5.MR.BROWNSTONE

Figure 1 (intro noise)
e|---------------------------------|---------------------------------|
b|---------------------------------|---------------------------------|
g|---------------------------------|---------------------------------|
d|---------------------------------|---------------------------------|
a|-x-x-x-x-x-x-x-x-x-x-x---x---x-x-|-x-x-x-x-x-x-x-x-x-x-x---x---x-x-|
e|-x-x-x-x-x-x-x-x-x-x-x---x---x-x-|-x-x-x-x-x-x-x-x-x-x-x---x---x-x-|
   1 e + a 2 e + a 3 e + a 4 e + a   1 e + a 2 e + a 3 e + a 4 e + a

e|---------------------------------|---------------------------------|
b|---------------------------------|---------------------------------|
g|---------------------------------|---------------------------------|
d|---------------------------------|---------------------------------|
a|---------------------------------|---------------------------------|
e|-12\\\\\\\\\\\\\\\\\\\\\\\\\\\\0-|-0////////////////////////////12-|
   1 e + a 2 e + a 3 e + a 4 e + a   1 e + a 2 e + a 3 e + a 4 e + a

Figure 2 (Riff version 1)
e|---------------------------------|---------------------------------|
b|---------------------------------|-3p2p0---------------------------|
g|-------------------------2-------|-------2p0-----------------------|
d|-------------------------2-------|-----------2p0---------2---------|
a|-------2p0---------------0-------|---------------2p0-----2---------|
e|-0-3-4-----0-3-4-0---3-4---------|-------------------3h4-0---------|
   1 e + a 2 e + a 3 e + a 4 e + a   1 e + a 2 e + a 3 e + a 4 e + a

e|---------------------------------|---------------------------------|
b|---------------------------------|-3-------------------------------|
g|-------------------------2-------|-2-----2-------------------------|
d|-------------------------2-------|-0-----2-----2-------------------|
a|-------2p0---------------0-------|-------0-----2-------b-----------|
e|-0-3-4-----0-3-4-0---3-4---------|-------------0-------3-----------|
   1 e + a 2 e + a 3 e + a 4 e + a | 1 e + a 2 e + a 3 e + a 4 e + a

Figure 2 (Riff version 2)
e|---------------------------------|-----------------------------0---|
b|---------------------------------|-----------------------------0---|
g|-------------------------2-------|-7---x-6---x-4-------------------|
d|-------------------------2-------|-7---x-6---x-4-------------------|
a|-------2p0---------------0-------|-5---x-4---x-2-----b-------------|
e|-0-3-4-----0-3-4-0---3-4---------|-------------------3-----0-------|
   1 e + a 2 e + a 3 e + a 4 e + a   1 e + a 2 e + a 3 e + a 4 e + a

e|---------------------------------|---------------------------------|
b|---------------------------------|---------------------------------|
g|-------------------------2-------|-7---x-6---x-4-------------------|
d|-------------------------2-------|-7---x-6---x-4---------2---------|
a|-------2p0---------------0-------|-5---x-4---x-2-----------5-------|
e|-0-3-4-----0-3-4-0---3-4---------|-------------------3b4-----------|
   1 e + a 2 e + a 3 e + a 4 e + a   1 e + a 2 e + a 3 e + a 4 e + a

Figure 3 (Verse)
e|---------------------------------|---------------------------------|
b|---------------------------------|---------------------------------|
g|---------------------------------|---------------------------------|
d|---------------------5---5h7-----|-5h7---5-----7-------5-----------|
a|-5h7---5-----7-----7---7---------|-----------------------4-4h7-----|
e|---------------------------------|---------------------------------|
   1 e + a 2 e + a 3 e + a 4 e + a   1 e + a 2 e + a 3 e + a 4 e + a

e|---------------------------------|---------------------------------|
b|---------------------------------|---------------------8---5-\-----|
g|---------------------------------|-----------------------6---------|
d|---------------------5---5h7-----|-5h7---5-----7-------------------|
a|-5h7---5-----7-----7---7---------|---------------------------------|
e|---------------------------------|---------------------------------|
   1 e + a 2 e + a 3 e + a 4 e + a   1 e + a 2 e + a 3 e + a 4 e + a

Figure 4 (Chorus)
e|---------------------------------|---------------------------------|
b|---------------------------------|-7---x-5-------x-7---------------|
g|-4---x-2-------x-4---------------|-7---x-5-------x-7---------------|
d|-5---x-3-------x-5---------------|-7---x-5-------x-7---------------|
a|-5---x-3-------x-5---------------|-5---x-3-------x-5---------------|
e|-3---x-1-------x-3---------------|---------------------------------|
   1 e + a 2 e + a 3 e + a 4 e + a   1 e + a 2 e + a 3 e + a 4 e + a

e|---------------------------------|---------------------------------|
b|-9---x-7-------x-9---------------|---------------------------------|
g|-9---x-7-------x-9---------------|-----------------------------7h9-|
d|-9---x-7-------x-9---------------|-------4-------5-----6---7h9-----|
a|-7---x-5-------x-7---------------|-5-------------------------------|
e|---------------------------------|---------------------------------|
   1 e + a 2 e + a 3 e + a 4 e + a   1 e + a 2 e + a 3 e + a 4 e + a

e|---------------------------------|---------------------------------|
b|---------------------------------|---------------------------------|
g|---------------------------------|---------------------------------|
d|---------------------------------|-----------------5b6d5-----------|
a|-7-7-7---7-7---7---7-7-------5h7-|-7-7-7---7-7-----------7-----5h7-|
e|-0-0-0---0-0---0---0-0-----7-----|-0-0-0---0-0---------------7-----|
   1 e + a 2 e + a 3 e + a 4 e + a   1 e + a 2 e + a 3 e + a 4 e + a

e|---------------------------------|---------------------------------|
b|---------------------------------|---------------------------------|
g|---------------------------------|---------------------------------|
d|-----------------7b8d7-5---------|---------------------------------|
a|-7-7-7---7-7-----------------5h7-|-7-------5-------4---2-----0-----|
e|-0-0-0---0-7---------------7-----|-------------------------3---3-0-|
   1 e + a 2 e + a 3 e + a 4 e + a   1 e + a 2 e + a 3 e + a 4 e + a

Figure 5 (Bridge)
e[---------------------------------|---------------------------------]3-|
b[---------------------------------|---------------------------------]3-|
g[---------------------------------|---------------------------------]3-|
d[-9---x-7---x-9---x-x-------------|-7---x-5---x-7---x-x-------------]3-|
a[-9---x-7---x-9---x-x-5-6-9---x-x-|-7---x-5---x-7---x-x-3-4-5---x-x-]3-|
e[-7---x-5---x-7---x-x-----7---x-x-|-5---x-3---x-5---x-x-----3---x-x-]3-|
   1 e + a 2 e + a 3 e + a 4 e + a   1 e + a 2 e + a 3 e + a 4 e + a

e|---------------------------------|
b|---------------------------------|
g|---------------------------------|
d|-9---x-7---x-9-------------------|
a|-9---x-7---x-9-------------------|
e|-7---x-5---x-7-------------------|
   1 e + a 2 e + a 3 e + a 4 e + a

Figure 6 Solo
e[---------------------------------|---------------------------------]3-|
b[---------------------------------|---------------------------------]3-|
g[---------------------4---2h3-----|---------------------2---0h1-----]3-|
d[-------4-----2-------4-------4-2-|-------2-----0-------2-------2-0-]3-|
a[-----------4-------4-2-----------|-----------2-------2-0-----------]3-|
e[-2-------------------------------|-0-------------------------------]3-|
   1 e + a 2 e + a 3 e + a 4 e + a   1 e + a 2 e + a 3 e + a 4 e + a

e|---------------------------------|---------------------------------|
b|---------------------------------|---------------------------------|
g|---------------------4---2h3-----|---------------------------------|
d|-------4-----2-------4-------4---|-9---x-7-------x-9---------------|
a|-----------4-------4-2-----------|-9---x-7-------x-9---------------|
e|-2-------------------------------|-7---x-5-------x-7---------------|
   1 e + a 2 e + a 3 e + a 4 e + a   1 e + a 2 e + a 3 e + a 4 e + a

e|-----3---B-3-------------------3---|-----8---B-8-11-------------------8---|
b|-B-3---3-6---6-3-b-d-------B-3-----|-B-8---8-11----8--b-d-----------8-----|
g|-5---------------5 5p3-5p3-5-------|-10--------------10 10p8-10-8h9-------|
d|-----------------------------------|--------------------------------------|
a|-----------------------------------|--------------------------------------|
e|-----------------------------------|--------------------------------------|
   1 e + a 2 e + a 3   e + a 4 e + a   1 e + a 2 e + a 3     e +  a 4 e + a
                   -t-                                 --t--

e|-B-10-13---------------------------------------|
b|-13-----10-------------------------------------|
g|----------12-(14)d12p10----12----10-10-10------|
d|------------------------12----12---------------|
a|-----------------------------------------------|
e|-----------------------------------------------|
   1 e  + a 2  e       +  a  3  e  +  a  4 e + a
               ----t---

e|---------------------------------|---------------------------------|
b|---------------------------------|---------------------------------|
g|-7---x-6-----x-4-----------------|---------------------------------|
d|-7---x-6-----x-4-----------------|---------------------------------|
a|-5---x-4-----x-2---------b-------|-x-x-x-x---x---x-x-x-x-x---------|
e|-------------------------3-------|-x-x-x-x---x---x-x-x-x-x-15\-----|
   1 e + a 2 e + a 3 e + a 4 e + a   1 e + a 2 e + a 3 e + a 4 e + a

Figure 7 (Outtro)
e|---------------------------------|---------------------------------|
b|---------------------------------|---------------------------------|
g|-------4---------------4---------|-------4-------------------------|
d|---5-6---7---5-6---5-6---7---5-6-|---5-6---7---5-6-----5-6-7-------|
a|-7---------7-----7---------7-----|-7---------7-----7---------------|
e|---------------------------------|---------------------------------|
   1 e + a 2 e + a 3 e + a 4 e + a   1 e + a 2 e + a 3 e + a 4 e + a

e|---------------------------------|---------------------------------|
b|-3p2p0-----------3p2p0-----------|-3p2p0---------------------------|
g|-------2---0-----------2---0-----|-------2---0---------------------|
d|-------------2p0-------------2p0-|-------------2p0---------2-------|
a|---------------------------------|-----------------2p0-b---2-------|
e|---------------------------------|---------------------3---0-------|
   1 e + a 2 e + a 3 e + a 4 e + a   1 e + a 2 e + a 3 e + a 4 e + a

e|---------------------------------|
b|-0h2---0h3-----------------------|
g|---------------------------------|
d|---------------------------------|
a|---------------------------------|
e|---------------------------------|
   1 e + a 2 e + a 3 e + a 4 e + a

  Intro, Figure 1, Figure 2
  Figure 3, Figure 2, Figure 3
 Figure 4
 Figure 5
 Figure 4
   Figure 6
  Figure 2, Figure 3
 Figure 4
 Figure 1, Figure 7


6.PARADISE CITY

Riff A:(Slash)
eb|----------3---------------3---------|----------3-----3---------3---------|
Bb|------------0---3-----------3---3---|--0h1-------1---------------1---1---|
Gb|--0-----------0---------------0-----|--0-----------0-----0---------0-----|
Db|--0---------------------------------|--0h2-------------------------------|
Ab|--2---------------------------------|------------------------------------|
Eb|--3---------------------------------|------------------------------------|

eb|----------3---------------3---------|----------3-----3-------------------|
Bb|------------1---1-----------1---1---|------------1-----------------------|
Gb|--0h2---------2---0-----------0-----|--0-----------0-------2h4-2h4-2-0---|
Db|--0h3-------------0h2---------------|--0---------------------------------|
Ab|------------------0h3---------------|--2---------------------------------|
Eb|------------------------------------|--3---------------------------------|

Riff B:(Slash+Izzy)
eb|--3---------------------------------|------------------------------------|
Bb|--3------------------------------V--|---------------------------------V--|
Gb|--4----------------------------4-4--|--5----------------------------5-5--|
Db|--5----------------------------5-5--|--5----------------------------5-5--|
Ab|--5----------------------------5-5--|--3----------------------------3-3--|
Eb|--3----------------------------3-3--|--3----------------------------3-3--|

eb|------------------------------------|------------------------------------|
Bb|--------------V------------------V--|---------------------------------V--|
Gb|--2---------2-2-5--------------5-5--|--4----------------------------4-4--|
Db|--3---------3-3-5--------------5-5--|--5----------------------------5-5--|
Ab|--3---------3-3-3--------------3-3--|--5----------------------------5-5--|
Eb|--1---------1-1-3--------------3-3--|--3----------------------------3-3--|

eb|--3---------------------------------|------------------------------------|
Bb|--3------------------------------V--|---------------------------------V--|
Gb|--4----------------------------4-4--|--5---------------------------------|
Db|--5----------------------------5-5--|--5----------------------------1010-|
Ab|--5----------------------------5-5--|--3----------------------------1010-|
Eb|--3----------------------------3-3--|--3----------------------------8-8--|

eb|------------------------------------|------------------------------------|
Bb|--------------V------------------V--|---------------------------------V--|
Gb|--10--------1010--------------------|--7----------------------------4-4--|
Db|--10--------101010-------------1010-|--5----------------------------5-5--|
Ab|--8---------8-8-10-------------1010-|--5----------------------------5-5--|
Eb|--8---------8-8-8--------------8-8--|--7----------------------------3-3--|


Riff C:(Slash+Izzy)
Play Riff B
eb|------------------------------------------|---------------------------------------|
Bb|--------------------15--------------------|-----------------15--------------------|
Gb|--------12-12----------14b16-14b16r14p12--|--------12-12-------14b16-14b16r14p12--|
Db|--13s14-------14p12-----------------------|--12s14-------12-----------------------|
Ab|------------------------------------------|---------------------------------------|
Eb|------------------------------------------|---------------------------------------|

eb|---------------------------------------|-------------------------------------|
Bb|--13b15---13b15---13-------------------|-------------------------------------|
Gb|-----------------------12h14p12----14--|--b16~~~~~~~~~~~~~~~~----------------|
Db|--------------------------------15-----|-------------------------------------|
Ab|---------------------------------------|-------------------------------------|
Eb|---------------------------------------|-------------------------------------|

eb|------------------------------------------|---------------------------------------|
Bb|--------------------15--------------------|-----------------15--------------------|
Gb|--------12-12----------14b16-14b16r14p12--|--------12-12-------14b16-14b16r14p12--|
Db|--13s14-------14p12-----------------------|--12s14-------12-----------------------|
Ab|------------------------------------------|---------------------------------------|
Eb|------------------------------------------|---------------------------------------|

eb|---------------------------------------|-------------------------------------|
Bb|--13b15---13b15---13b15r13-13---12b13--|--12b13r12b13r12b13r12b13-12~~~~~~~--|
Gb|---------------------------------------|-------------------------------------|
Db|---------------------------------------|-------------------------------------|
Ab|---------------------------------------|-------------------------------------|
Eb|---------------------------------------|-------------------------------------|


Riff D:(Slash+Izzy)
eb|----------------------------------|
Bb|----------------------------------|
Gb|----------------------------3-----|
Db|--5---3-4-5---3-4-5--`5--`5-3-----|
Ab|--5---3-4-5---3-4-5--`5--`5-------|
Eb|----------------------------------|
  |                                  |
eb|----------------------------------|
Bb|----------------------------------|
Gb|----------------------------------|
Db|--5---3-3-5---3-3-5-x-5-x-5-8-----|
Ab|--5---3-3-5---3-3-5-x-5-x-5-8-----|
Eb|--3---1-1-3---1-1-3-x-3-x-3-6-----|

Riff E:
eb|----------------------------------|
Bb|----------------------------------|
Gb|----------------------------3-----|
Db|--5--p3--h5p3h5p3`5--`5--`5-------|
Ab|----------------------------------|
Eb|----------------------------------|
  |  Palm muted..............        |
eb|----------------------------------|
Bb|----------------------------------|
Gb|----------------------------------|
Db|--5---3-3-5---3-3-5-x-5-x-5-8-----|
Ab|--5---3-3-5---3-3-5-x-5-x-5-8-----|
Eb|--3---1-1-3---1-1-3-x-3-x-3-6-----|

Riff F:(Slash+Izzy)
eb|----------------------------------|----------------------------------|
Bb|----------------------------------|----------------------------------|
Gb|----------------3h5---------------|----------------3h5p3---3---------|
Db|--5--p3---5-5-5-------------------|--------------5-------5---5p3h5---|
Ab|----------------------------------|----------------------------------|
Eb|----------------------------------|----------------------------------|
  |  Palm muted....                  |                                  |
eb|----------------------------------|----------------------------------|
Bb|----------------------------------|----------------------------------|
Gb|------------------5---------------|----------------5-5-3-3-2---------|
Db|--5---3-3-5-5-5---5---------------|--------------5-5-5-3-3-2-5-3-5---|
Ab|--5---3-3-5-5-5---3---------------|--------------5-3-3-1-1-0-5-3-5---|
Eb|--3---1-1-3-3-3---3---------------|--------------3-3-3-1-1-0-3-1-3---|

Chorus:(Izzy)
eb|------------------------------------|------------------------------------|
Bb|--------------------------------V---|--------------------------------V---|
Gb|--4---------------------------4-4---|--5---------------------------5-5---|
Db|--5---------------------------5-5---|--5---------------------------5-5---|
Ab|--5---------------------------5-5---|--3---------------------------3-3---|
Eb|--3---------------------------3-3---|--3---------------------------3-3---|

eb|------------------------------------|------------------------------------|
Bb|--------------V-----------------V---|--------------------------------V---|
Gb|--2---------2-2-5-------------5-5---|--4---------------------------4-4---|
Db|--3---------3-3-5-------------5-5---|--5---------------------------5-5---|
Ab|--3---------3-3-3-------------3-3---|--5---------------------------5-5---|
Eb|--1---------1-1-3-------------3-3---|--3---------------------------3-3---|

Solo:(Slash+Izzy)
Play the Rhythm of Riff D (once for each bar)
eb|----------------|----------------------|---------------------|--------------3-----|
Bb|----------------|----------------------|----------------6----|--------------------|
Gb|----------------|--5b7---r5-3-5-3------|--3h5----b7-5h7---5--|--5b7----r5p3-------|
Db|--5-3-5v--------|-----------------3h5--|---------------------|--------------------|
Ab|----------------|----------------------|---------------------|--------------------|
Eb|----------------|----------------------|---------------------|--------------------|

eb|-------8-8--------------------------|--------------------------|----------------------------|
Bb|--8b10-----10r8p6h8-----8-8---------|--------------------------|----------------------------|
Gb|--------------------5b7-----7r5-----|--5b7-7-7-----------------|----------------------------|
Db|--------------------------------10--|--------------------8h10--|-------10------8-10---8-----|
Ab|------------------------------------|----------7p5---5---------|--10-------10-----------10--|
Eb|------------------------------------|--------------8---8-------|----------------------------|

eb|-----------------------|-----------|
Bb|-----------------------|-----------|
Gb|-----------------------|--9--------|
Db|-------10------8---10--|----10-----|
Ab|--10--------10---------|-------10--|
Eb|-----------------------|-----------|

Riff G:
     D5          D5          D5          D5          C5                      C5
eb|---------------------------------------------------------------------------------------------------|
Bb|-----13h15-xx----13h15-xx----13h15-xx----13h15-xx----11h13p11-------13-xx-------13p10-------13-xx--|
Gb|--14----------14----------14----------14----------12----------12-------xx----12-------12-------xx--|
Db|-----------------------------------------------------------------10----xx-10-------------10----xx--|
Ab|---------------------------------------------------------------------------------------------------|
Eb|---------------------------------------------------------------------------------------------------|

Last Chorus:
Play Chorus Rhythm
eb|------------------------------------------|---------------------------------------|
Bb|--------------------15--------------------|-----------------15--------------------|
Gb|--------12-12----------14b16-14b16r14p12--|--------12-12-------14b16-14b16r14p12--|
Db|--13s14-------14p12-----------------------|--12s14-------12-----------------------|
Ab|------------------------------------------|---------------------------------------|
Eb|------------------------------------------|---------------------------------------|

eb|---------------------------------------|------10----------------------------------|
Bb|--13b15---13b15---13-------------------|------------------------------------------|
Gb|-----------------------12h14p12----10--|--b12----10b12r10----12---10--------------|
Db|--------------------------------15-----|------------------10---------12-10--------|
Ab|---------------------------------------|-----------------------------------13-10--|
Eb|---------------------------------------|------------------------------------------|

eb|-----------13b15---13b15r13--------|--------------------------------17--------------|
Bb|----------------------------15-13--|--13p11----13-------13----15b17----17r15p13-----|
Gb|-----------------------------------|--------12-------------12-------------------14--|
Db|-----------------------------------|------------------------------------------------|
Ab|-----------------------------------|------------------------------------------------|
Eb|-----------------------------------|------------------------------------------------|

eb|---------------------------|------------------------------------------------|
Bb|--------13-12--------------|-12b13---r12~~~~~~~~---12b13---r12~~~~~~~~~~~---|
Gb|--12b14-------14r12p10-----|------------------------------------------------|
Db|-----------------------12--|------------------------------------------------|
Ab|---------------------------|------------------------------------------------|
Eb|---------------------------|------------------------------------------------|

End Solo:(Slash+Izzy)
Play this riff for the rhythm.
eb|------------------------------------|------------------------------------|
Bb|------V-V-----V-V-----V-----V---V---|------V-V-----V-V-----V-----V---V---|
Gb|------------------------------------|--5---5-5-5---5-5-5---5-5---5-5-5---|
Db|--5---5-5-5---5-5-5---5-5---5-5-5---|--5---5-5-5---5-5-5---5-5---5-5-5---|
Ab|--5---5-5-5---5-5-5---5-5---5-5-5---|--3---3-3-3---3-3-3---3-3---3-3-3---|
Eb|--3---3-3-3---3-3-3---3-3---3-3-3---|--3---3-3-3---3-3-3---3-3---3-3-3---|

eb|------------------------------------|------------------------------------|
Bb|------V-----V---V-----V-----V---V---|------V-----V---V-----V-----V---V---|
Gb|------------------5---5-5---5-5-5---|------------------------------------|
Db|--3---3-3---3-3-3-5---5-5---5-5-5---|--5---5-5---5-5-5-5---5-5---5-5-5---|
Ab|--3---3-3---3-3-3-3---3-3---3-3-3---|--5---5-5---5-5-5-5---5-5---5-5-5---|
Eb|--1---1-1---1-1-1-3---3-3---3-3-3---|--3---3-3---3-3-3-3---3-3---3-3-3---|

7.MY MICHELLE

fig.1
|---------------------------------------------------------------------|
|--------2---------------0---------0----------------------------------|
|------2---2-----------2---------2----------2---------------2---------|
|----2-------2---2---2---------4----------4---4-----------4---4-------|
|--4-----------4---3---------2----------4-------4---4---4-------4---4-|
|-------------------------------------2-----------2---2-----------2---|

 w/fig.1
|-9--8--7---5--|---9-8-7-5---5-5--5-5-5-5---5-5--9---9-9-9---8-8-8--0--7-7-7--0-5-|
|--------------|------------------------------------------------------------------|
|-9--8--7---6--|---9-8-7-6---6-6--6-6-6-6---6-6--9---9-9-9---8-8-8--0--7-7-7--0-6-|
|--------------|------------------------------------------------------------------|
|--------------|------------------------------------------------------------------|
|--------------|------------------------------------------------------------------|

 Riff A
|----------------------------------------------|
|----------------------------------------------|
|----------------------------------------------|
|----------------------------------------------|
|-4--/4--3-2-3p2-0-----------------------------|
|------------------2-2-2-0-2-5~~~--5-0-1-2-0-2-|

 fig.2
|------------------------------------------|
|-6--6-5--4--2---------------2--x----------|
|-6--6-5--4--2---------------2--x----------|
|-6--6-5--4--2--4--4--4-2-4--2--x-2-4--x-x-|
|-4--4-3--2-----4--4--4-2-4-------2-4--x-x-|
|---------------------------------0-2------|

  /-Riff B--------------------------\----------------------------|
|-------------------------------------| |------------------------|
|-------------------------------------| |------------------------|
|-------------------------------------| |------------------------|
|-------------------------------------| |------------------------|
|-8--8-7--6-4-6-4-----------4~~-4-----| |-8--8-7--6-7-6-4--4hb---|
|-----------------6-6-6-4-6-------5-6-| |------------------------|

 verses: 1, 2, 3 (x2)
|-----------------------|-------------------------------------------|
|-6-6---6-6-5-5-x-4-x-2-|-6-6---6-6-5-5-x-4-4-----------------------|
|-6-6---6-6-5-5-x-4-x-2-|-6-6---6-6-5-5-x-4-4-----------------------|
|-6-6---6-6-5-5-x-4-x-2-|-6-6---6-6-5-5-x-4-4-----------------------|
|-4-4---4-4-3-3-x-2-x---|-4-4---4-4-3-3-x-2-2--4-4-4-5-4-(4)/-------|
|-----------------------|-------------------------------------(19)\-|


chorus:
D5    E5   B5      C#5  E5    A5     D5  C#5  B5   A5  G5  A5
well well well you just can't tell, well well well my michelle

W/Riff A & fig.2

 fbr=full bend release
 hbr=half bend release            fill 4
|---------------------------|   |-----------5-------5------------------|
|-4-hbr-hbr-hbr-hbr-hbr-hbr-|   |---------5---5-8fb---8-5--------------|
|-4-fbr-fbr-fbr-fbr-fbr-fbr-|   |-7fb-(7)-----------------7fbrp5-7-5---|
|---------------------------|   |------------------------------------7-|
|---------------------------|   |--------------------------------------|
|---------------------------|   |--------------------------------------|

[verse 2]

chorus:(x2)

D5   E5(7)   B5    C#5  E5(7)  A5     D5  C#5  B5   A5  G5  A5
well well well you just can't tell, well well well my michelle
                                     ^
                                     |
                  w/fill 4 (2nd time)--

E5(7) D5        A5  B5       G5        E5
everyone needs love you know that it's true

E5(7) D5        A5                  B5
someday you'll find someone that'll fall in love with you

E5(7)      D5       A5     B5         G5  E5
but oh the time it takes, when you're all alone

E5(7) D5       A5                B5
someday you'll find someone that you Can call your own but til then you better

w/fig.2

 Solo:
|---------------------------------7---7--------------7----------------------|
|-16hb-16hb-16-16---------------7---7----10fb~~~~~~~---10p9-9b(1½)----|
|-16fb-16fb-16-16p14----14----------------------------------9b(1½)----|
|--------------------16----16~~---------------------------------------------|
|---------------------------------------------------------------------------|
|---------------------------------------------------------------------------|

|-7--------------7------------0-----------------------------------------|
|---10-------------10-----------0---------------------------------------|
|------r9(3/4)--------r9(3/4)-------------------------------------------|
|-----------------------------------------------------------------7-----|
|-----------------------------------10b(2)rb(2)rb(2)rb(2)r~~~-7fb---7fb-|
|-----------------------------------------------------------------------|

|-------------------------------------------------------------------|
|-------------------------------------------------------------------|
|-------------------------------------------------------------------|
|-----------------------------------------0---5fbr--5--5--(5)~~~~~~-|
|-7-5----------------------------2---4hb----------------------------|
|-----7--5-4-3---3fb--3~~~~-5fb----5--------------------------------|

[3rd verse]

chorus:(3x)
D5   E5(7)   B5    C#5  E5(7)  A5     D5  C#5  B5   A5  G5  A5
well well well you just can't tell, well well well my michelle

G#5 A5 G#5 A5   G#5 A5                C5\ %
      my   my   my        mi - chelle   / 1X

|---------------------------------------------------------|
|---------------------------------------------------------|
|-4p2p0-------4p2p0-------4p2p0-------4fbrp2------------2-|
|-------4p2p0-------4p2p0-------4p2p0--------4p2p0------0-|
|---------------------------------------------------------|
|---------------------------------------------------------|
                                            mi -chelle!___

8.THINK ABOUT YOU

Don't Know

9.SWEET CHILD O' MINE

E:|--------------15----14-----|--------------15----14-----|
B:|-----15--------------------|-----15--------------------|
G:|--------14-12----14----14--|--------14-12----14----14--|
D:|--12-----------------------|--12-----------------------|
A:|---------------------------|---------------------------|
E:|---------------------------|---------------------------|

E:|--------------15----14-----|--------------15----14-----|
B:|-----15--------------------|-----15--------------------|
G:|--------14-12----------14--|--------14-12----------14--|
D:|--14-----------------------|--14-----------------------|
A:|---------------------------|---------------------------|
E:|---------------------------|---------------------------|

E:|--------------15----14-----|--------------15----14-----|
B:|-----15--------------------|-----15--------------------|
G:|--12----14-12----14----14--|--12----14-12----14----14--|
D:|---------------------------|---------------------------|
A:|---------------------------|---------------------------|

E:|--------------15----14-----|--------------15----14-----|
B:|-----15--------------------|-----15--------------------|
G:|--------14-12----14----14--|--------14-12----14----14--|
D:|--12-----------------------|--12-----------------------|
A:|---------------------------|---------------------------|
E:|---------------------------|---------------------------|

E:|--------------15----14-----|--------------15----14-----|
B:|-----15--------------------|-----15--------------------|
G:|--------14-12----------14--|--------14-12----------14--|
D:|--14-----------------------|--14-----------------------|
A:|---------------------------|---------------------------|
E:|---------------------------|---------------------------|

E:|--------------15----14-----|--------------15----14-----|
B:|-----15--------------------|-----15--------------------|
G:|--12----14-12----14----14--|--12----14-12----14----14--|
D:|---------------------------|---------------------------|
A:|---------------------------|---------------------------|

E:|--------------15----14-----|--------------15----14-----|
B:|-----15--------------------|-----15--------------------|
G:|--------14-12----14----14--|--------14-12----14----14--|
D:|--12-----------------------|--12-----------------------|
A:|---------------------------|---------------------------|
E:|---------------------------|---------------------------|




E:|--------------15----14-----|--------------15----14-------|
B:|-----15--------------------|-----15----------------------|
G:|--------14-12----14----14--|--------14-12----14----14----|
D:|--12-----------------------|--12-------------------------|
A:|---------------------------|-----------------------------|
E:|---------------------------|-----------------------------|

E:|--------------15----14-----|--------------15----14-------|
B:|-----15--------------------|-----15----------------------|
G:|--------14-12----------14--|--------14-12----------14----|
D:|--14-----------------------|--14-------------------------|
A:|---------------------------|-----------------------------|
E:|---------------------------|-----------------------------|

E:|--------------15----14-----|--------------15----14-------|
B:|-----15--------------------|-----15----------------------|
G:|--12----14-12----14----14--|--12----14-12----14----14----|
D:|---------------------------|-----------------------------|
A:|---------------------------|-----------------------------|
E:|---------------------------|-----------------------------|

E:|--12------------12----14---|--15----14----12---------------14---|
B:|---------15----------------|---------------------15--------15---|
G:|-----14------14----14---14-|-----14----14----14------14----14---|
D:|---------------------------|------------------------------------|
A:|---------------------------|------------------------------------|
E:|---------------------------|------------------------------------|
Verse 1:


E:|-10------------------------|---------8--------------------------|
B:|-10------------------------|---------8--------------------------|
G:|-11------------------------|---------9--------------------------|
D:|-12------------------------|---------10-------------------------|
A:|---------------------------|------------------------------------|
E:|---------------------------|------------------------------------|

1-She`s got a smile that it seems to me reminds me of child hood


E:|--10p8------------------|--3-------------|-3-------3------------|
B:|-----------8-------(8)/-|--3-------------|----3-----------3-----|
G:|------------------------|--0-------------|-------0------------0-|
D:|------------------------|--5-------------|----------------------|
A:|------------------------|----------------|----------------------|
E:|------------------------|----------------|----------------------|

       memories,    where everything was as fresh as the bright blue sky.


E:|--2-------2----------3p2---|---------------0----------------2---|
B:|--3-------3----------3-----|-------3---------------3------------|
G:|--2-------2----------2-----|-----------2----------------2-------|
D:|--0-------0----------0-----|--0---------------------------------|
A:|---------------------------|------------------------------------|
E:|---------------------------|------------------------------------|

                               Now and then___        when I

E:|-----------2--3--3--2--0---|-------------------0----------------|
B:|---3----------------------3|-----------3----------3----3--------|
G:|------2--------------------|------0-------0---------------0----0|
D:|---------0-----------------|--------2--------2------------------|
A:|---------------------------|---3---------------------3-------3--|
E:|---------------------------|------------------------------------|

   see her face she takes me away to that special place, and if I


E:|----------------------0----------0------------------3--------2--|
B:|---------3------3-------3---3------3-----3-----3----3--3-----3--|
G:|--------------0---0-------0----------0-----2-----2--2----2---2--|
D:|-----0-----0---------------------------0-----0---------------0--|
A:|----------------------------------------------------------------|
E:|-3--------------------------------------------------------------|

Stared too long I`ll  probably break down and cry__________________


Chorus:

E:|---------------------------|--------------12----10-----|
B:|-----14-------15----14-----|-----13--------------------|
G:|--------14-------14----14--|--------12-10----12----12--|
D:|-----------14--------------|--10-----------------------|
A:|---11----------------------|---------------------------|
E:|---------------------------|---------------------------|
  |                           |                           |
E:|---------------------------|---------------------------|
B:|---------------------------|---------------------------|
G:|---2------2-------2--4-----|--5-------5----------------|
D:|---2------2-------2--4-----|--5-------5----------------|
A:|---0------0-------0--2-----|--3-------3----------------|
E:|---------------------------|---------------------------|

  Whoa                  Whoa    Whoa____, sweet child  o`mine

E:|--------------15----14-----|--------------15---14-----|
B:|-----15--------------------|-----15-------------------|
G:|--------14-12----14----14--|--------14-12---14----14--|
D:|--12-----------------------|--12----------------------|
A:|---------------------------|--------------------------|
E:|---------------------------|--------------------------|
  |                           |                          |
E:|-2----------------------2--|-3---2---0---2------------|
B:|-3----------------------3--|-3---3---3---2------------|
G:|-2----------------------2--|-2---2---2---3------------|
D:|-0----------------------0--|-0---0---0---0------------|
A:|---------------------------|--------------------------|
E:|---------------------------|--------------------------|


E:|---------------------------|--------------12----10----|
B:|-----14-------15----14-----|-----13-------------------|
G:|--------14-------14----14--|--------12-10----12----12-|
D:|-----------14--------------|---10---------------------|
A:|---11----------------------|--------------------------|
E:|---------------------------|--------------------------|
  |                           |                          |
E:|-2----------------------2--|-3---2---0---2------------|
B:|-3----------------------3--|-3---3---3---2------------|
G:|-2----------------------2--|-2---2---2---3------------|
D:|-0----------------------0--|-0---0---0---0------------|
A:|---------------------------|--------------------------|
E:|---------------------------|--------------------------|

  Whoa        oh  oh       sweet love of  mine


E:|---------------------------|---------------------------|
B:|--------15-----------------|---------------------------|
G:|--12s14--------------------|---------------------------|
D:|---------------------------|---------------------------|
A:|---------------------------|---------------------------|
E:|---------------------------|---------------------------|
  |                           |                           |
E:|-2----------------------2--|-3---2---0---2-------------|
B:|-3----------------------3--|-3---3---3---2-------------|
G:|-2----------------------2--|-2---2---2---3-------------|
D:|-0----------------------0--|-0---0---0---0-------------|
A:|---------------------------|---------------------------|
E:|---------------------------|---------------------------|

FILL1:

E:|---------------------------------------------------------------|
B:|---10---8--7-----10--8--7----10---8------10---8-----10-\-8-----|
G:|-------------------------------------9------------9------------|
D:|---------------------------------------------------------------|
A:|---------------------------------------------------------------|
E:|---------------------------------------------------------------|

E:|------------------10--10^--(10)---------------|
B:|-10-^-(10)8--10-^--------------full-----------|
G:|--------------------------------9-^-----------|
D:|----------------------------------------------|
A:|----------------------------------------------|
E:|----------------------------------------------|

Verse 2:

E:|-10------------------------|---------8--------------------------|
B:|-10------------------------|---------8--------------------------|
G:|-11------------------------|---------9--------------------------|
D:|-12------------------------|---------10-------------------------|
A:|---------------------------|------------------------------------|
E:|---------------------------|------------------------------------|

2- She`s got eyes of the bluest skies, as if they thought of rain___


E:|--10p8------------------|--3-------------|-3-------3------------|
B:|-----------8-------(8)/-|--3-------------|----3-----------3-----|
G:|------------------------|--0-------------|-------0------------0-|
D:|------------------------|--5-------------|----------------------|
A:|------------------------|----------------|----------------------|
E:|------------------------|----------------|----------------------|

_________________________I`d hate to look into those eyes    and


E:|--2-------2----------3p2---|---------------0----------------2---|
B:|--3-------3----------3-----|-------3---------------3------------|
G:|--2-------2----------2-----|-----------2----------------2-------|
D:|--0-------0----------0-----|--0---------------------------------|
A:|---------------------------|------------------------------------|
E:|---------------------------|------------------------------------|

  See an ounce of pain        Her hair reminds    me   of     a ____


E:|-----------2--3--3--2--0---|-------------------0----------------|
B:|---3----------------------3|-----------3----------3----3--------|
G:|------2--------------------|------0-------0---------------0----0|
D:|---------0-----------------|--------2--------2------------------|
A:|---------------------------|---3---------------------3-------3--|
E:|---------------------------|------------------------------------|

   Warm   safe  place  whre as a child I`d hide,________________and_


E:|----------------------0----------0------------------3--------2--|
B:|---------3------3-------3---3------3-----3-----3----3--3-----3--|
G:|--------------0---0-------0----------0-----2-----2--2----2---2--|
D:|-----0-----0---------------------------0-----0---------------0--|
A:|----------------------------------------------------------------|
E:|-3--------------------------------------------------------------|

Pray__for the thunder  and the rain to quietly pass me by___________


Chorus:

E:|---------------------------|--------------12----10-----|
B:|-----14-------15----14-----|-----13--------------------|
G:|--------14-------14----14--|--------12-10----12----12--|
D:|-----------14--------------|--10-----------------------|
A:|---11----------------------|---------------------------|
E:|---------------------------|---------------------------|
  |                           |                           |
E:|---------------------------|---------------------------|
B:|---------------------------|---------------------------|
G:|---2------2-------2--4-----|--5-------5----------------|
D:|---2------2-------2--4-----|--5-------5----------------|
A:|---0------0-------0--2-----|--3-------3----------------|
E:|---------------------------|---------------------------|

  Whoa                  Whoa    Whoa____, sweet child  o`mine

E:|--------------15----14-----|--------------15---14-----|
B:|-----15--------------------|-----15-------------------|
G:|--------14-12----14----14--|--------14-12---14----14--|
D:|--12-----------------------|--12----------------------|
A:|---------------------------|--------------------------|
E:|---------------------------|--------------------------|
  |                           |                          |
E:|-2----------------------2--|-3---2---0---2------------|
B:|-3----------------------3--|-3---3---3---2------------|
G:|-2----------------------2--|-2---2---2---3------------|
D:|-0----------------------0--|-0---0---0---0------------|
A:|---------------------------|--------------------------|
E:|---------------------------|--------------------------|

E:|---------------------------|--------------12----10----|
B:|-----14-------15----14-----|-----13-------------------|
G:|--------14-------14----14--|--------12-10----12----12-|
D:|-----------14--------------|---10---------------------|
A:|---11----------------------|--------------------------|
E:|---------------------------|--------------------------|
  |                           |                          |
E:|-2----------------------2--|-3---2---0---2------------|
B:|-3----------------------3--|-3---3---3---2------------|
G:|-2----------------------2--|-2---2---2---3------------|
D:|-0----------------------0--|-0---0---0---0------------|
A:|---------------------------|--------------------------|
E:|---------------------------|--------------------------|

  Whoa        oh  oh       sweet love of  mine


E:|---------------------------|---------------------------|
B:|--------15-----------------|---------------------------|
G:|--12s14--------------------|---------------------------|
D:|---------------------------|---------------------------|
A:|---------------------------|---------------------------|
E:|---------------------------|---------------------------|
  |                           |                           |
E:|-2----------------------2--|-3---2---0---2-------------|
B:|-3----------------------3--|-3---3---3---2-------------|
G:|-2----------------------2--|-2---2---2---3-------------|
D:|-0----------------------0--|-0---0---0---0-------------|
A:|---------------------------|---------------------------|
E:|---------------------------|---------------------------|


  FILL 2:
E:|-------------------------------------------------------------|
B:|---10---8--7-----10--8--7----10---8------10---8-----10-\-8---|
G:|-------------------------------------9------------9----------|
D:|-------------------------------------------------------------|
A:|-------------------------------------------------------------|
E:|-------------------------------------------------------------|

E:|--------------------------------10--------------------|
B:|-10-\-8-7hb--(7)----7-^------------(7)-----10----8--7-|
G:|------------------7-----------------------------------|
D:|------------------------------------------------------|
A:|------------------------------------------------------|
E:|------------------------------------------------------|

E:|------------------------10----10-\-8-------/12--------|
B:|-10---8----7-----/10-^--------------------------------|
G:|------------------------------------------------------|
D:|------------------------------------------------------|
A:|------------------------------------------------------|
E:|------------------------------------------------------|


E:|--12---12-\-10---10-(10)\-8---7-^--(7)----------------|
B:|-----------------------------------------8------------|
G:|---------------------------------------------7-~~~~~~~|
D:|------------------------------------------------------|
A:|------------------------------------------------------|
E:|------------------------------------------------------|

E:|-----------------------10---10-^--(10)-------------17----(17)|
B:|-10-^--(10)p8---10-^-------------------17-^---(17)-------(17)|
G:|-------------------------------------------------------------|
D:|-------------------------------------------------------------|
A:|-------------------------------------------------------------|
E:|-------------------------------------------------------------|

THIS IS FILL 3:
CHORUS:A5 C5 D5(FILL 3)
       A5 C5 D5
       A5 C5 D5(FILL 3)

       A5 C5 D5 D5 D5 D5
E:|-----------------------------|
B:|--7hb------------------------|
G:|------7----------------------|
D:|--------7--5-/-4---0---------|
A:|----------------------3^-----|
E:|-----------------------------|

 SOLO:

E:|-17^--hold----15--14--h15p14-----------15--14--h15p14-----------12--14-|
B:|-----------------------------17-----------------------17-16------------|
G:|-----------------------------------------------------------------------|
D:|-----------------------------------------------------------------------|
A:|-----------------------------------------------------------------------|
E:|-----------------------------------------------------------------------|


E:|-----------------------------------------------------------------------|
B:|--15^--12----------------------------------------13-12-------h13p12\10-|
G:|----------14^--12--11h12----------------11-12-14-----------------------|
D:|-----------------------------14-----14---------------------------------|
A:|-----------------------------------------------------------------------|
E:|-----------------------------------------------------------------------|


E:|---------------------------------------------15^-----------------------|
B:|--13^-----13-----12--12-(12)-------12^----------------7^^--------------|
G:|-----------------------------------------14-----------------9--9-------|
D:|-----------------------------------------------------------------------|
A:|-----------------------------------------------------------------------|
E:|-----------------------------------------------------------------------|

E:|-----------------------------------------------------------------------|
B:|-----7^----------------------------------------------------------------|
G:|----------9--9-----8^----8/11---------11^---9-----------------9--------|
D:|-----------------------------------------------9^---7---9--------------|
A:|-----------------------------------------------------------------------|
E:|-----------------------------------------------------------------------|

E:|-----------------------------------------------------------------------|
B:|--------7h8--p7---------------------------------------------7^---7-10^-|
G:|----------------------9------8^-----8------/11-----9^--8-9-----9-------|
D:|-----------------------------------------------------------------------|
A:|-----------------------------------------------------------------------|
E:|-----------------------------------------------------------------------|

E:|-7-8p7-11p7-8-11-12/14-11-12--14/15-12-14-15p14-12----14p11-12h14p12---|
B:|---------------------------------------------------15----------------15|
G:|-----------------------------------------------------------------------|
D:|-----------------------------------------------------------------------|
A:|-----------------------------------------------------------------------|
E:|-----------------------------------------------------------------------|

This par uses wah wah

E:|-17--------------------------------------------------------------------|
B:|----15^---15^---15^---15^---15^-p12-----15^----15^--------15^-p12------|
G:|------------------------------------14----------------------------14---|
D:|-----------------------------------------------------------------------|
A:|-----------------------------------------------------------------------|
E:|-----------------------------------------------------------------------|

E:|----------------------------------15-----------------------------------|
B:|--17^---17^--------17^----17^----------17^---------17^-p15--15h17------|
G:|-------------------17^-------------------------------------------------|
D:|-----------------------------------------------------------------------|
A:|-----------------------------------------------------------------------|
E:|-----------------------------------------------------------------------|

E:|-----------12----------------------------------------------------------|
B:|-15^------------15---12------------------------------------------------|
G:|---------------------------14^-p12-14---12-14----12--14^----12--14--12-|
D:|-----------------------------------------------------------------------|
A:|-----------------------------------------------------------------------|
E:|-----------------------------------------------------------------------|

E:|----15-------------15-----15-----15------------------------------------|
B:|----15-------15----15-----15-------15----------------------------------|
G:|-14^--14--12-14^-----14^----14^------14^-p12----14p12--x-x----12^------|
D:|---------------------------------------------14--------x-x-------------|
A:|-----------------------------------------------------------------------|
E:|-----------------------------------------------------------------------|

E:|-----------------------------------------------------------------------|
B:|-----------------------------------------------------------------------|
G:|-----------------12h14p12----12^--------------------12h14p12-----12-12-|
D:|-14p12-14----x-x----------14--------14p12-14----x-x----------14--------|
A:|-----------------------------------------------------------------------|
E:|-----------------------------------------------------------------------|


E:|----------------------------------------------12-12-------15-15p12--15-|
B:|-------------------12-12-------15-15p12-------------15p12--------------|
G:|-------14-14p12-14-------14p12-----------------------------------------|
D:|-14p12-----------------------------------------------------------------|
A:|-----------------------------------------------------------------------|
E:|-----------------------------------------------------------------------|

E:|-14----12h15p12---------12-----------12-----------12-----------12------|
B:|----15----------15--15^----15p12--------15p12-15^----15p12--------15p12|
G:|----------------------------------14^-----------------------14^--------|
D:|-----------------------------------------------------------------------|
A:|-----------------------------------------------------------------------|
E:|-----------------------------------------------------------------------|

E:|------12-----------12-----------12--------------12-------15^-----------|
B:|--15^----15p12--------15p12-15^----15p12-----12----15p12---------------|
G:|---------------14^-----------------------14^---------------------------|
D:|-----------------------------------------------------------------------|
A:|-----------------------------------------------------------------------|
E:|-----------------------------------------------------------------------|

E:|--------------------15------12h15p12----12------12---------------------|
B:|-------------------------------------15-----15^-----15p12--------------|
G:|-----------------------------------------------------------14^-p12-14^-|
D:|-----------------------------------------------------------------------|
A:|-----------------------------------------------------------------------|
E:|-----------------------------------------------------------------------|

E:|---------------------------------------------------|
B:|-------15------------------------------------------|
G:|----------14^-p12-14^----14p12--------------12-----|
D:|----------------------14-------14------------------|
A:|---------------------------------------------------|
E:|---------------------------------------------------|

Following vocals ad lib over E  F#  G  A  B  C  D  G chord sequence
Where do we go?_____ Where do we go_____now?
Where do we go?_____ Where do we go?______
Where do we go____now?_____ Where do we go?______
Where do we go?_____  CHILD !
Where do we go____now? Where do we go______now,
Now?_________________Where do  we go?

ENDING :
|--------------------------------------------------------------------|
|-----------------------------------------------------------------9--|
|---------------------------------------------------------------9----|
|--14-/-9----9/5---------------------------------------------9-------|
|---------------------10-/-7-/-2---------------------------7---------|
|-------------------------------------5-/-3hb---3-/-0----------------|

10.YOU'RE CRAZY

Intro/Verse:
e|--------|----------------------------------------------------|
B|--------|------------------------------------3--half---------|
G|--------|-----2----2--------2---------2------2---2^---(2)p0--|
D|--5--6--|-----2----2--------2---------2------0---------------|
A|--5--6--|-----0----0--------0---------0---0------------------|
E|--3--4--|-3-------------3---------3--------------------------|

e|-------------------------------------0-----------------------|
B|-------------------------------------0-----------------------|
G|-----2--2-----2------2---------------------------------------|
D|-----2--2-----2------2---------------------------------------|
A|-----0--0-----0------0---------------------------------------|
E|--3--------3------3-----0--3--4--0---------------------------|

Verse: Guitar 1 plays intro, Guitar 2 plays this w/wah...
e|-------------------------------------|-------------------------12-------|
B|-12h14-14-12-14---12-14--------------|----------------------12-----15^--|
G|-12h14-14-12-14---12-14------12------|-12h14-14-14-14-12h13--------full-|
D|----------------------------------14-|-12h14-14-14-14-------------------|
A|-------------------------------------|----------------------------------|
E|-------------------------------------|----------------------------------|

Pre-Chorus:
e|-----------------------------------------------------------------------|
B|-----------------------------------------------------------------------|
G|--7--7--7--7--7--x-x-7--7--7--7--7-x-x-7--7--7--7--7-x-x-7-7-7-7-7--5--|
D|--7--7--7--7--7--x-x-7--7--7--7--7-x-x-7--7--7--7--7-x-x-7-7-7-7-7--5--|
A|--5--5--5--5--5--x-x-5--5--5--5--5-x-x-5--5--5--5--5-x-x-5-5-5-5-5--3--|
E|-----------------------------------------------------------------------|

e|-------------------------------------------------------------|
B|-------------------------------------------------------------|
G|--9----------------------------------------------------------|
D|--9-----7---7---9---9---7---7---9---9----7---7---9---7---7---|
A|--7----------------------------------------------------------|
E|--0----------------------------------------------------------|
pm        ....................................................

e|------------------------------------|
B|------------------------------------|
G|--7--7--7--7--7--7--7--7---5--------|
D|--7--7--7--7--7--7--7--7---5----5---|
A|--5--5--5--5--5--5--5--5---3----5---|
E|--------------------------------3---|

Fill 1:
e|---------------------------------------------|
B|---------------------------------------------|
G|--7----7----7----7-----7-----7-----7-----7---|
D|--7----7----7----7-----7-----7-----7-----7---|
A|--5----5----5----5-----5-----5-----5-----5---|
E|---------------------------------------------|

Chorus:
e|-----------------------------------------------------------------------|
B|-----------------------------------------------------------------------|
G|---1/4 bend------------------------------------------------------------|
D|------5^----------------------------------------------1/4------9--8--7-|
A|--7--------7---6------5---------------------------3---(3^)-----7--6--5-|
E|---------------------------3--3--4-----5---5---5------------5----------|
pm                          ......

e|-------------------------------------------------------------|
B|-------------------------------------------------------------|
G|-------------------------------------------------------------|
D|---------------------------------------------1/4-----9--8--7-|
A|---------------------------------------------3^------7--6--5-|
E|--2--2--3--3--2--2--3--3--4--4--3--3--3--3--------5----------|
pm ..........................................

e|--------------------------------------------------------------------|
B|--------------------------------------------------------------------|
G|---------------------------------------------------------7-----(7)\-|
D|----------------------------1/4---------9--8--7----7-----7-----(7)\-|
A|--3----3----------------3--(3^)---------7--6--5----5-----5-----(5)\-|
E|-------------5----5--5------------5---------------------------------|

e|-----------------------|
B|-----------------------|
G|-----------------------|
D|-----------------------|
A|--2--2---5--5---4--4---|
E|--0--0---3--3---2--2---|

Interlude:
e|------------------------------------------------------------------------|
B|------------------------------------------------------------------------|
G|-------------------9--(9)\------9------------9--(9)\-----9\----------9\-|
D|-------------------9--(9)\------9------------9--(9)\-----9\----------9\-|
A|-2-----------------7--(7)\------7------------7--(7)\-----7\----------7\-|
E|-0--0--0--0--0--0-----------0---0---0--0--0-----------0--0--0--0--0-----|
pm    .............          ...      ........         ..     ........

e|--------------------------------------5--\-----------5--\------5-\-------5-\-|
B|--------------------------------------5--\-----------5--\------5-\-------5-\-|
G|-------5-----4-----2---------------------------------------------------------|
D|-------5-----4-----2-----------------------------------------------0-0-0-----|
A|-0--0--3-----2-----0---0--0--0--0--0--------0--0--0--------0-----------------|
E|-----------------------------------------------------------------------------|
pm ....                  ..............       ........      ...      ......

e|-----------------||
B|-----------------||
G|-----------------||o
D|----------5---4--||o
A|--0---0---5---4--||
E|----------3---2--||

Half time:
e|---------------------------------------------------------------------------|
B|---------------------------------------------------------------------------|
G|----2--2-------------------------------------------------------------------|
D|--2--2---2---2-----5---5-----------4---4-----------3---3-------------------|
A|-0---------0-----5---5---5---5---4---4---4---4---3---3---3--3--------------|
E|---------------3-----------3---2-----------2---1-----------1--000000000000-|
pm............................................................................

Solo: Guitar 2
e|--------7----------7-----------7--------7--------------------|
B|-full---7------7---7---7-------7--------7----9^^^------------|
G|--9^-------9^--------------9^------9^--------9^^^------------|
D|---------full--------------F-------F--------1/2 gradual------|
A|-------------------------------------------------------------|
E|-------------------------------------------------------------|
Solo: Guitar 1
e|-------------------------------------------------------------|
B|-------------------------------------------------------------|
G|------------------------------------------------9------------|
D|--7----9----9----7----9-------7----9--------7---9------------|
A|--7----9----9----7----9-------7----9--------7---7------------|
E|--5----7----7----5----7-------5----7--------5----------------|

     Guitar 2: continued
e|-------------------------------------------------------------|
B|-------------------------------------------------------------|
G|--9^-----7---------9----7--------7----7----------------------|
D|-1/2----------9--------------9-------------9----7------------|
A|-----------------------------------------------------9-------|
E|-------------------------------------------------------------|
     Guitar 1: continued
e|-------------------------------------------------------------|
B|-------------------------------------------------------------|
G|-------------------------------------------------------------|
D|--7---9---9---7---9-------7---9------7---7---------4---------|
A|--7---9---9---7---9-------7---9------7---7---------4---------|
E|--5---7---7---5---7-------5---7------5---5---------2---------|

     Guitar 1: continued
e|----------------------------------------7----------7-----7---|
B|-------------------------------------7-----7--10^----10------|
G|------------------------7h8-----7h8----------full------------|
D|-------------7-------9-------9-------------------------------|
A|--7---9---9-------9------------------------------------------|
E|-------------------------------------------------------------|
pm...............

     Guitar 1: continued
e|-----------------------------------17----17----17----17----17----17-----|
B|-10p9p7-9--7----------------17^^^----(17)--(17)--(17)--(17)--(17)--(17)-|
G|---------------9^-p7--9^---full hold------------------------------------|
D|-------------full---full------------------------------------------------|
A|------------------------------------------------------------------------|
E|------------------------------------------------------------------------|
     Guitar 1: continued
e|-17------------------7------------------------------------------------|
B|----17^---\----10^------10-----7h10p7----------7--10p7----------------|
G|---full------full----------------------10--9^----------9--9^----7---9-|
D|-------------------------------------------1/2-----------full---------|
A|----------------------------------------------------------------------|
E|----------------------------------------------------------------------|

     Guitar 1: continued
e|-------------------------------------------------------------|
B|-------------------------------------------------------------|
G|--7----------------------------------------------------------|
D|-----9---7------------------------P.H.-----------------------|
A|-------------9---8--8--7--7---5----7^------------------------|
E|-------------------------------------------------------------|
pm.................................

Outro: guitar 2
e|--10^------------10^-----------------------------------------|
B|--13^----\-------13^----13\----------------------------------|
G|-full-----------full-----------------------------------------|
D|--------------------------------------------1/4--------------|
A|------------------------------------------3--3^--------------|
E|--------------------------------5---5---5--------5-----------|
       guitar 1
e|-------------------------------------------------------------|
B|-------------------------------------------------------------|
G|------------7--7------------7--------------------------------|
D|-(7)--------7--7------------7---------------1/4--------------|
A|-(5)--------5--5------------5-------------3--3^--------------|
E|--------------------------------5---5---5--------5-----------|

Fill: 2
e|-----------------------------------------|
B|--------------------------------1/2------|
G|-------------5----------------5--5^------|
D|---7---7--7----------7--7---7----------7-|
A|-----------------------------------------|
E|-----------------------------------------|

11.ANYTHING GOES

Guitar - Slash

D#||----------|-------9-------------|--------------------|--------------------|
A#||----------|----------8b---------|--------------------|--------------------|
F#||----------|--9------------------|--------------------|--14----------------|
C#||----------|---------------------|----------------x-x-|--14----------------|
G#||----------|---------------------|----------------x-x-|--12----------------|
D#||----------|---------------------|--------------------|--------------------|

--------------------|-------9-------------|------------------|
--------------------|----------8b---------|------------------|
--14/---------------|--9------------------|------------------|
--14/---------------|---------------------|------------------|
--12/---------------|---------------------|------------------|
--------------------|---------------------|------------------|

--------------------|--------------------|-----------------------|
--------------------|--------------------|-----------------------|
--14----------------|--14/---------------|--------9-----8--------|
--14----------------|--14/---------------|--------7-----6--------|
--12----------------|--12/---------------|--0--0-----0-----------|
--------------------|--------------------|-----------------------|

------------------|-----------------------|------------------|
------------------|-----------------------|------------------|
------------------|--------9-----7--------|------------------|
------------------|--------7-----5--------|------------------|
------------------|--0--0-----0-----------|------------------|
------------------|-----------------------|------------------|

-----------------------|------------------|-----------------------|
-----------------------|------------------|-----------------------|
--------9-----6--------|------------------|--------9-----5--------|
--------7-----4--------|------------------|--------7-----3--------|
--0--0-----0-----------|------------------|--0--0-----0-----------|
-----------------------|------------------|-----------------------|

--------------------|----------------------------|---------------------------|
--------------------|----------------------------|---------------------------|
--------------------|----------------------------|---------------------------|
--------------------|--------7----6~------6----5~|--------5----4~------3--2--|
--------------------|--0--0-----0-----0-0----0---|----0-0----0-----0-0-------|
------------15/-----|----------------------------|---------------------------|

------------------------------|---------------------------|
------------------------------|---------------------------|
------------------------------|---------------------------|
----------7----6~------6----5~|--------5----4~------3--2--|
--0-0-3-4----0-----0-0----0---|----0-0----0-----0-0-------|
------------------------------|---------------------------|

------------------------------|---------------------------|
------------------------------|---------------------------|
------------------------------|---------------------------|
----------7----6~------6----5~|--------5----4~------3--2--|
--0-0-3-4----0-----0-0----0---|----0-0----0-----0-0-------|
------------------------------|---------------------------|

------------------------------|-------------------------|
------------------------------|-------------------------|
------------------------------|----------12-------------|
----------7----6~------6----5~|--7---5b-----------------|
--0-0-3-4----0-----0-0----0---|----------7~----3--2-----|
------------------------------|----------------------3--|

-------------------------|------------------------|------------------------|
-------------------------|------------------------|------------------------|
--------------4/-6-------|-------------7/-6-------|-------------4/-6-------|
--------------4/-6-------|-------------7/-6-------|-------------4/-6----2--|
--------------2/-4----2--|-------------5/-4----2--|-------------2/-4----2--|
--0--0--3--4----------0--|----0--3--4----------0--|----0--3--4----------0--|

-----------------------|-------------------------|------------------------|
-------------3---------|-------------------------|------------------------|
-------------2----2----|--------------4/-6-------|-------------7/-6-------|
-------------0----2----|--------------4/-6-------|-------------7/-6-------|
------------------0----|--------------2/-4----2--|-------------5/-4----2--|
----0--3--4------------|--0--0--3--4----------0--|----0--3--4----------0--|

------------------------|-----------------------|-------------------|
------------------------|-----------------------|-------------------|
-------------4/-6-------|-----------------------|-------------------|
-------------4/-6----2--|-------------3----4----|--5----------------|
-------------2/-4----2--|-------------3----4----|--5----------------|
----0--3--4----------0--|----0--3--4--1----2----|--3----------------|

-------------------|-----------------------|------------------------|
-------------------|-----------------------|------------------------|
--7----------------|--2--2----2----2----2--|----2-------------------|
--7----------------|--2--2----2----2----2--|----2-------------------|
--5----------------|--0--0----0----0----0--|----0----0--3b-0--3b-0--|
-------------------|-----------------------|------------------------|

-------------------|-------------------|------------------------|
-------------------|-------------------|------------------------|
-------------------|--7----------------|------------------------|
--5----------------|--7----------------|--5---------------------|
--5----------------|--5----------------|-------7-----5--7----5--|
--3----------------|-------------------|----------7-------------|

-----------------------|-------------------------|------------------------|
-----------------------|-------------------------|------------------------|
-----------------------|--------------4/-6-------|-------------7/-6-------|
-----------------------|--------------4/-6-------|-------------7/-6-------|
----4----2--4--2-------|--------------2/-4----2--|-------------5/-4----2--|
------------------3b---|--0--0--3--4----------0--|----0--3--4----------0--|

------------------------|-----------------------|-------------------------|
------------------------|-------------3---------|-------------------------|
-------------4/-6-------|-------------2----2----|--------------4/-6-------|
-------------4/-6----2--|-------------0----2----|--------------4/-6-------|
-------------2/-4----2--|------------------0----|--------------2/-4----2--|
----0--3--4----------0--|----0--3--4------------|--0--0--3--4----------0--|

------------------------|------------------------|-----------------------|
------------------------|------------------------|-----------------------|
-------------7/-6-------|-------------4/-6-------|-----------------------|
-------------7/-6-------|-------------4/-6----2--|-------------3----4----|
-------------5/-4----2--|-------------2/-4----2--|-------------3----4----|
----0--3--4----------0--|----0--3--4----------0--|----0--3--4--1----2----|

-------------------|-------------------|-----------------------|
-------------------|-------------------|-----------------------|
-------------------|--7----------------|--2--2----2----2----2--|
--5----------------|--7----------------|--2--2----2----2----2--|
--5----------------|--5----------------|--0--0----0----0----0--|
--3----------------|-------------------|-----------------------|

------------------------|-------------------|-------------------|
------------------------|-------------------|-------------------|
----2-------------------|-------------------|--7----------------|
----2-------------------|--5----------------|--7----------------|
----0----0--3b-0--3b-0--|--5----------------|--5----------------|
------------------------|--3----------------|-------------------|

-----------------------|-----------------------|-------------------|
-----------------------|-----------------------|-------------------|
--2--2----2----2----2--|----2----2----2--2--2--|-------------------|
--2--2----2----2----2--|----2----2----2--2--2--|--5----------------|
--0--0----0----0----0--|----0----0----0--0--0--|--5----------------|
-----------------------|-----------------------|--3----------------|

-------------------|--------------------------|------------------------|
-------------------|--------------------------|------------------------|
--7----------------|--------------------------|----0-------------------|
--7----------------|--------------2--2--4--4b-|-------4r---2--2--------|
--5----------------|--0--0--3--4--------------|------------------3--4--|
-------------------|--------------------------|------------------------|

-------------------|-------------------|----------------------|
-------------------|-------------------|----------------------|
-------------------|--7----------------|--------2--4----------|
--5----------------|--7----------------|-----4-----4----------|
--5----------------|--5----------------|--2--------2----------|
--3----------------|-------------------|----------------------|

---------------------|----------------------|----------------------|
---------------------|----------------------|----------------------|
--------4r-----------|--------4b-4----------|----------------------|
-----4--4r-----------|-----4--4b-4----------|----4----5----6----7/-|
--2------------------|--2-------------------|----2----3----4----5/-|
---------------------|----------------------|----------------------|

----------------------|----------------------|
----------------------|----------------------|
----------------------|----------------------|
--9---------------5b--|--7b---5--------------|
--7----------7--x-----|------------7~---7/---|
----------------------|----------------------|

----------------------------------|------------------------------------|
--13b---13r-------14--13b-12--14--|--13r-------12h14-----12--------19b-|
--14b---14r-12----14--14b-12--14--|--14r-12----12h14-----12------------|
---------------14-----------------|---------14-------14------14/-------|
----------------------------------|------------------------------------|
----------------------------------|------------------------------------|

----16--17--18--19------------|-------19----------------------|
--------------------19r---17--|--19b-----19r-17--20r---20/-0--|
------------------------------|-------------------------------|
------------------------------|-------------------------------|
------------------------------|-------------------------------|
------------------------------|-------------------------------|

-------12-------------12------------|----12--------------13--------|
--15b-----15h12-15b------15h12---15b|--------15h12-16b---------17b-|
------------------------------------|------------------------------|
------------------------------------|------------------------------|
------------------------------------|------------------------------|
------------------------------------|------------------------------|

------14~---------14--|--17-17-17r-------17--16--17--|
----------------------|------------------------------|
----------------------|------------------------------|
----------------------|------------------------------|
----------------------|------------------------------|
----------------------|------------------------------|

--14h17h14----14----------------------------|
-----------17----17r-15----17----15---------|
------------------------16----16------16-15-|
--------------------------------------------|
--------------------------------------------|
--------------------------------------------|

-------------------------------------------|-------------------|
-------------------------------------------|-------------------|
--14----13---------------------------------|-------------------|
-----16----14r-12-14h12-14h12---------12b--|--9----------------|
------------------------------14-12-x------|-------------------|
-------------------------------------------|-------------------|

------7------------7---------|------------------------------------|
---------7-10b--------10h-7--|------------------------------------|
-----------------------------|--9r---7-----9h-7-------------------|
-----------------------------|----------9--------9--7-------------|
-----------------------------|-------------------------9--8-7-9-8-|
-----------------------------|------------------------------------|

-----------------------------------|------------------|-------------------|
-----------------------------------|------------------|-------------------|
-----------------------------------|------------------|-------------------|
-----------------------------------|------------------|-------------------|
--7--5--7--5-----5-----------------|------------------|-------------------|
--------------7-----7--5--5--6--7~-|------------------|--7/---------------|

------------------------|--------------------|------------------|
------------------------|--------------------|------------------|
---------5b---------5b--|--------5b----------|------------------|
------7-----------7-----|------7-------------|------------------|
------------------------|--------------------|------------------|
------------------------|--------------------|------------------|

------------------|--12--------12--------|--12----12----12----12----|
------------------|--14--------14--------|--14----14----14----14----|
------------------|----------------------|--------------------------|
------------------|----------------------|--------------------------|
------------------|----------------------|--------------------------|
------------------|----------------------|--------------------------|

-------------------|-------------------|-----------------------|
-------------------|-------------------|-----------------------|
-------------------|--7----------------|--2--2----2----2----2--|
--5----------------|--7----------------|--2--2----2----2----2--|
--5----------------|--5----------------|--0--0----0----0----0--|
--3----------------|-------------------|-----------------------|

------------------------|-------------------|-------------------|
------------------------|-------------------|-------------------|
----2-------------------|-------------------|--7----------------|
----2-------------------|--5----------------|--7----------------|
----0----0--3b-0--3b-0--|--5----------------|--5----------------|
------------------------|--3----------------|-------------------|

-----------------------|----------------------|-------------------|
-----------------------|----------------------|-------------------|
--2--2----2----2----2--|----2----2----2----2--|-------------------|
--2--2----2----2----2--|----2----2----2----2--|--5----------------|
--0--0----0----0----0--|----0----0----0----0--|--5----------------|
-----------------------|----------------------|--3----------------|

-------------------|--------------------------|------------------------|
-------------------|--------------------------|------------------------|
--7----------------|--------------------------|----0-------------------|
--7----------------|--------------2--2--4--4b-|-------4r---2--2--------|
--5----------------|--0--0--3--4--------------|------------------3--4--|
-------------------|--------------------------|------------------------|

-------------------|--------------------|-------------------|
-------------------|--------------------|-------------------|
-------------------|--7-----------------|--2----------------|
--5----------------|--7-----------------|--2----------------|
--5----------------|--5------------3b---|--0----------------|
--3----------------|--------------------|-------------------|

--------------------|-------------------|--------------------|
--------------------|-------------------|--------------------|
--------------------|-------------------|--7-----------------|
--------------------|--5----------------|--7-----------------|
--------------------|--5----------------|--5-----------------|
--------14/---------|--3----------------|-------------3b-----|

---------------------------------|---------------------------------|
---------------------------------|---------------------------------|
---------------------------------|---------------------------------|
----------7----6~--------6-------|--5-------5----4~--------3----2--|
--0----0--------------0-------0--|-------0--------------0----------|
---------------------------------|---------------------------------|

---------------------------------|---------------------------------|
---------------------------------|---------------------------------|
---------------------------------|---------------------------------|
----------7----6~--------6-------|--5-------5----4~--------3----2--|
--0----0--------------0-------0--|-------0--------------0----------|
---------------------------------|---------------------------------|

---------------------------------|---------------------------------|
---------------------------------|---------------------------------|
---------------------------------|---------------------------------|
----------7----6~--------6-------|--5-------5----4~--------3----2--|
--0----0--------------0-------0--|-------0--------------0----------|
---------------------------------|---------------------------------|

---------------------------------|---------------------------------|
---------------------------------|---------------------------------|
---------------------------------|---------------------------------|
----------7----6~--------6-------|--5-------5----4~--------3----2--|
--0----0--------------0-------0--|-------0--------------0----------|
---------------------------------|---------------------------------|

---------------------------------|---------------------------------|
---------------------------------|---------------------------------|
---------------------------------|---------------------------------|
----------7----6~--------6-------|--5-------5----4~--------3----2--|
--0----0--------------0-------0--|-------0--------------0----------|
---------------------------------|---------------------------------|

---------------------------------|---------------------------------|
---------------------------------|---------------------------------|
---------------------------------|---------------------------------|
----------7----6~--------6-------|--5-------5----4~--------3----2--|
--0----0--------------0-------0--|-------0--------------0----------|
---------------------------------|---------------------------------|

---------------------------------|---------------------------------|
---------------------------------|---------------------------------|
---------------------------------|---------------------------------|
----------7----6~--------6-------|--5-------5----4~--------3----2--|
--0----0--------------0-------0--|-------0--------------0----------|
---------------------------------|---------------------------------|

---------------------------------|---------------------------------|
---------------------------------|---------------------------------|
---------------------------------|---------------------------------|
----------7----6~--------6-------|--5-------5----4~--------3----2--|
--0----0--------------0-------0--|-------0--------------0----------|
---------------------------------|---------------------------------|

-------------------|--------10--------------------------------|
-------------------|--13~------13h10--------------------------|
-------------------|-----------------12r-10----12-10b10-------|
--5----------------|------------------------12----------12-10-|
--5----------------|------------------------------------------|
--3----------------|------------------------------------------|

------------------------------|-------------------|-------------------||
------------------------------|-------------------|-------------------||
------------------------------|-------------------|--2----------------||
------------------------------|-------------------|--2----------------||
--12--11--10--10r-8-----------|-------------------|--0----------------||
--------------------8b--------|--------------8/---|-------------------||

----------------------------------------------------------------------


Guitar - Izzy

D#||----------|------------------------|-----------------------|
A#||----------|--------------5---------|---------5b---5b-------|
F#||----------|--------------5---------|----5b---5b---5b-------|
C#||----------|--5--7-7-7--7-----------|-----------------------|
G#||----------|------------------------|-------------------7-7-|
D#||----------|------------------------|-----------------------|

---------------------------|------------------|------------------------|
---------------------------|------------------|------------------------|
---------------------------|------------------|--------------5---------|
--5--7-7-7--5-7--5-7--7----|------------------|--5--7-7-7--7-----------|
----------------------7----|------------------|------------------------|
---------------------------|------------------|------------------------|

------------------------|-----------------------------|----------------------|
-------8----------------|-----------------------------|----------------------|
--7b------7r---5--------|-----------------------------|----------------------|
------------------------|--5-7-7-7-7--5-7--5-7--------|----------------------|
--------------------7-7-|-----------------------5--7--|----------7/-3--3--2--|
------------------------|-----------------------------|----------------------|

-----------------------------|-----------------------------|
-----------------------------|-----------------------------|
-----------------------5-----|-----------------------------|
--5-7-7-7-7--5-7--5-7-----7--|--5-7-7-7-7--5-7--5-7--------|
-----------------------------|-----------------------5--7--|
-----------------------------|-----------------------------|

-----------------------------|----------------------------|
-----------------------------|----------------------------|
-----------------------5-----|-----------------------7~---|
--5-7-7-7-7--5-7--5-7-----7--|--5-7-7-7-7--5-7--5-7-------|
-----------------------------|----------------------------|
-----------------------------|----------------------------|

-----------------------------|-----------------------------|
-----------------------------|-----------------------------|
-----------------------5-----|-----------------------------|
--5-7-7-7-7--5-7--5-7-----7--|--5-7-7-7-7--5-7--5-7--------|
-----------------------------|-----------------------5--7--|
-----------------------------|-----------------------------|

-----------------------------|----------------------|
-----------------------------|----------------------|
-----------------------5-----|----------------------|
--5-7-7-7-7--5-7--5-7-----7--|----------7/----------|
-----------------------------|-------------x--x--x--|
-----------------------------|----------------------|

-----------------------------|-----------------------------|
-----------------------------|-----------------------------|
-----------------------5-----|-----------------------------|
--5-7-7-7-7--5-7--5-7-----7--|--5-7-7-7-7--5-7--5-7--------|
-----------------------------|-----------------------5--7--|
-----------------------------|-----------------------------|

-----------------------------|----------------------------|
-----------------------------|----------------------------|
-----------------------5-----|-----------------------7~---|
--5-7-7-7-7--5-7--5-7-----7--|--5-7-7-7-7--5-7--5-7-------|
-----------------------------|----------------------------|
-----------------------------|----------------------------|

-----------------------------|-----------------------------|
-----------------------------|-----------------------------|
-----------------------5-----|-----------------------------|
--5-7-7-7-7--5-7--5-7-----7--|--5-7-7-7-7--5-7--5-7--------|
-----------------------------|-----------------------5--7--|
-----------------------------|-----------------------------|

-----------------------------|-------------------------|
-----------------------------|-------------------------|
-----------------------5-----|----------12-------------|
--5-7-7-7-7--5-7--5-7-----7--|--7---5b-----------------|
-----------------------------|----------7~----3--2-----|
-----------------------------|----------------------3--|

-------------------------|------------------------|------------------------|
-------------------------|------------------------|------------------------|
--------------4/-6-------|-------------7/-6-------|-------------4/-6-------|
--------------4/-6-------|-------------7/-6-------|-------------4/-6----2--|
--------------2/-4----2--|-------------5/-4----2--|-------------2/-4----2--|
--0--0--3--4----------0--|----0--3--4----------0--|----0--3--4----------0--|

-----------------------|-------------------------|------------------------|
-------------3---------|-------------------------|------------------------|
-------------2----2----|--------------4/-6-------|-------------7/-6-------|
-------------0----2----|--------------4/-6-------|-------------7/-6-------|
------------------0----|--------------2/-4----2--|-------------5/-4----2--|
----0--3--4------------|--0--0--3--4----------0--|----0--3--4----------0--|

------------------------|-----------------------|-------------------|
------------------------|-----------------------|-------------------|
-------------4/-6-------|-----------------------|-------------------|
-------------4/-6----2--|-------------3----4----|--5----------------|
-------------2/-4----2--|-------------3----4----|--5----------------|
----0--3--4----------0--|----0--3--4--1----2----|--3----------------|

-------------------|-----------------------|------------------------|
-------------------|-----------------------|------------------------|
--7----------------|--2--2----2----2----2--|----2-------------------|
--7----------------|--2--2----2----2----2--|----2-------------------|
--5----------------|--0--0----0----0----0--|----0----0--3b-0--3b-0--|
-------------------|-----------------------|------------------------|

-------------------|-------------------|------------------------|
-------------------|-------------------|------------------------|
-------------------|--7----------------|------------------------|
--5----------------|--7----------------|--5---------------------|
--5----------------|--5----------------|-------7-----5--7----5--|
--3----------------|-------------------|----------7-------------|

-----------------------|-------------------------|------------------------|
-----------------------|-------------------------|------------------------|
-----------------------|--------------4/-6-------|-------------7/-6-------|
-----------------------|--------------4/-6-------|-------------7/-6-------|
----4----2--4--2-------|--------------2/-4----2--|-------------5/-4----2--|
------------------3b---|--0--0--3--4----------0--|----0--3--4----------0--|

------------------------|-----------------------|-------------------------|
------------------------|-------------3---------|-------------------------|
-------------4/-6-------|-------------2----2----|--------------4/-6-------|
-------------4/-6----2--|-------------0----2----|--------------4/-6-------|
-------------2/-4----2--|------------------0----|--------------2/-4----2--|
----0--3--4----------0--|----0--3--4------------|--0--0--3--4----------0--|

------------------------|------------------------|-----------------------|
------------------------|------------------------|-----------------------|
-------------7/-6-------|-------------4/-6-------|-----------------------|
-------------7/-6-------|-------------4/-6----2--|-------------3----4----|
-------------5/-4----2--|-------------2/-4----2--|-------------3----4----|
----0--3--4----------0--|----0--3--4----------0--|----0--3--4--1----2----|

-------------------|-------------------|-----------------------|
-------------------|-------------------|-----------------------|
-------------------|--7----------------|--2--2----2----2----2--|
--5----------------|--7----------------|--2--2----2----2----2--|
--5----------------|--5----------------|--0--0----0----0----0--|
--3----------------|-------------------|-----------------------|

------------------------|-------------------|-------------------|
------------------------|-------------------|-------------------|
----2-------------------|-------------------|--7----------------|
----2-------------------|--5----------------|--7----------------|
----0----0--3b-0--3b-0--|--5----------------|--5----------------|
------------------------|--3----------------|-------------------|

-----------------------|-----------------------|-------------------|
-----------------------|-----------------------|-------------------|
--2--2----2----2----2--|----2----2----2--2--2--|-------------------|
--2--2----2----2----2--|----2----2----2--2--2--|--5----------------|
--0--0----0----0----0--|----0----0----0--0--0--|--5----------------|
-----------------------|-----------------------|--3----------------|

-------------------|--------------------------|-------------------------|
-------------------|--------------------------|-------------------------|
--7----------------|--------------------------|-------------------------|
--7----------------|--------------2--2--4--5--|----5--4--4--2--2--------|
--5----------------|--0--0--3--4--------------|-------------------3--4--|
-------------------|--------------------------|-------------------------|

-------------------|-------------------|------------------------|
-------------------|-------------------|------------------------|
-------------------|--7----------------|------------------------|
--5----------------|--7----------------|------------4--------0--|
--5----------------|--5----------------|----0-2-2-0-2-----------|
--3----------------|-------------------|------------------------|

-------------------------|-----------------------|----------------------------|
-------------------------|-----------------------|----------------------------|
-----4/5-4/5-4-----------|-----7-----------------|----4--x-x-5--x-x-6--x-x-7/-|
--4--4/5-4/5-4-----------|--9--7-9--7-9----------|----4--x-x-5--x-x-6--x-x-7/-|
--2--2/3-2/3-2--------0--|--9----9--7-9----------|----2--x-x-3--x-x-4--x-x-5/-|
-------------------------|-----------------------|----------------------------|

----------------------|----------------------|---------------------|
----------------------|----------------------|---------------------|
--9----------7--9--7--|-----------7--9----9--|------------7--9--7--|
--9----------7--9--7--|------9----7--9----9--|------------7--9--7--|
--7----------------7--|-------------------7--|------------------7--|
----------------------|----------------------|---------------------|

----------------------|---------------------|----------------------|
----------------------|---------------------|----------------------|
-----------7--9----9--|------------7--9--7--|-----------7--9----9--|
------9----7--9----9--|------------7--9--7--|------9----7--9----9--|
-------------------7--|------------------7--|-------------------7--|
----------------------|---------------------|----------------------|

---------------------|----------------------|---------------------|
---------------------|----------------------|---------------------|
------------7--9--7--|-----------7--9-------|---------------------|
------------7--9--7--|------9----7--9----9--|------------7--9--7--|
------------------7--|-------------------9--|------------7--9--7--|
---------------------|-------------------7--|------------------7--|

----------------------|---------------------|----------------------|
----------------------|---------------------|----------------------|
----------------------|---------------------|----------------------|
-----------7--9----9--|------------7--9--7--|-----------7--9----9--|
------9----7--9----9--|------------7--9--7--|------9----7--9----9--|
-------------------7--|------------------7--|-------------------7--|

---------------------|----------------------|----------------------|
---------------------|----------------------|----------------------|
---------------------|----------------------|----------------------|
------------7--9--7--|-----------7--9----9--|----------7-----------|
------------7--9--7--|------9----7--9----9--|----------7--9--8--9--|
------------------7--|-------------------7--|----------7-----------|

-----------------------|-------------------|-------------------|
-----------------------|-------------------|-------------------|
-----------------------|-------------------|--7----------------|
--x--9----8----7----6--|--5----------------|--7----------------|
--x--9----8----7----6--|--5----------------|--5----------------|
--x--7----6----5----4--|--3----------------|-------------------|

-------------------|--------------------|-------------------|
-------------------|--------------------|-------------------|
--2----------------|--------------------|-------------------|
--2----------------|----------------x-x-|--5----------------|
--0----------------|----------------x-x-|--5----------------|
-------------------|----------------x-x-|--3----------------|

-------------------|--------------------|----------------------|
-------------------|--------------------|----------------------|
--7----------------|--2--------2--------|--2----2----2----2----|
--7----------------|--2--------2--------|--2----2----2----2----|
--5----------------|--0--------0--------|--0----0----0----0----|
-------------------|--------------------|----------------------|

-------------------|-------------------|-----------------------|
-------------------|-------------------|-----------------------|
-------------------|--7----------------|--2--2----2----2----2--|
--5----------------|--7----------------|--2--2----2----2----2--|
--5----------------|--5----------------|--0--0----0----0----0--|
--3----------------|-------------------|-----------------------|

------------------------|-------------------|-------------------|
------------------------|-------------------|-------------------|
----2-------------------|-------------------|--7----------------|
----2-------------------|--5----------------|--7----------------|
----0----0--3b-0--3b-0--|--5----------------|--5----------------|
------------------------|--3----------------|-------------------|

-----------------------|----------------------|-------------------|
-----------------------|----------------------|-------------------|
--2--2----2----2----2--|----2----2----2----2--|-------------------|
--2--2----2----2----2--|----2----2----2----2--|--5----------------|
--0--0----0----0----0--|----0----0----0----0--|--5----------------|
-----------------------|----------------------|--3----------------|

-------------------|--------------------------|-------------------------|
-------------------|--------------------------|-------------------------|
--7----------------|--------------------------|-------------------------|
--7----------------|--------------2--2--4--5--|----5--4--4--2--2--------|
--5----------------|--0--0--3--4--------------|-------------------3--4--|
-------------------|--------------------------|-------------------------|

-------------------|--------------------|-------------------|
-------------------|--------------------|-------------------|
-------------------|--7-----------------|--2----------------|
--5----------------|--7-----------------|--2----------------|
--5----------------|--5------------3b---|--0----------------|
--3----------------|--------------------|-------------------|

--------------------|-------------------|--------------------|
--------------------|-------------------|--------------------|
--------------------|-------------------|--7-----------------|
--------------------|--5----------------|--7-----------------|
--------------------|--5----------------|--5-----------------|
--------14/---------|--3----------------|-------------3b-----|

-------------------|-------------------------|--------------------|
-------------------|-------------------------|--------------------|
--2----------------|--------------x--x----x--|--2----2------------|
--2----------------|--------------x--x----x--|--2----2------------|
--0----------------|--------------x--x----x--|--0----0------------|
-------------------|-------------------------|--------------------|

------------------|-------------------|------------------|--------------------|
------------------|-------------------|------------------|--------------------|
------------------|--9----------------|------------------|--9--------9--------|
------------------|--7----------------|------------------|--7--------7--------|
------------------|-------------------|------------------|--------------------|
------------------|-------------------|------------------|--------------------|

---------------------------|--------------------------------|
---------------------------|--------------------------------|
------9------9------9------|------9--9----9------9--9----9--|
------7------7------7------|------7--7----7------7--7----7--|
---------------------------|--------------------------------|
---------------------------|--------------------------------|

---------------------|--------------------------------|---------------------|
---------------------|--------------------------------|---------------------|
------9--------------|------9--9----9------9--9----9--|------9--------------|
------7--------------|------7--7----7------7--7----7--|------7--------------|
---------------------|--------------------------------|---------------------|
---------------------|--------------------------------|---------------------|

--------------------------------|---------------------|
--------------------------------|---------------------|
------9--9----9------9--9----9--|------9--------------|
------7--7----7------7--7----7--|------7--------------|
--------------------------------|---------------------|
--------------------------------|---------------------|

--------------------------------|---------------------|-------------------|
--------------------------------|---------------------|-------------------|
------9--9----9------9--9----9--|------9--------------|-------------------|
------7--7----7------7--7----7--|------7--------------|--5----------------|
--------------------------------|---------------------|--5----------------|
--------------------------------|---------------------|--3----------------|

-------------------|------------------|------------------|-------------------||
-------------------|------------------|------------------|-------------------||
--7----------------|------------------|------------------|--2----------------||
--7----------------|------------------|------------------|--2----------------||
--5----------------|------------------|------------------|--0----------------||
-------------------|------------------|------------------|-------------------||

12.ROCKET QUEEN

(intro)    rhythm Guitar plays F chord in intro. Listen to song

E------------------------------------------------------------------------------------|
B------------------------------------------------------------------------------------|
G------------------------------------------------------------------------------------|
D------------------------------------------------------------------------------------|
A-----0-h1-------0-h1-0-h1-----0-h1-----0-h1-0-h1----0-h1-----0-h1-0-h1----0-h1-0----|
E-0-2------0-0-2-----------0-2-----0-0-2---------0-2-----0-0-2----------0-2-------2--|


(verse)

E------------------------------------------------------------------------------------|
B------------------------------------------------------------------------------------|
G-11----16--14----9----11-------4-4-4-4-4-4-4-4-4-4-6666666666666-44444444444--------|
D-11----16--14----9----11-------4-4-4-4-4-4-4-4-4-4-6666666666666-44444444444--------|
A-9---------------7-----9-------2-2-2-2-2-2-2-2-2-2-4444444444444-22222222222--------|
E------------------------------------------------------------------------------------|
                                      Listen to song for strum pattern

(chorus)

E------------------------------------------------------------------------------------|
B------------------------------------------------------------------------------------|
G--------------9---------------------------------------------------------------------|
D--4--2--7--9--9--4----------------------------4-2-----------------------------------|
A--4--2--7--9--7--4----Repeat 2 Times--------------4-2-4-2-0--2-0--------------------|
E--2-----5--7-----2-----------------------------------------------2-0---1------------|

Listen to song for timing


E------------------------------------------------------------------------------------|
B------------------------------------------------------------------------------------|
G------------------------------------------------------------------------------------|
D------------------------------------------------------------------------------------|
A-----0-h1-------0-h1-0-h1-----0-h1-----0-h1-0-h1----0-h1-----0-h1-0-h1----0-h1-0----|
E-0-2------0-0-2-----------0-2-----0-0-2---------0-2-----0-0-2----------0-2-------2--|
                                              Same as intro and back to verse again

(verse)

E------------------------------------------------------------------------------------|
B------------------------------------------------------------------------------------|
G-11----16--14----9----11-------4-4-4-4-4-4-4-4-4-4-6666666666666-44444444444--------|
D-11----16--14----9----11-------4-4-4-4-4-4-4-4-4-4-6666666666666-44444444444--------|
A-9---------------7-----9-------2-2-2-2-2-2-2-2-2-2-4444444444444-22222222222--------|
E------------------------------------------------------------------------------------|
                                      Listen to song for strum pattern


(chorus)

E------------------------------------------------------------------------------------|
B------------------------------------------------------------------------------------|
G--------------9---------------------------------------------------------------------|
D--4--2--7--9--9--4----------------------------4-2-----------------------------------|
A--4--2--7--9--7--4----Repeat 2 Times--------------4-2-4-2-0--2-0--------------------|
E--2-----5--7-----2-----------------------------------------------2-0---1------------|


E------------------------------------------------------------------------------------|
B------------------------------------------------------------------------------------|
G------------------------------------------------------------------------------------|
D------------------------------------------------------------------------------------|
A-----0-h1-------0-h1-0-h1-----0-h1-----0-h1-0-h1----0-h1-----0-h1-0-h1----0-h1-0----|
E-0-2------0-0-2-----------0-2-----0-0-2---------0-2-----0-0-2----------0-2-------2--|


(solo 1)

E----------------------7-/-9----7-/-9-----9----9-/-11----9-/-11----b9-9-9-------------|
B--7~--7-/-10-------7~------10~------10~---10--------12~-------12~--------b9-b9-7-/-9-|
G------------b8-b8--------------------------------------------------------------------|
D-------------------------------------------------------------------------------------|
A-------------------------------------------------------------------------------------|
E-------------------------------------------------------------------------------------|

E--///--18-18---b21--18-20-20--//////-----|
B-----------------------------------------|
G-----------------------------------------|
D-----------------------------------------|
A-----------------------------------------|
E-----------------------------------------|

(chorus)

E------------------------------------------------------------------------------------|
B------------------------------------------------------------------------------------|
G--------------9---------------------------------------------------------------------|
D--4--2--7--9--9--4----------------------------4-2-----------------------------------|
A--4--2--7--9--7--4----Repeat 2 Times--------------4-2-4-2-0--2-0--------------------|
E--2-----5--7-----2-----------------------------------------------2-0---1------------|

(Bridge)

E------------------|-----------------------------------------------------------------|
B------------------|-----------------------------------------------------------------|
G------------------|------9--4--6-----------------------9-----4----------------------|
D--4-4-4-4-4-------|------9--4--6-----------------------9--7--4----------------------|
A--4-4-4-4-4-------|------7--2--4-----------------------7--7--2--2-4-5-6-------------|
E--2-2-2-2-2-------|--0-0----------4-/-7-7-9-7--3-4-0-0----5-------------7-3-2-0-0---|
Use song for amount

E-------------------|
B-------------------| Repeat Twice
G--9--4--6----9---4-|
D--9--4--6----9---4-|
A--7--2--4----7---2-|
E----------b2---b2--|


(verse)  (Clean)

E--------------------------------------4---------------------------|
B--5-5-7--5-4-5-7---5-5---5-5-------5-5---5-4-5-7---5-5---5-5-4-7--|Repeat Twice
G----------------6-----6-----6-4------------------6-----6----------|
D------------------------------------------------------------------|
A------------------------------------------------------------------|
E------------------------------------------------------------------|


E------------------------------------------------------------------|
B------------------------------------------------------------------|
G------9--4--6-----------------------9-----4-----------------------|
D------9--4--6-----------------------9--7--4-----------------------|
A------7--2--4-----------------------7--7--2--2-4-5-6--------------|
E--0-0----------4-/-7-7-9-7--3-4-0-0----5-------------7-3-2-0-0----|


E-------------------|
B-------------------| Repeat Twice
G--9--4--6----9---4-|
D--9--4--6----9---4-|
A--7--2--4----7---2-|
E----------b2---b2--|


(Solo) 2

E-------------------------------------------------------------------------------------|
B------------------------------------------------------------b12-12-------b12-12------|
G-b11--b11--9-h11-b11-----11b-p11-9-11b-11b~---b11-b11-b11-9--------13-11-------b11-9-|
D--------------------11---------------------------------------------------------------|
A-------------------------------------------------------------------------------------|
E-------------------------------------------------------------------------------------|

E-------------------------------------------------------------------------------------|
B-b16-------------------------b19-b19-17-hb19-17-------------------171717-------------|
G-----16-14-------------------------------------18-18-16-181818-16-------16-181818-16-|
D-----------16-14--b12----------------------------------------------------------------|
A----------------------14-------------------------------------------------------------|
E-------------------------------------------------------------------------------------|

E------------------------------------------------------------------------------------|
B-b19-b19-17-hb19-17--------------------------------16-h17-17-16-17-16-13h1413h14----|
G--------------------b18-16-16-18-16---18~----16-18----------------------------------|
D------------------------------------18----------------------------------------------|
A------------------------------------------------------------------------------------|
E------------------------------------------------------------------------------------|

E------------------------------------------------------------------------------------|
B--11h1211h12------------------------------------17-b17-17~--16-17-16---------16-17~-|
G-------------12h1312h13-10h1110h11--------16h18----------------------16---16--------|
D------------------------------------14h16------------------------------16~----------|
A------------------------------------------------------------------------------------|
E------------------------------------------------------------------------------------|

(Outro)

E------------------------------------------------------------------------------------|
B------------------------------------------------------------------------------------|
G-------9--8--6-------9--8----------9--8--6--44----------9 Let ring end song---------|
D-------9--8--6-------9--8--9-------9--8--6--44--7--666--9---------------------------|
A-------7--6--4-------7--6--9-------7--6--4--22--7--666--7---------------------------|
E---0-0-----------0-0-------7---0-0--------------5--444------------------------------|
comments
print report bad tab
40 comments total. Showing first comments.
+2 reply
TheMutts wrote on December 14 2004, 12:00 am

Wow Andrew Zara, I dont know how.. you much have alot of time on your hands because I am UG for atleast a couples hours every day and I noticed you come out with a few new tabs/albums almost every single day. Keep up the good work dude!

-1 reply
bassdrum wrote on December 14 2004, 12:00 am

theres a lot of stuff wrong, like on rocket queen, welcome to the jungle, its so easy theres a lot of stuff wrong

0 reply
f117_nighthawk wrote on December 14 2004, 12:00 am

wow this is really good...

I want to post or [tab]
guest
You may want to rate the tab now too:
select rating
Please do not post tabs as comments. Select "correction" instead!