Oops, an error
Loading. Please wait.

Estranged Tab

ver3
ver3
More versions @911Tabs.com
10,285 views 12 this week
3 commentsread comments
1 2 3 4 5
accurate
x 2
add to favorites launch autoscroll
font size
0
reset
Autoscroll
+/-
esc
set tempo
stop
Contributor
Difficulty
Tuning
advanced
D# G# C# F# A# D#
WARNING: You are trying to view
                                    content from Ultimate-Guitar.com
                                    in an unauthorized application,
                                    which is prohibited.

                                    Please use an official Ultimate
                                    Guitar Tabs application for iPhone,
                                    iPad or Android to access legitimate
                                    chords, guitar, bass, and drum tabs
                                    from Ultimate-Guitar.com database.

                                    Type "ultimate guitar tabs" in Apple
                                    App Store's or Android Market's
                                    search to find the application.
===========================================================
              'Estranged'; by Guns n' Roses
===========================================================
*Email: playing.the.angel_@hotmail.com (Sebastián)


-----------------------------------------------------------
The following tab is an arrengment for what Axl Rose plays 
in piano, and what Duff plays in his bass. 
It's kinda hard to play it in a guitar, I know.
-----------------------------------------------------------


All instruments are tuned half-step down.
Gtr I (Eb Ab Db Gb) - 'Bass' DUFF
Gtr II (Bb Eb Ab Db Gb Bb Eb) - 'Piano' WILLIAM AXL ROSE


  Axl Rose's Piano:
   E  E  E  E  E  E  E  E    E   E  E  E  E  E  S  E.
|--6-10-13-10--6-10-13-10-|--6--10-13-10----10----10--|
|--6-----6--6--6-----6--6-|--6---------------6-----6--|
|--7-----------7----------|--7------------------------|
|-------------------------|--------------15----15-----|
|-10----------------------|---------------------------|
|-------------------------|--------------15----15-----|
|-------------------------|---------------------------|
|
| Duff's Bass:
|  H           H             H.              Q
|-------------------------|---------------------------|
|-------------------------|---------------------------|
|-10----------10----------|-10--------------10S=======|
|-------------------------|---------------------------|


   E  E  E  E  E  E  E  E    E   E  E  E  E  E  Q
|-12----12-12-------12-12-|--------12-12-------12--|
|-13----13-13-------13-13-|--------13-13-------13--|
|-12-12----12----12----12-|-----12----12----12-----|
|-14----------14----------|-14-----------14--------|
|-15----------15----------|-15-----------15--------|
|-------------------------|------------------------|
|-------------------------|------------------------|
|
|  W                        +W
|-------------------------|------------------------|
|-------------------------|------------------------|
|--3----------------------|-(3)--------------------|
|-------------------------|------------------------|


    E  E  E  E E  E  E  E     E   E  E  E  E  E  S  E.
||--6-10-13-10-6-10-13-10-|---6--10-13-10----10----10--|
||--6-----6--6-6-----6--6-|---6---------------6-----6--|
||--7----------7----------|---7------------------------|
||------------------------|---------------15----15-----|
||-10---------------------|----------------------------|
||------------------------|---------------15----15-----|
||------------------------|----------------------------|
|
|   W                        +H.                 Q
||------------------------|----------------------------|
||------------------------|----------------------------|
||-10---------------------|-(10)----------------10S====|
||------------------------|----------------------------|


                           Solo
   E  E  E  E  E  E  E  E    E   E  E  E  E   E  Q
|-12----12-12-------12-12-|--------12-12--------12---|
|-13----13-13-------13-13-|--------13-13--------13---|
|-12-12----12----12----12-|-----12----12-----12------|
|-14----------14----------|-14-----------14----------|
|-15----------15----------|-15-----------15----------|
|-------------------------|--------------------------|
|-------------------------|--------------------------|
|
|  W                        +H           +E      E Q
|-------------------------|------------------------5-|
|-------------------------|--------------------------|
|--3----------------------|-(3)----------(3)-----3---|
|-------------------------|--------------------------|


    E  E  E   E   E  E  E  E   E  E  E   E    E  E  S  E.
||--6-10-13--10---6-10-13-10-|-6-10-13--10------10----10-----|
||--6-----6---6---6-----6--6-|-6-----------------6-----6-----|
||--7-------------7----------|-7-----------------------------|
||---------------------------|---------------15----15--------|
||-10------------------------|-------------------------------|
||---------------------------|---------------15----15--------|
||---------------------------|-------------------------------|
|
|   Q    +E.    S E  Q     E   Q    +E.    S  E  Q         E
||---------------------------|-------------------------------|
||---------------------------|-------------------------------|
||---------------------------|-------------------------------|
||--3----(3)----1-3--3-----1-|-3----(3)----1--3--3---------3-|


   E  E  E   E    E  E  E  E    E  E  E   E    E  E   Q
|-12----12--12---------12-12-|-------12--12----------12---|
|-13----13--13---------13-13-|-------13--13----------13---|
|-12-12-----12------12----12-|----12-----12------12-------|
|-14-------------14----------|-14-------------14----------|
|-15-------------15----------|-15-------------15----------|
|----------------------------|----------------------------|
|----------------------------|----------------------------|
|
|  Q    +E.    S  E  Q     E    Q    +E.    S  E  Q.
|----------------------------|----------------------------|
|----------------------------|----------------------------|
|--3----(3)----3--3--3-------|--3----(3)----3--3--3-------|
|--------------------------3-|----------------------------|


    E  E  E   E   E  E  E  E   E  E  E   E    E  E   S  E.
||--6-10-13--10---6-10-13-10-|-6-10-13--10------10-----10--|
||--6-----6---6---6-----6--6-|-6-----------------6------6--|
||--7-------------7----------|-7---------------------------|
||---------------------------|---------------15-----15-----|
||-10------------------------|-----------------------------|
||---------------------------|---------------15-----15-----|
||---------------------------|-----------------------------|
|
|   Q    +E.    S E  Q     E   Q    +E.    S  E  Q.
||---------------------------|-----------------------------|
||---------------------------|-----------------------------|
||---------------------------|-----------------------------|
||--3----(3)----1-3--3-----1-|-3----(3)----1--3--3---------|


   E  E  E   E    E  E  E  E    E  E  E   E    E  E   Q
|-12----12--12---------12-12-|-------12--12----------12---|
|-13----13--13---------13-13-|-------13--13----------13---|
|-12-12-----12------12----12-|----12-----12------12-------|
|-14-------------14----------|-14-------------14----------|
|-15-------------15----------|-15-------------15----------|
|----------------------------|----------------------------|
|----------------------------|----------------------------|
|
|  Q    +E.    S  E  Q     E    Q    +E.    S  E  Q.
|----------------------------|----------------------------|
|----------------------------|----------------------------|
|--3----(3)----3--3--3-------|--3----(3)----3--3--3-------|
|--------------------------3-|----------------------------|


 Verse
  E E  E  E   E E E  E     E E  E  E   E E  E E
|-6----6------6---6------|-0----0------0----0---|
|-6----6------6---6------|-1----1------1----1---|
|-7----7------7---7------|-0----0------0----0---|
|-8-8-----8-----8----8---|-2-2-----2-----2----2-|
|-1-1-----1-----1----1---|-3-3-----3-----3----3-|
|------------------------|----------------------|
|------------------------|----------------------|
|
| Q   +E.   S E E E.   S   Q   +E.   S E Q.
|------------------------|----------------------|
|------------------------|----------------------|
|-1---(1)-----1-1-1------|-3---(3)---3-3-3------|
|-----------1----------3-|----------------------|


  E E  E  E   E E  S E.     E E  E  E   E E S E.
|-3----3--------3----3----|-3----3--------3---3----|
|-3----3--------3----3----|-3----3--------3---3----|
|-4----4--------4----4----|-4----4--------4---4----|
|-5-5-----5---5----5------|-5-5-----5---5---5------|
|-5-5-----5---5----5------|-5-5-----5---5---5------|
|-3-3-----3---3----3------|-3-3-----3---3---3------|
|-------------------------|------------------------|
|
| Q   +E.   S E Q.          Q   +E.   S E E E    E
|-------------------------|------------------------|
|-------------------------|------------------------|
|-------------------------|------------------------|
|-3---(3)---3-3-3---------|-3---(3)---3-3-3-3----1-|


  E E  E  E   E E E  E     E E  E  E   E E E E
|-6----6------6---6------|-0----0------0---0---|
|-6----6------6---6------|-1----1------1---1---|
|-7----7------7---7------|-0----0------0---0---|
|-8-8-----8-----8----8---|-2-2-----2-----2---2-|
|-1-1-----1-----1----1---|-3-3-----3-----3---3-|
|------------------------|---------------------|
|------------------------|---------------------|
|
| Q   +E.   S E E E.   S   Q   +E.   S E Q S S
|------------------------|---------------------|
|------------------------|-----------------0-3-|
|-1---(1)-----1-1-1------|-3---(3)---3-3-3-----|
|-----------1----------3-|---------------------|


  E E E  E   E E S   E.   E E  E  E   E E S E.
|-3---3--------3-----3--|-3----3--------3---3--|
|-3---3--------3-----3--|-3----3--------3---3--|
|-4---4--------4-----4--|-4----4--------4---4--|
|-5-5----5---5---5------|-5-5-----5---5---5----|
|-5-5----5---5---5------|-5-5-----5---5---5----|
|-3-3----3---3---3------|-3-3-----3---3---3----|
|-----------------------|----------------------|
|
| Q   E.   S E Q   S S    Q   +E.   S E E Q
|-----------------------|----------------------|
|-5---5----5-5-5---3----|----------------------|
|--------------------5--|----------------------|
|-----------------------|-3---(3)---3-3-3-3----|


                                       Solo
  Q     Q   Q   Q     Q   Q   Q   Q     Q  Q  Q   Q       Q  Q  Q  Q
|-------------------|-----------------|-----------------|-------------|
|-3-----3---3---3---|-3---3---3---3---|-3--3--3---3-----|-3--3--3--3--|
|-0-----0---0---0---|-0---0---0---0---|-0--0--0---0-----|-0--0--0--0--|
|-------------------|-----------------|-----------------|-------------|
|-------------------|-----------------|-------6-----6-5-|-3-----6--8--|
|-----6---6---6---6-|---8---8---8---8-|-3---------------|-------------|
|-----4---4---4---4-|---6---6---6---6-|-----------------|-------------|
| E   E E E E E E E   E E E E E E E E   H     Q.    S S   H     Q  Q
|
| H..             E   W                 H     Q.    S S   H     Q  Q
|-------------------|-----------------|-----------------|-------------|
|-------------------|-----------------|-----------------|----------3--|
|-6---------------6-|-8---------------|-------5-----6-5-|-3-----6-----|
|-------------------|-----------------|-3---------------|-------------|


  Q  Q  Q   Q       Q  Q  Q  Q
|-----------------|---------------|
|-3--3--3---3-----|-3--3--3--3----|
|-0--0--0---0-----|-0--0--0--0----|
|-----------------|---------------|
|-------5-----6-5-|-3-----6--8----|
|-3---------------|---------------|
|-----------------|---------------|
| H     Q.    S S   H     Q  Q
|
| H     Q.    S S   H     Q  Q
|-----------------|---------------|
|-----------------|----------3----|
|-------5-----6-5-|-3-----6-------|
|-3---------------|---------------|


  Q    E  S E    S E   S E  S   Q   E E Q     E E
|-----------------------------|---------------------|
|------3----3----3-----3----3-|-----3---3-----3-----|
|------0----0----0-----0----0-|-0---0-0-0-----0-----|
|-----------------------------|---------------------|
|-----------------------------|-6-----6-8-----8-----|
|-3-------3--------3-----3----|---------------------|
|-----------------------------|-4-----4-6-----6-----|
|                               Q.    E Q     Q
|
| E. S E.   S E.     S S E.     Q   E E S E S E S S
|-----------------------------|---------------------|
|-----------------------------|---------3-3-3-3-----|
|-----------------------------|-6---6-5---------5-5-|
|-3--3-3----3-3------3-3-6----|---------------------|


  Q    E  S E    S E   S E  S   Q   E E Q     E E
|-----------------------------|------------------------|
|------3----3----3-----3----3-|-----3---3-----3--------|
|------0----0----0-----0----0-|-0---0-0-0-----0--------|
|-----------------------------|------------------------|
|-----------------------------|-6-----6-8-----8--------|
|-3-------3--------3-----3----|------------------------|
|-----------------------------|-4-----4-6-----6--------|
|                               Q.    E Q     Q
|
| E. S E.   S E.     S S E.     Q   E E S E S E S S
|-----------------------------|------------------------|
|-----------------------------|---------3-3-3-3--------|
|-----------------------------|-6---6-5---------5-5----|
|-3--3-3----3-3------3-3-6----|------------------------|


 Verse
  E  E E E E E E E     E  E E E E E E E
|--------------------|--------------------|
|-3----3---3---3-----|-3----3---3---3-----|
|-0----0---0---0-----|-0----0---0---0-----|
|----5---5---5---5---|----3---3---3---3---|
|--------------------|--------------------|
|--------------------|--------------------|
|--------------------|--------------------|
|
| H.           E S S   H.           E S S
|--------------------|--------------------|
|-5------------------|-3------------------|
|--------------------|----------------3-5-|
|----------------5-6-|--------------------|


  Q   Q   Q   Q          E E E E E E E E
|-------------------|----------------------|
|-3---3---3---3-----|----3---3---3---3-----|
|-0---0---0---0-----|----0---0---0---0-----|
|-------------------|----------------------|
|-6-6-----5-3---6-5-|----------------------|
|-------------------|------3---3---3---3---|
|-------------------|----------------------|
| E E E E E Q   S S
|
| H       E Q   S S   H.           E S S
|-------------------|----------------------|
|-------------------|------------------3---|
|-6-------5-3-------|----------------5-----|
|---------------6-5-|-3--------------------|


  E  E E E E E E E     E  E E E E E E E
|--------------------|--------------------|
|-3----3---3---3-----|-3----3---3---3-----|
|-0----0---0---0-----|-0----0---0---0-----|
|----5---5---5---5---|----3---3---3---3---|
|--------------------|--------------------|
|--------------------|--------------------|
|--------------------|--------------------|
|
| H.           E S S   H.           E S S
|--------------------|--------------------|
|-5------------------|-3------------------|
|--------------------|----------------3-5-|
|----------------5-6-|--------------------|


  Q   Q   Q   Q       E E E E E E E E
|-------------------|-----------------|
|-3---3---3---3-----|-3---3---3---3---|
|-0---0---0---0-----|-0---0---0---0---|
|-------------------|-----------------|
|-6-6-----5-3---6-5-|-----------------|
|-------------------|---3---3---3---3-|
|-------------------|-----------------|
| E E E E E Q   S S
|
| H       E Q   S S   W
|-------------------|-----------------|
|-------------------|-----------------|
|-6-------5-3-------|-----------------|
|---------------6-5-|-3---------------|


 Bridge
  Q  E  S E   S E S E   S   Q  E  S E   S E S E   S
|-------------------------|-------------------------|
|----6----6---6---6-----6-|----8----8---8---8-----8-|
|-------------------------|-------------------------|
|----3----3---3---3-----3-|----5----5---5---5-----5-|
|-------------------------|-------------------------|
|-1-----1-------1---1-----|-3-----3-------3---3-----|
|-------------------------|-------------------------|
|
| Q  E.   S E   Q     E     Q  E.   S E   Q     E
|-------------------------|-------------------------|
|-------------------------|-------------------------|
|-------------------------|-------------------------|
|-1--1----1-1---1-----1---|-3--3----3-3---3-----3---|


  Q  E  S E   S E S E   S   Q  E  S E   S E S E   S
|-------------------------|----------------------------|
|----6----6---6---6-----6-|----8----8---8---8-----8----|
|-------------------------|----------------------------|
|----3----3---3---3-----3-|----5----5---5---5-----5----|
|-------------------------|----------------------------|
|-1-----1-------1---1-----|-3-----3-------3---3--------|
|-------------------------|----------------------------|
|
| Q  E.   S E   Q     E     Q  E.   S E   Q     E
|-------------------------|----------------------------|
|-------------------------|----------------------------|
|-------------------------|----------------------------|
|-1--1----1-1---1-----1---|-3--3----3-3---3-----3------|


  Q  E  S E   S E S E   S   Q  E  S E   S E S E   S
|-------------------------|-------------------------|
|----6----6---6---6-----6-|----8----8---8---8-----8-|
|-------------------------|-------------------------|
|----3----3---3---3-----3-|----5----5---5---5-----5-|
|-------------------------|-------------------------|
|-1-----1-------1---1-----|-3-----3-------3---3-----|
|-------------------------|-------------------------|
|
| Q  E.   S E   Q     E     Q  E.   S E   Q     E
|-------------------------|-------------------------|
|-------------------------|-------------------------|
|-------------------------|-------------------------|
|-1--1----1-1---1-----1---|-3--3----3-3---3-----3---|


  Q  E S E   S E S E   S   Q       E   S  E       S E  S E    S
|------------------------|-----------------------------------------|
|------------------------|-----------------------------------------|
|----8---8---8---8-----8-|--------10-----10------10---10-----10----|
|------------------------|-----------------------------------------|
|----6---6---6---6-----6-|---------8------8-------8----8------8----|
|------------------------|-----------------------------------------|
|-4----4-------4---4---3-|-6-----------6------------6----6---------|
|
| Q  Q     Q     E   E     E.  S  +E   E     +Q        E   E
|------------------------|------------10----(10)------10---7-------|
|------------------------|----10-(10)------------------------------|
|-6--6-----6-----6---5---|-8---------------------------------------|
|------------------------|-----------------------------------------|


 Solo
  Q    Q  Q    Q       Q    Q     Q      Q
|--------------------|--------------------------|
|-3----3--3----3-----|-3----3-----3------3------|
|-0----0--0----0-----|-0----0-----0------0------|
|--------------------|--------------------------|
|---------6------6-5-|-3----------6------8------|
|-3------------------|--------------------------|
|--------------------|--------------------------|
| H       Q.     S S   H          Q      Q
|
| E. S Q  E  E E S S   E. S E S S S E S +S  S E
|--------------------|----5---------------------|
|----5---------------|------------------------3-|
|---------5--5-5-6-5-|-3----3-3-5-6-6-6-(6)-6---|
|-3----3-------------|--------------------------|


  Q    Q  Q    Q       Q    Q     Q      Q
|--------------------|--------------------------|
|-3----3--3----3-----|-3----3-----3------3------|
|-0----0--0----0-----|-0----0-----0------0------|
|--------------------|--------------------------|
|---------6------6-5-|-3----------6------8------|
|-3------------------|--------------------------|
|--------------------|--------------------------|
| H       Q.     S S   H          Q      Q
|
| E. S Q  E  E E S S   E. S E S S S E S +S  S E
|--------------------|----5---------------------|
|----5---------------|------------------------3-|
|---------5--5-5-6-5-|-3----3-3-5-6-6-6-(6)-6---|
|-3----3-------------|--------------------------|


  Q    E  S E    S E   S E  S   Q  E E Q     E E
|-----------------------------|--------------------|
|------3----3----3-----3----3-|----3---3-----3-----|
|------0----0----0-----0----0-|-0--0-0-0-----0-----|
|-----------------------------|--------------------|
|-----------------------------|-6----6-8-------8---|
|-3-------3--------3-----3----|--------------------|
|-----------------------------|-4----4-6-------6---|
|
| E. S E.   S E.     S S E.     Q  E E S E S E S S
|-----------------------------|--------------------|
|-----------------------------|--------3-3-3-3-----|
|-----------------------------|-6--6-5---------5-5-|
|-3--3-3----3-3------3-3-6----|--------------------|


  Q    E  S E    S E   S E  S   Q  E E Q     E E
|-----------------------------|-----------------------|
|------3----3----3-----3----3-|----3---3-----3--------|
|------0----0----0-----0----0-|-0--0-0-0-----0--------|
|-----------------------------|-----------------------|
|-----------------------------|-6----6-8-------8------|
|-3-------3--------3-----3----|-----------------------|
|-----------------------------|-4----4-6-------6------|
|
| E. S E.   S E.     S S E.     Q  E E S E S E S S
|-----------------------------|-----------------------|
|-----------------------------|--------3-3-3-3--------|
|-----------------------------|-6--6-5---------5-5----|
|-3--3-3----3-3------3-3-6----|-----------------------|


 Verse
  E  E E E E E E E     E  E E E E E E E
|--------------------|--------------------|
|-3----3---3---3-----|-3----3---3---3-----|
|-0----0---0---0-----|-0----0---0---0-----|
|----5---5---5---5---|----3---3---3---3---|
|--------------------|--------------------|
|--------------------|--------------------|
|--------------------|--------------------|
|
| H.           E S S   H.           E S S
|--------------------|--------------------|
|-5------------------|-3------------------|
|--------------------|----------------3-5-|
|----------------5-6-|--------------------|


  Q   Q  Q   Q          E E E E E E E E
|------------------|----------------------|
|-3---3--3---3-----|----3---3---3---3-----|
|-0---0--0---0-----|----0---0---0---0-----|
|------------------|----------------------|
|-6-6----5-3---6-5-|----------------------|
|------------------|------3---3---3---3---|
|------------------|----------------------|
| E E Q  E Q   S S
|
| H      E Q   S S   H.           E S S
|------------------|----------------------|
|------------------|------------------3---|
|-6------5-3-------|----------------5-----|
|--------------6-5-|-3--------------------|


  E  E E E E E E E     E  E E E E E E E     Q   Q  Q   Q       E E E E E E E E
|--------------------|--------------------|------------------|-----------------|
|-3----3---3---3-----|-3----3---3---3-----|-3---3--3---3-----|-3---3---3---3---|
|-0----0---0---0-----|-0----0---0---0-----|-0---0--0---0-----|-0---0---0---0---|
|----5---5---5---5---|----3---3---3---3---|------------------|-----------------|
|--------------------|--------------------|-6-6----5-3---6-5-|-----------------|
|--------------------|--------------------|------------------|---3---3---3---3-|
|--------------------|--------------------|------------------|-----------------|
|                                           E E Q  E Q   S S
|
| H.           E S S   H.           E S S   H      E Q   S S   W
|--------------------|--------------------|------------------|-----------------|
|-5------------------|-3------------------|------------------|-----------------|
|--------------------|----------------3-5-|-6------5-3-------|-----------------|
|----------------5-6-|--------------------|--------------6-5-|-3---------------|


   E  E  E  E E  E  E  E    E   E  E  E  E  E  S  E.
|--6-10-13-10-6-10-13-10-|--6--10-13-10----10----10--|
|--6-----6--6-6-----6--6-|--6---------------6-----6--|
|--7----------7----------|--7------------------------|
|------------------------|--------------15----15-----|
|-10---------------------|---------------------------|
|------------------------|--------------15----15-----|
|------------------------|---------------------------|
|
|  W                       +W
|------------------------|---------------------------|
|------------------------|---------------------------|
|------------------------|---------------------------|
|--3---------------------|-(3)-----------------------|


   E  E  E  E  E  E  E  E    E   E  E  E  E  E  E  E
|-12----12-12-------12-12-|--------12-12-------12-12--|
|-13----13-13-------13-13-|--------13-13-------13-13--|
|-12-12----12----12----12-|-----12----12----12----12--|
|-14----------14----------|-14-----------14-----------|
|-15----------15----------|-15-----------15-----------|
|-------------------------|---------------------------|
|-------------------------|---------------------------|
|
|  W                        +W
|-------------------------|---------------------------|
|-------------------------|---------------------------|
|--3----------------------|-(3)-----------------------|
|-------------------------|---------------------------|


 Solo
   E  E  E   E   E  E  E  E
|--6-10-13--10---6-10-13-10-|
|--6-----6---6---6-----6--6-|
|--7-------------7----------|
|---------------------------|
|-10------------------------|
|---------------------------|
|---------------------------|
|
|  Q     E.    S E  Q     E
|---------------------------|
|---------------------------|
|---------------------------|
|--3-----3-----1-3--3-----1-|


  E  E  E   E    E  E  S  E.        E  E  E   E    E  E  E  E
|-6-10-13--10------10----10------|-12----12--12---------12-12-|
|-6-----------------6-----6------|-13----13--13---------13-13-|
|-7------------------------------|-12-12-----12------12----12-|
|---------------15----15---------|-14-------------14----------|
|--------------------------------|-15-------------15----------|
|---------------15----15---------|----------------------------|
|--------------------------------|----------------------------|
|
| Q     E.    S  E  Q        S S    Q     E.    S  E  Q     E
|--------------------------------|----------------------------|
|--------------------------------|----------------------------|
|----------------------------0-2-|--3-----3-----3--3--3-------|
|-3-----3-----1--3--3------------|--------------------------3-|


 Verse
   E  E  E   E    E  E  E  E    E E E  E   E E E  E
|-12----12--12---------12-12-||-6---6------6---6------|
|-13----13--13---------13-13-||-6---6------6---6------|
|-12-12-----12------12----12-||-7---7------7---7------|
|-14-------------14----------||-8-8----8-----8----8---|
|-15-------------15----------||-1-1----1-----1----1---|
|----------------------------||-----------------------|
|----------------------------||-----------------------|
|
|  Q     E.    S  E  Q     E    Q   E.   S E E E.   S
|----------------------------||-----------------------|
|----------------------------||-----------------------|
|--3-----3-----3--3--3-------||-1---1------1-1-1------|
|--------------------------3-||----------1----------3-|


  E E E  E   E E E E   E E E  E   E E E E
|-0---0------0---0---|-3---3------3---3-----|
|-1---1------1---1---|-3---3------3---3-----|
|-0---0------0---0---|-4---4------4---4-----|
|-2-2----2-----2---2-|-5-5----5-----5---5---|
|-3-3----3-----3---3-|-5-5----5-----5---5---|
|--------------------|-3--------------------|
|--------------------|----------------------|
|
| Q   E.   S E E E E   Q   E.   S E E E S S
|-----5--------------|----------------------|
|--------------------|----------------------|
|-3--------3-3-------|----------------------|
|--------------0-1-2-|-3---3----3-3-3-3-1-2-|


  E E E  E   E E E E   E E E  E   E E E  E
|-3---3------3---3---|-6---6------6---6------|
|-3---3------3---3---|-6---6------6---6------|
|-4---4------4---4---|-7---7------7---7------|
|-5-5----5-----5---5-|-8-8----8-----8----8---|
|-5-5----5-----5---5-|-1-1----1-----1----1---|
|-3------------------|-----------------------|
|--------------------|-----------------------|
|
| Q   E.   S E E E E   Q   E.   S E E E.   S
|--------------------|-----------------------|
|--------------------|-----------------------|
|--------------------|-1---1------1-1-1------|
|-3---3----3-3-3-3-1-|----------1----------3-|


  E E E  E   E E E E   E E E  E   E E E E
|-0---0------0---0---|-3---3------3---3-----|
|-1---1------1---1---|-3---3------3---3-----|
|-0---0------0---0---|-4---4------4---4-----|
|-2-2----2-----2---2-|-5-5----5-----5---5---|
|-3-3----3-----3---3-|-5-5----5-----5---5---|
|--------------------|-3--------------------|
|--------------------|----------------------|
|
| Q   E.   S E E E E   Q   E.   S E E E S S
|-----5--------------|----------------------|
|--------------------|----------------------|
|-3--------3-3-------|----------------------|
|--------------0-1-2-|-3---3----3-3-3-3-1-2-|


 Piano Solo
  E E E E E E E E   E E E E E E E E    E  E E E E E E E
|-3---3---3---3---|-0---0---0---0---|--0----0---0---0---||
|-3---3---3---3---|-1---1---1---1---|--1----1---1---1---||
|-4---4---4---4---|-0---0---0---0---|--0----0---0---0---||
|-5-5---5---5---5-|-2-2---2---2---2-|--2--2---2---2---2-||
|-5-5---5---5---5-|-3-3---3---3---3-|--3--3---3---3---3-||
|-3---------------|-----------------|-------------------||
|-----------------|-----------------|-------------------||
|
| W                 W                 +W
|-----------------|-----------------|-------------------||
|-----------------|-----------------|-------------------||
|-----------------|-3---------------|-(3)---------------||
|-3---------------|-----------------|-------------------||


      W                         W
|-12-18-20-20-20-------|-15-18-20-18-15-13-----|
|----------20-20-------|-----------------------|
|----------------------|-----------------------|
|----------------------|-----------------------|
|-----3----------------|-----------------------|
|----------------------|--------6--------------|
|-----1----------------|--------4--------------|
|  a  S  S  E  H.         a  a  S  S  E  H.
|
|     W                         W
|----------------------|-----------------------|
|----------------------|-----------------------|
|-----3----------------|--------6--------------|
|----------------------|-----------------------|


        |
        W
|-8-11-13-14-13-11-8--3-6-11-8--3-6-11-8--|
|-----------------------------------------|
|-----------------------------------------|
|-----------------------------------------|
|-------3---------------------------------|
|-----------------------------------------|
|-------1---------------------------------|
| a  a  S  S  S  S Q  a a  S E. a a  S E.
| |                   |1:1-|    |1:1-|
|
|       W
|-----------------------------------------|
|-----------------------------------------|
|-------3---------------------------------|
|-----------------------------------------|


       |
       W                                  E E E E E E S E.   E E E E E E E E
|-3-6-11-8-6----------------------------|-0---0-----0---0--|-8---6---5---6-----|
|------------8-6------------------------|-1---1-----1---1--|-------------------|
|-----------------5-8-10--11-10-8-5-8---|-0---0-----0---0--|-5-3-5-3-5-3-5-3---|
|---------------------------------------|-2-2---2-2---2----|-8-----------------|
|---------------------------------------|-3-3---3-3---3----|-6-6---6---6---6---|
|------6--------------------------------|------------------|-------------------|
|------4--------------------------------|------------------|-------------------|
| a a  S S S S Q  a a  S   S  S S E E
| |1:1-|          |1:1-|
|
|      H              +E      S S E S S   W                  W
|---------------------------------------|------------------|-------------------|
|---------------------------------------|------------------|-------------------|
|------6--------------(6)-----6-8-6-----|------------------|-6-----------------|
|-----------------------------------6-7-|-8----------------|-------------------|


 Interlude
    E E E E E E S E.   E E E E  E  E   E E
|-^10---0-----0---0--|-8---6----5------6-----|
|-^-1---1-----1---1--|-----------------------|
|-^-0---0-----0---0--|-5-3-5-3--5--3---5-3---|
|-----2---2-2---2----|-8---------------------|
|-----3---3-3---3----|-6-6---6-----6-----6---|
|--------------------|-----------------------|
|--------------------|-----------------------|
|
|   W                  H       +E  S S E S S
|--------------------|-----------------------|
|--------------------|-----------------------|
|--------------------|-6-------(6)-6-8-6-----|
|---8----------------|-------------------6-7-|


    E E E E E E S E.   E E E E E E E E
|-^10---0-----0---0--|-8---6---5---6----|
|-^-1---1-----1---1--|------------------|
|-^-0---0-----0---0--|-5-3-5-3-5-3-5-3--|
|-----2---2-2---2----|-8----------------|
|-----3---3-3---3----|-6-6---6---6---6--|
|--------------------|------------------|
|--------------------|------------------|
|
|   W                  W
|--------------------|------------------|
|--------------------|------------------|
|--------------------|-6----------------|
|---8----------------|------------------|


  E E E E E E S E.     E E E E E E S E.
|-6---6-----6---6----|-6---6-----6---6----|
|-6---6-----6---6----|-6---6-----6---6----|
|-7---7-----7---7----|-7---7-----7---7----|
|-8-8---8-8---8------|-8-8---8-8---8------|
|-1-1---1-1---1------|-1-1---1-1---1------|
|--------------------|--------------------|
|--------------------|--------------------|
|
| E E E E E E E    E   E E E E E E E    E
|--------------------|--------------------|
|-8------------------|-8-8-8-8-8-8-8----8-|
|---6-6-6-6-6-6----6-|--------------------|
|--------------------|--------------------|


  E E E E E E  S  E.   E E E E E E  S  E.
|-1---1-----1-----1--|-0---0-----0-----0---|
|-1---1-----1-----1--|-1---1-----1-----1---|
|-2---2-----2-----2--|-0---0-----0-----0---|
|-3-3---3-3----3-----|-2-2---2-2----2------|
|-3-3---3-3----3-----|-3-3---3-3----3------|
|-1-1---1-1----1-----|---------------------|
|--------------------|---------------------|
|
| Q   Q   E E +S  E.   Q   Q   E E +S  E.
|--------------------|---------------------|
|--------------------|---------------------|
|--------------------|-3---3---3-3-(3)-3---|
|-1---1---1-1-(1)-1--|---------------------|


  E E E E E E  S  E.    E E E E E E E E    E E E E E E S E.   E E E E E E E E
|-3---3-----3-----3--||-----------------|-10---0-----0---0--|------------------|
|-3---3-----3-----3--||-8---6---5---6---|--1---1-----1---1--|-8---6---5---6----|
|-4---4-----4-----4--||-5---5---5---5---|--0---0-----0---0--|-5---5---5---5----|
|-5------------------||-3-3---3---3---3-|--2-2---2-2---2----|-3-3---3---3---3--|
|-5------------------||-1-1---1---1---1-|--3-3---3-3---3----|-1-1---1---1---1--|
|-3-3---3-3----3-----||-----------------|-------------------|------------------|
|--------------------||-----------------|-------------------|------------------|
|
| Q   Q   E E +S  E.    W                  W                  W
|--------------------||-----------------|-------------------|------------------|
|--------------------||-----------------|-------------------|------------------|
|--------------------||-1---------------|--3----------------|-1----------------|
|-3---3---3-3-(3)-3--||-----------------|-------------------|------------------|


   E E E E E E S E.   E  E E E E E E  E
|-10---0-----0---0--|-------------------||
|--1---1-----1---1--|-8----6---5---6----||
|--0---0-----0---0--|-5----5---5---5----||
|--2-2---2-2---2----|-3--3---3---3----3-||
|--3-3---3-3---3----|-1--1---1---1----1-||
|-------------------|-------------------||
|-------------------|-------------------||
|
|  W                  H.           Q
|-------------------|-------------------||
|-------------------|-------------------||
|--3----------------|-1------------8\---||
|-------------------|-------------------||


  E E E E E E  S  E.   E E E E E E  S  E.
|--------------------|-------------------------|
|-1---1-----1-----1--|-3---3-----3-----3-------|
|-2---2-----2-----2--|-0---0-----0-----0-------|
|-3-3---3-3----3-----|-3-3---3-3----3----------|
|-3-3---3-3----3-----|-3-3---3-3----3----------|
|-1-1---1-1----1-----|-1-1---1-1----1----------|
|--------------------|-------------------------|
|
| Q   Q   E E +S  E.   Q   Q   E E +S  S  S S
|--------------------|-------------------------|
|--------------------|-3------------------1-2--|
|--------------------|-------------------------|
|-1---1---1-1-(1)-1--|-----1---1-1-(1)-1-------|


  E E E E  E  E S E.   E E E E E E S E.
|--------------------|----------------------|
|-3---3-------3---3--|-1---1-----1---1------|
|-3---3-------3---3--|-2---2-----2---2------|
|-3-3---3--3----3----|-3-3---3-3---3--------|
|-3-3---3--3----3----|-3-3---3-3---3--------|
|-1-1---1--1----1----|-1-1---1-1---1--------|
|--------------------|----------------------|
|
| Q   E E +E  E S E.   E E E E E E S S  S S
|--------------------|----------------------|
|-3------------------|-3-3-3-3-3-3-3-2--0---|
|--------------------|--------------------3-|
|-----1-1-(1)-1-1-1--|----------------------|


  E E E E  E  E S E.    E  E E  E   E   E   S   E.
|-0---0-------0---0--|--3----3----------3-------3---|
|-1---1-------1---1--|--3----3----------3-------3---|
|-0---0-------0---0--|--4----4----------4-------4---|
|-2-2---2--2----2----|--5---------------------------|
|-3-3---3--3----3----|--5--5----5---5-------5-------|
|--------------------|--3--3----3---3-------3-------|
|--------------------|------------------------------|
|
| Q   E E +E  E S E.    Q.      E   E   E  +S   E.
|--------------------|------------------------------|
|--------------------|-(5)-----(5)-(5)-(5)-----(5)--|
|-3---3-3-(3)-3-3-3--|------------------------------|
|--------------------|--3-------3---3---3--(3)--3---|


   E  E  E   E   E   E   S  E.        E   E   E   E   E   E   S  E.
|--1-----1-----------1------1------|--1-------1-----------1------1------|
|--1-----1-----------1------1------|--1-------1-----------1------1------|
|--2-----2-----------2------2------|--2-------2-----------2------2------|
|--3--3------3---3-------3---------|--3---3-------3---3-------3---------|
|--3--3------3---3-------3---------|--3---3-------3---3-------3---------|
|--1--1------1---1-------1---------|--1---1-------1---1-------1---------|
|----------------------------------|------------------------------------|
|
|  Q     E   E   E   E   E      E     E   E   E   E   E   E   E      E
|----------------------------------|------------------------------------|
|-(3)---(3)-(3)-(3)-(3)-(3)----(3)-|-(3)-(3)-(3)-(3)-(3)-(3)-(3)----(3)-|
|----------------------------------|------------------------------------|
|--1-----1---1---1---1---1------1--|--1---1---1---1---1---1---1------1--|


  E E E E E E S E.   S S E Q.    S S S E.
|-0---0-----0---0--|------------------------|
|-1---1-----1---1--|------------------------|
|-0---0-----0---0--|-----7-7-----7----------|
|-2-2---2-2---2----|-5-7-----------7-5-3----|
|-3-3---3-3---3----|------------------------|
|------------------|-3-----3---3-----3------|
|------------------|------------------------|
|                    Q     Q   Q     Q
|
| W                  Q     Q   E E   Q
|------------------|------------------------|
|------------------|-------5----------------|
|-3----------------|------------------------|
|------------------|-3---------3-3---3------|


  S S E Q  E E S E.   E E E E E E S E.
|------------1---1--|-1---1-----1---1------|
|------------1---1--|-1---1-----1---1------|
|---2-5-5----2---2--|-2---2-----2---2------|
|-3---3-3--3---3----|-3-3---3-3---3--------|
|-------3--3---3----|-3-3---3-3---3--------|
|-1-----1--1---1----|-1-1---1-1---1--------|
|-------------------|----------------------|
| Q     Q  Q   Q
|
| H        E E S E.   E E E E E E S S  S S
|-------------------|----------------------|
|------------3---3--|-3-3-3-3-3-3-5-3------|
|-------------------|------------------3-0-|
|-1--------1--------|----------------------|


  E E E E E E E E    E  E E E E E E E
|-0---0---0---0---|--0----0---0---0---|
|-1---1---1---1---|--1----1---1---1---|
|-0---0---0---0---|--0----0---0---0---|
|-2-2---2---2---2-|--2--2---2---2---2-|
|-3-3---3---3---3-|--3--3---3---3---3-|
|-----------------|-------------------|
|-----------------|-------------------|
|
| W                 +W
|-----------------|-------------------|
|-----------------|-------------------|
|-3---------------|-(3)---------------|
|-----------------|-------------------|


 Verse
 4/4
  H.      Q     E E E E E E  S  E.   E E E E E E  S  E.   E E E E E E S E.
|-0-------0--||-3---3-----3-----3--|-1---1-----1-----1--|-0---0-----0---0--|
|-1-------1--||-3---3-----3-----3--|-1---1-----1-----1--|-1---1-----1---1--|
|-0-------0--||-4---4-----4-----4--|-2---2-----2-----2--|-0---0-----0---0--|
|-2-------2--||-5------------------|-3-3---3-3----3-----|-2-2---2-2---2----|
|-3-------3--||-5-5---5-5----5-----|-3-3---3-3----3-----|-3-3---3-3---3----|
|------------||-3-3---3-3----3-----|-1-1---1-1----1-----|------------------|
|------------||--------------------|--------------------|------------------|
|
| W             Q   E E E E +S  E.   Q   E E E E +S  E.   H       E E S E.
|------------||--------------------|--------------------|------------------|
|------------||-----5--------------|-----3--------------|------------------|
|------------||--------------------|--------------------|-3-------3-3-3-3--|
|------------||-3-----3-3-3-(3)-3--|-1-----1-1-1-(1)-1--|------------------|


  E E E E E E S E.   E E E E E E S E.   E E E E E E S E.   E E E E E E E E
|-3---3-----3---3--|-1---1-----1---1--|-0---0-----0---0--|-3---3---1---1----|
|-3---3-----3---3--|-1---1-----1---1--|-1---1-----1---1--|-3---3---1---1----|
|-4---4-----4---4--|-2---2-----2---2--|-0---0-----0---0--|-4---4---2---2----|
|-5----------------|-3-3---3-3---3----|-2-2---2-2---2----|-5-------3-----3--|
|-5-5---5-5---5----|-3-3---3-3---3----|-3-3---3-3---3----|-5-5---5-3-3---3--|
|-3-3---3-3---3----|-1-1---1-1---1----|------------------|-3-3---3-1-1---1--|
|------------------|------------------|------------------|------------------|
|
| H       E E S E.   H       E E S E.   H       E E S E.   Q   E E Q   E E
|------------------|------------------|------------------|------------------|
|------------------|------------------|------------------|------------------|
|------------------|------------------|-3-------3-3---3--|------------------|
|-3-------3-3---3--|-1-------1-1---1--|------------------|-3---3-5-1---1-1--|


  E E E E E   E S E.   E E E E E E  S  E.
|-0---0-------0---0--|-3---3-----3-----3--|
|-1---1-------1---1--|-3---3-----3-----3--|
|-0---0-------0---0--|-4---4-----4-----4--|
|-2-2---2-2-----2----|-5------------------|
|-3-3---3-3-----3----|-5-5---5-5----5-----|
|--------------------|-3-3---3-3----3-----|
|--------------------|--------------------|
|
| Q   Q   S S E S E.   Q   E E E E +S  E.
|---------7s9--------|--------------------|
|-------------5---7--|-----5--------------|
|-3---3--------------|--------------------|
|--------------------|-3-----3-3-3-(3)-3--|


  E E E E E E  S  E.   E E E E E E  S  E.
|-1---1-----1-----1--|-0---0-----0-----0--|
|-1---1-----1-----1--|-1---1-----1-----1--|
|-2---2-----2-----2--|-0---0-----0-----0--|
|-3-3---3-3----3-----|-2-2---2-2----2-----|
|-3-3---3-3----3-----|-3-3---3-3----3-----|
|-1-1---1-1----1-----|--------------------|
|--------------------|--------------------|
|
| Q   E E E E +S  E.   H       E E +S  E.
|--------------------|--------------------|
|-----3--------------|--------------------|
|--------------------|-3-------3-3-(3)-3--|
|-1-----1-1-1-(1)-1--|--------------------|


  E E E E E E S E.   E E E E E E S E.   E E E E E E S E.   E E E E E E E E
|-3---3-----3---3--|-1---1-----1---1--|-0---0-----0---0--|-3---3---1---1-----|
|-3---3-----3---3--|-1---1-----1---1--|-1---1-----1---1--|-3---3---1---1-----|
|-4---4-----4---4--|-2---2-----2---2--|-0---0-----0---0--|-4---4---2---2-----|
|-5----------------|-3-3---3-3---3----|-2-2---2-2---2----|-5-------3-----3---|
|-5-5---5-5---5----|-3-3---3-3---3----|-3-3---3-3---3----|-5-5---5-3-3---3---|
|-3-3---3-3---3----|-1-1---1-1---1----|------------------|-3-3---3-1-1---1---|
|------------------|------------------|------------------|-------------------|
|
| H       E E S E.   H       E E S E.   H       E E S E.   Q   Q   Q   E S S
|------------------|------------------|------------------|-------------------|
|------------------|------------------|------------------|-------------------|
|------------------|------------------|-3-------3-3---3--|---------------0-2-|
|-3-------3-3---3--|-1-------1-1---1--|------------------|-3---3---1---1-----|


 Solo
   E  E  E  E  E   E  S  E.    E  E  E  E  E   E   S   E.
|--0-----0---------0-----0--|-----------------------------|
|--1-----1---------1-----1--|--5-----5---------5-------5--|
|--0-----0---------0-----0--|--6-----6---------6-------6--|
|--2--2-----2--2------2-----|--7--------------------------|
|--3--3-----3--3------3-----|--7--7-----7--7-------7------|
|---------------------------|--5--5-----5--5-------5------|
|---------------------------|-----------------------------|
|
|  Q     Q     E   E  S  E.    Q     Q     E   E  +S   E.
|-(5)---(5)---(5)-(5)---(5)-|-----------------------------|
|---------------------------|-(7)---(7)---(7)-(7)-----(7)-|
|--3-----3-----3---3-----3--|-----------------------------|
|---------------------------|--5-----5-----5---5--(5)--5--|


   E  E  E  E  E   E   S   E.   E E E E E E S E.
|--3-----3---------3-------3--|-1---1-----1---1----|
|--3-----3---------3-------3--|-1---1-----1---1----|
|--4-----4---------4-------4--|-2---2-----2---2----|
|--5--------------------------|-3-3---3-3---3------|
|--5--5-----5--5-------5------|-3-3---3-3---3------|
|--3--3-----3--3-------3------|-1-1---1-1---1------|
|-----------------------------|--------------------|
|
|  Q     Q     E   E  +S   E.   E E E E E E E    E
|-----------------------------|--------------------|
|-(5)---(5)---(5)-(5)-----(5)-|-----3-3-----3----3-|
|-----------------------------|--------------------|
|--3-----3-----3---3--(3)--3--|-1-1-----1-1--------|


  E E E E E   E    S  E.        E  E  E  E  E   E  S  E.
|-1---1-------1-------1------|--0-----0---------0-----0--|
|-1---1-------1-------1------|--1-----1---------1-----1--|
|-2---2-------2-------2------|--0-----0---------0-----0--|
|-3-3---3-3--------3---------|--2--2-----2--2------2-----|
|-3-3---3-3--------3---------|--3--3-----3--3------3-----|
|-1-1---1-1--------1---------|---------------------------|
|----------------------------|---------------------------|
|
| E E E E S S S S +S  S  S S    Q     Q     E   E  S  E.
|----------------------------|-(5)---(5)---(5)-(5)---(5)-|
|-3-3-3-3-3-1---3-(3)-1------|---------------------------|
|-------------3----------3-1-|--3-----3-----3---3-----3--|
|----------------------------|---------------------------|


   E  E  E  E  E   E   S   E.
|--3-----3---------3-------3--|
|--3-----3---------3-------3--|
|--4-----4---------4-------4--|
|--5--------------------------|
|--5--5-----5--5-------5------|
|--3--3-----3--3-------3------|
|-----------------------------|
|
|  Q     Q     E   E  +S   E.
|-----------------------------|
|-(5)---(5)---(5)-(5)-----(5)-|
|-----------------------------|
|--3-----3-----3---3--(3)--3--|


  E E E E E E S E.       E E E E E   E    S  E.       E E E E E E E E
|-1---1-----1---1------|-1---1-------1-------1------|-0---0---0---0----|
|-1---1-----1---1------|-1---1-------1-------1------|-1---1---1---1----|
|-2---2-----2---2------|-2---2-------2-------2------|-0---0---0---0----|
|-3-3---3-3---3--------|-3-3---3-3--------3---------|-2-2---2---2---2--|
|-3-3---3-3---3--------|-3-3---3-3--------3---------|-3-3---3---3---3--|
|-1-1---1-1---1--------|-1-1---1-1--------1---------|------------------|
|----------------------|----------------------------|------------------|
|
| E E E E E E E    S S   E E E E S S S S +S  S  S S   W
|----------------------|----------------------------|------------------|
|-----3------------1-2-|-3-3-3-3-3-1---3-(3)-1------|------------------|
|----------------------|-------------3----------3-1-|-3----------------|
|-1-1---1-1-1-1--------|----------------------------|------------------|


                                   Verse
   E  E E E E E E E    W            E E E E E E  S  E.   E E E E E E  S  E.
|--0----0---0---0---|--0---------||-3---3-----3-----3--|-1---1-----1-----1---|
|--1----1---1---1---|--1---------||-3---3-----3-----3--|-1---1-----1-----1---|
|--0----0---0---0---|--0---------||-4---4-----4-----4--|-2---2-----2-----2---|
|--2--2---2---2---2-|--2---------||-5------------------|-3-3---3-3----3------|
|--3--3---3---3---3-|--3---------||-5-5---5-5----5-----|-3-3---3-3----3------|
|-------------------|------------||-3-3---3-3----3-----|-1-1---1-1----1------|
|-------------------|------------||--------------------|---------------------|
|
| +W                  +W            Q   E E E E +S  E.   Q   E E E E +S  E.
|-------------------|------------||--------------------|---------------------|
|-------------------|------------||-----5--------------|-----3---------------|
|-(3)---------------|-(3)--------||--------------------|---------------------|
|-------------------|------------||-3-----3-3-3-(3)-3--|-1-----1-1-1-(1)-1---|


  E E E E E E  S  E.   E E E E E E S E.
|-0---0-----0-----0--|-3---3-----3---3--|
|-1---1-----1-----1--|-3---3-----3---3--|
|-0---0-----0-----0--|-4---4-----4---4--|
|-2-2---2-2----2-----|-5----------------|
|-3-3---3-3----3-----|-5-5---5-5---5----|
|--------------------|-3-3---3-3---3----|
|--------------------|------------------|
|
| H       E E +S  E.   H       E E S E.
|--------------------|------------------|
|--------------------|------------------|
|-3-------3-3-(3)-3--|------------------|
|--------------------|-3-------3-3---3--|


  E E E E E E S E.   E E E E E E  S  E.
|-1---1-----1---1--|-0---0-----0-----0---|
|-1---1-----1---1--|-1---1-----1-----1---|
|-2---2-----2---2--|-0---0-----0-----0---|
|-3-3---3-3---3----|-2-2---2-2----2------|
|-3-3---3-3---3----|-3-3---3-3----3------|
|-1-1---1-1---1----|---------------------|
|------------------|---------------------|
|
| H       E E S E.   H       E E +S  E.
|------------------|---------------------|
|------------------|---------------------|
|------------------|-3-------3-3-(3)-3---|
|-1-------1-1---1--|---------------------|


 Chorus
  E E E E E E E E    E.  E    S   E E. E    S  E
|-3---3---1---1---||-----8----8---8----8----8--8-|
|-3---3---1---1---||----10---10--10----8----8--8-|
|-4---4---2---2---||-----------------------------|
|-5-------3-----3-||-7-------(7)----5------(5)---|
|-5-5---5-3-3---3-||-----------------------------|
|-3-3---3-1-1---1-||-5-------(5)----3------(3)---|
|-----------------||-----------------------------|
|
| Q   E E Q   E E    Q     Q        Q    Q
|-----------------||-----------------------------|
|-----------------||-------7-------------5-------|
|-----------------||-----------------------------|
|-3---3-5-1---1-1-||-5--------------3------------|


  E. E   S E E. S S E.   E.  E    S   E E. E    S  E
|----8---8-8----8------|-----8----8---8----8----8--8--|
|----6---6-6----6------|----10---10--10----8----8--8--|
|----------------------|------------------------------|
|-3----------3----3-5--|-7-------(7)----5------(5)----|
|----------------------|------------------------------|
|-1----------1----1-3--|-5-------(5)----3------(3)----|
|----------------------|------------------------------|
|
| Q    Q     E. S S E.   Q     Q        Q    Q
|----------------------|------------------------------|
|------3---------------|-------7-------------5--------|
|----------------------|------------------------------|
|-1----------1--1-1-3--|-5--------------3-------------|


  E. E   S E E. S S E.   E.  E    S   E E. E    S  E
|----8---8-8----8------|-----8----8---8----8----8--8-|
|----6---6-6----6------|----10---10--10----8----8--8-|
|----------------------|-----------------------------|
|-3----------3----3-5--|-7-------(7)----5------(5)---|
|----------------------|-----------------------------|
|-1----------1----1-3--|-5-------(5)----3------(3)---|
|----------------------|-----------------------------|
|
| Q    Q     E. S S E.   Q     Q        Q    Q
|----------------------|-----------------------------|
|------3---------------|-------7-------------5-------|
|----------------------|-----------------------------|
|-1----------1--1-1-3--|-5--------------3------------|


  E. E   S E E. S S E.   E.  E    S   E E. E    S  E
|----8---8-8----8------|-----8----8---8----8----8--8-|
|----6---6-6----6------|----10---10--10----8----8--8-|
|----------------------|-----------------------------|
|-3----------3----3-5--|-7-------(7)----5------(5)---|
|----------------------|-----------------------------|
|-1----------1----1-3--|-5-------(5)----3------(3)---|
|----------------------|-----------------------------|
|
| Q    Q     E. S S E.   Q     Q        Q    Q
|----------------------|-----------------------------|
|------3---------------|-------7-------------5-------|
|----------------------|-----------------------------|
|-1----------1--1-1-3--|-5--------------3------------|


   E E  E E  E E  S E.    E E  E E  E E  S E.
|----------------------|----------------------|
|-10---10---10---10----|-10---10---10---10----|
|-10---10---10---10----|--7----7----7----7----|
|----------------------|----------------------|
|--8-8----8----8--8-7--|--5-5----5----5--5-3--|
|----------------------|----------------------|
|----------------------|----------------------|
|
|  E E  E E  E E  S E.    E E  E E  E E  S E.
|----------------------|----------------------|
|----------------------|----------------------|
|--8-8--8-8--8-8--8-7--|--5-5--5-5--5-5--5----|
|----------------------|-------------------8--|


  E E E E E E S E.   E  E E E E E S E.
|------------------|---------------------|
|-6---6---6---6----|---------------------|
|-3---3---3---3----|-7----7---7---7------|
|------------------|-5----5---5---5------|
|------------------|---------------------|
|-6-6---6---6-6-5--|-3--3---3---3---3----|
|------------------|---------------------|
|
| E E E E E E S E.   Q.     E E E E    E
|------------------|---------------------|
|------------------|---------------------|
|------------------|---------------------|
|-6-6-6-6-6-6-6-5--|-3------3-3-3-3----3-|


  E E E E E E S S S S    E  E E E E E S E.
|-0---0---0-----------|--0----0---0---1----|
|-1---1---1---------3-|--1----1---1-----3--|
|-0---0---0---3-2-----|--0----0---0--------|
|-2-2---2---2-----5---|--2--2---2---2------|
|-3-3---3---3---------|--3--3---3---3------|
|---------------------|--------------------|
|---------------------|--------------------|
|
| W                     +W
|---------------------|--------------------|
|---------------------|--------------------|
|-3-------------------|-(3)----------------|
|---------------------|--------------------|


   E  E E E E E S S S S    E E E E E E E E
|--0----0---0-----------||-0---0---0---0-----|
|--1----1---1---------3-||-1---1---1---1-----|
|--0----0---0---3-2-----||-0---0---0---0-----|
|--2--2---2---2-----5---||-2-2---2-2-2---2---|
|--3--3---3---3---------||-3-3---3-3-3---3---|
|-----------------------||-------------------|
|-----------------------||-------------------|
|
| +W                       W
|-----------------------||-------------------|
|-----------------------||-------------------|
|-(3)-------------------||-3-----------------|
|-----------------------||-------------------|


  E   E E E E E E E    E E E E E E S E.   E E E E E E E E    E E E E E E S E.
|-------------------|-10---0-----0---0--|-----------------|-10---0-----0---0---|
|-8-----6---5---6---|--1---1-----1---1--|-8---6---5---6---|--1---1-----1---1---|
|-5-----5---5---5---|--0---0-----0---0--|-5---5---5---5---|--0---0-----0---0---|
|-3---3---3---3---3-|--2-2---2-2---2----|-3-3---3---3---3-|--2-2---2-2---2-----|
|-1---1---1---1---1-|--3-3---3-3---3----|-1-1---1---1---1-|--3-3---3-3---3-----|
|-------------------|-------------------|-----------------|--------------------|
|-------------------|-------------------|-----------------|--------------------|
|
| H..             E    W                  W                  W
|-------------------|-------------------|-----------------|--------------------|
|-------------------|-------------------|-----------------|--------------------|
|-1---------------1-|--3----------------|-1---------------|--3-----------------|
|-------------------|-------------------|-----------------|--------------------|


  E  E E E E E E E   E E E E E E S E.     E E E E E   E    S  E.
|------------------|-1---1-----1---1----|-1---1-------1-------1------|
|-8----6---5---6---|-1---1-----1---1----|-1---1-------1-------1------|
|-5----5---5---5---|-2---2-----2---2----|-2---2-------2-------2------|
|-3--3---3---3---3-|-3-3---3-3---3------|-3-3---3-3--------3---------|
|-1--1---1---1---1-|-3-3---3-3---3------|-3-3---3-3--------3---------|
|------------------|-1-1---1-1---1------|-1-1---1-1--------1---------|
|------------------|--------------------|----------------------------|
|
| Q.     E H         E E E E E E E    E   E E E E S S S S +S  S  S S
|----------3-------|--------------------|----------------------------|
|--------3---------|--------------------|-3-3-3-3-3-1---3-(3)-1------|
|-1----------------|--------------------|-------------3----------3-1-|
|------------------|-1-1-1-1-1-1-1----1-|----------------------------|


 Big Solo
  E E E E E E  S  E.   E E E E E E  S  E.
|-0---0-----0-----0--|-3---3-----3-----3---|
|-1---1-----1-----1--|-3---3-----3-----3---|
|-0---0-----0-----0--|-4---4-----4-----4---|
|-2-2---2-2----2-----|-5-------------------|
|-3-3---3-3----3-----|-5-5---5-5----5------|
|--------------------|-3-3---3-3----3------|
|--------------------|---------------------|
|
| H       E E +S  E.   Q   E E E E +S  E.
|--------------------|---------------------|
|--------------------|-----5---------------|
|-3-------3-3-(3)-3--|---------------------|
|--------------------|-3-----3-3-3-(3)-3---|


  E E E E E E S E.   E E E E E E  S  E.
|-1---1-----1---1--|-0---0-----3-----3--||
|-1---1-----1---1--|-1---1-----3-----3--||
|-2---2-----2---2--|-0---0-----4-----4--||
|-3-3---3-3---3----|-2-2---2------------||
|-3-3---3-3---3----|-3-3---3-5----5-----||
|-1-1---1-1---1----|---------3----3-----||
|------------------|--------------------||
|
| H       E E S E.   H       E E +S  E.
|------------------|--------------------||
|------------------|--------------------||
|------------------|-3-------3----------||
|-1-------1-1---1--|-----------3-(3)-3--||


  E E E E E E  S  E.   E E E E E E  S  E.
|-0---0-----0-----0--|-3---3-----3-----3---|
|-1---1-----1-----1--|-3---3-----3-----3---|
|-0---0-----0-----0--|-4---4-----4-----4---|
|-2-2---2-2----2-----|-5-------------------|
|-3-3---3-3----3-----|-5-5---5-5----5------|
|--------------------|-3-3---3-3----3------|
|--------------------|---------------------|
|
| H       E E +S  E.   Q   E E E E +S  E.
|--------------------|---------------------|
|--------------------|-----5---------------|
|-3-------3-3-(3)-3--|---------------------|
|--------------------|-3-----3-3-3-(3)-3---|


  E E E E E E S E.   E E E E E   E    S  E.
|-1---1-----1---1--|-1---1-------1-------1------|
|-1---1-----1---1--|-1---1-------1-------1------|
|-2---2-----2---2--|-2---2-------2-------2------|
|-3-3---3-3---3----|-3-3---3-3--------3---------|
|-3-3---3-3---3----|-3-3---3-3--------3---------|
|-1-1---1-1---1----|-1-1---1-1--------1---------|
|------------------|----------------------------|
|
| H       E E S E.   E E E E S S S S +S  S  S S
|------------------|----------------------------|
|------------------|-3-3-3-3-3-1---3-(3)-1------|
|------------------|-------------3----------3-1-|
|-1-------1-1---1--|----------------------------|


                                   Verse
  E E E E E E  E     E   W          W
|-0---0---0----0-------|-0--------|-0----|
|-1---1---1----1-------|-1--------|-1----|
|-0---0---0----0-------|-0--------|-0----|
|-2-2---2---2--------2-|-2--------|-2----|
|-3-3---3---3--------3-|-3--------|-3----|
|----------------------|----------|------|
|----------------------|----------|------|
|
| H       E E +S  E.     W          W
|----------------------|----------|------|
|----------------------|----------|------|
|-3-------3-3-(3)-3----|-3--------|-3----|
|----------------------|----------|------|


  E E E E E E  S  E.   E E E E E E S E.
|-3---3-----3-----3--|-1---1-----1---1--|
|-3---3-----3-----3--|-1---1-----1---1--|
|-4---4-----4-----4--|-2---2-----2---2--|
|-5------------------|-3-3---3-3---3----|
|-5-5---5-5----5-----|-3-3---3-3---3----|
|-3-3---3-3----3-----|-1-1---1-1---1----|
|--------------------|------------------|
|
| Q   E E E E +S  E.   H       E E S E.
|--------------------|------------------|
|-----5--------------|------------------|
|--------------------|------------------|
|-3-----3-3-3-(3)-3--|-1-------1-1---1--|


  E E E E E E  S  E.   E E E E E E  S  E.
|-0---0-----0-----0--|-3---3-----3-----3---|
|-1---1-----1-----1--|-3---3-----3-----3---|
|-0---0-----0-----0--|-4---4-----4-----4---|
|-2-2---2-2----2-----|-5-------------------|
|-3-3---3-3----3-----|-5-5---5-5----5------|
|--------------------|-3-3---3-3----3------|
|--------------------|---------------------|
|
| H       E E +S  E.   Q   E E E E +S  E.
|--------------------|---------------------|
|--------------------|-----5---------------|
|-3-------3-3-(3)-3--|---------------------|
|--------------------|-3-----3-3-3-(3)-3---|


  E E E E E E S E.   Q.   E +E  E Q
|-1---1-----1---1--|-0---------------|
|-1---1-----1---1--|-1---------------|
|-2---2-----2---2--|-0---------------|
|-3-3---3-3---3----|-2----0-(0)------|
|-3-3---3-3---3----|-3----------3-0--|
|-1-1---1-1---1----|-----------------|
|------------------|-----------------|
|
| H       E E S E.   Q.   E +E  E Q
|------------------|-----------------|
|------------------|-3----0-(0)------|
|------------------|------------3-0--|
|-1-------1-1---1--|-----------------|


              Chorus
  H    Q  Q    E.  E    S   E E. E    S  E
|-0----0--0--|-----8----8---8----8----8--8--|
|-1----1--1--|----10---10--10----8----8--8--|
|-0----0--0--|------------------------------|
|-2----2--2--|-7-------(7)----5------(5)----|
|-3----3--2--|------------------------------|
|------------|-5-------(5)----3------(3)----|
|------------|------------------------------|
|
| H    Q  Q    Q     Q        Q    Q
|------------|------------------------------|
|------------|-------7-------------5--------|
|-3----3--2--|------------------------------|
|------------|-5--------------3-------------|


  E. E   S E E. S S E.   E.  E    S   E E. E    S  E
|----8---8-8----8------|-----8----8---8----8----8--8-|
|----6---6-6----6------|----10---10--10----8----8--8-|
|----------------------|-----------------------------|
|-3----------3----3-5--|-7-------(7)----5------(5)---|
|----------------------|-----------------------------|
|-1----------1----1-3--|-5-------(5)----3------(3)---|
|----------------------|-----------------------------|
|
| Q    Q     E. S S E.   Q     Q        Q    Q
|----------------------|-----------------------------|
|------3---------------|-------7-------------5-------|
|----------------------|-----------------------------|
|-1----------1--1-1-3--|-5--------------3------------|


  E. E   S E E. S S E.   E.  E    S   E E. E    S  E
|----8---8-8----8------|-----8----8---8----8----8--8-|
|----6---6-6----6------|----10---10--10----8----8--8-|
|----------------------|-----------------------------|
|-3----------3----3-5--|-7-------(7)----5------(5)---|
|----------------------|-----------------------------|
|-1----------1----1-3--|-5-------(5)----3------(3)---|
|----------------------|-----------------------------|
|
| Q    Q     E. S S E.   Q     Q        Q    Q
|----------------------|-----------------------------|
|------3---------------|-------7-------------5-------|
|----------------------|-----------------------------|
|-1----------1--1-1-3--|-5--------------3------------|


  E. E   S E E. S S E.   E.  E    S   E E. E    S  E
|----8---8-8----8------|-----8----8---8----8----8--8-|
|----6---6-6----6------|----10---10--10----8----8--8-|
|----------------------|-----------------------------|
|-3----------3----3-5--|-7-------(7)----5------(5)---|
|----------------------|-----------------------------|
|-1----------1----1-3--|-5-------(5)----3------(3)---|
|----------------------|-----------------------------|
|
| Q    Q     E. S S E.   Q     Q        Q    Q
|----------------------|-----------------------------|
|------3---------------|-------7-------------5-------|
|----------------------|-----------------------------|
|-1----------1--1-1-3--|-5--------------3------------|


   E E  E E  E E  S E.    E E  E E  E E     S E.
|----------------------|------------------------------|
|-10---10---10---10----|-10---10---10------10---------|
|-10---10---10---10----|--7----7----7-------7---------|
|----------------------|------------------------------|
|--8-8----8----8--8-7--|--5-5----5----5-----5-3-------|
|----------------------|------------------------------|
|----------------------|------------------------------|
|
|  E E  E E  E E  S E.    Q    Q    E S. Q       +T
|----------------------|------------------------------|
|----------------------|------------------------------|
|--8-8--8-8--8-8--8-7--|--5----5----5-0--5-------(5)--|
|----------------------|------------------------------|


  Q.   E +E  E Q    W          +W           W          +W           +W
|-0---------------|-1--------|-(1)--------|-0--------|-(0)--------|-(0)----*|
|-1---------------|-1--------|-(1)--------|-1--------|-(1)--------|-(1)----*|
|-0---------------|-2--------|-(2)--------|-0--------|-(0)--------|-(0)----*|
|-2---------------|-3--------|-(3)--------|-2--------|-(2)--------|-(2)----*|
|-3----0-(0)------|-3--------|-(3)--------|-3--------|-(3)--------|-(3)----*|
|------------3-0--|-1--------|-(1)--------|----------|------------|--------*|
|-----------------|----------|------------|-1--------|-(1)--------|-(1)----*|
|
| Q.   E +E  E Q    W          +W           W          +W           +W
|-----------------|----------|------------|----------|------------|--------*|
|-----------------|----------|------------|----------|------------|--------*|
|-3----0-(0)------|----------|------------|-3--------|-(3)--------|-(3)----*|
|------------3-0--|-1--------|-(1)--------|----------|------------|--------*|



Duration Legend
---------------
W - whole; H - half; Q - quarter; E - 8th; S - 16th; T - 32nd; X - 64th; a - acciaccatura
+ - note tied to previous; . - note dotted; .. - note double dotted
Uncapitalized letters represent notes that are staccato (1/2 duration)
Irregular groupings are notated above the duration line
Duration letters will always appear directly above the note/fret number it represents the
duration for.  Duration letters with no fret number below them represent rests.  Multi-
bar rests are notated in the form Wxn, where n is the number of bars to rest for.  Low
melody durations appear below the staff

Tablature Legend
----------------
 h   - hammer-on
 p   - pull-off
 b   - bend
 pb  - pre-bend
 r   - bend release (if no number after the r, then release immediately)
 /\  - slide into or out of (from/to "nowhere")
 s   - legato slide
 S   - shift slide
<n> - natural harmonic
[n]  - artificial harmonic
n(n) - tapped harmonic
 ~   - vibrato
 tr  - trill
 T   - tap
 TP  - trem. picking
 PM  - palm muting
\n/  - tremolo bar dip; n = amount to dip
 \n  - tremolo bar down
 n/  - tremolo bar up
/n\  - tremolo bar inverted dip
 =   - hold bend; also acts as connecting device for hammers/pulls
 <> - volume swell (louder/softer)
 x   - on rhythm slash represents muted slash
 o   - on rhythm slash represents single note slash

Misc Legend
-----------
 |  - bar
||  - double bar
||o - repeat start
o|| - repeat end
*|  - double bar (ending)
 :  - bar (freetime)
 $  - Segno
 &  - Coda
comments
We did not receive enough feedback on this tab! Please rate:
print report bad tab
1 2 3 4 5
3 comments total.
0 reply
vincent95 wrote on October 27 2009, 04:18 pm

Guitar and bass tab... =/

0 reply
vincent95 wrote on October 27 2009, 04:19 pm

Sry i meant PIANO and BASS tab...

0 reply
thexsevastian wrote on December 7 2009, 06:49 pm

NO, it's a guitar arrengment.

I want to post or [tab]
guest
You may want to rate the tab now too:
select rating
Please do not post tabs as comments. Select "correction" instead!