Oops, an error
Loading. Please wait.

Garden Of Eden Tab

ver2
ver2

Whole song

More versions @911Tabs.com
12,079 views 9 this week
1 commentread comment
1 2 3 4 5
excellent!
x 5
Autoscroll
+/-
esc
set tempo
stop
Contributor
Hey! There's an official Ultimate Guitar app which is ideal
for learning songs when you're away from computer. Get the app
WARNING: You are trying to view
                                    content from Ultimate-Guitar.com
                                    in an unauthorized application,
                                    which is prohibited.

                                    Please use an official Ultimate
                                    Guitar Tabs application for iPhone,
                                    iPad or Android to access legitimate
                                    chords, guitar, bass, and drum tabs
                                    from Ultimate-Guitar.com database.

                                    Type "ultimate guitar tabs" in Apple
                                    App Store's or Android Market's
                                    search to find the application.
Gtr I (Eb Ab Db Gb Bb Eb) - 'Untitled'
Gtr II (Eb Ab Db Gb Bb Eb) - 'Untitled'
Gtr III (Eb Ab Db Gb Bb Eb) - 'Untitled'


 Intro
  Fast Rock Q=220
                N.C.        E5     G5   E5        N.C.         G5G#E5
 4/4
  Gtr I
                 TP            PM| ~
  H    Q  Q      W          Q  E E Q  E E   +E  E E    +E  +E  E E E
|-------------|-----------|---------------|-------5b6==(5)r(5)-------|
|------x------|-----------|---------------|-------5b6==(5)r(5)-------|
|------x------|-----------|---------------|--------------------------|
|------x--x/--|-----------|---------------|------------------------2-|
|---------x/--|-----------|-2------5----2-|-(2)----------------5s6-2-|
|-------------|-17S=======|=0--0-0-3--0-0-|-(0)-0--------------3s4-0-|


            G5G#5 E5      N.C.
      PM--|
  +E  E E E E E E e   E E E    +E  +E  E E E
|-------------------|------------------------|
|-------------------|-----2b3==(2)r(2)-------|
|-------------------|---0-2b3==(2)r(2)-------|
|-(2)-------5s6---2-|---0-2b3==(2)r(2)-------|
|-(2)-------5s6---2-|------------------------|
|-(0)-0-0-0-3s4-0-0-|------------------3-3-0-|
|
| Gtr II
|  W                  E E E     E   E  E E E
|-------------------|------------------------|
|-------------------|------------------------|
|-------------------|------------------------|
|-------------------|---x-x-----x---x--x-x-2-|
|-------------------|---x-x-----x---x--x-x-2-|
|-------------------|---x-x-----x---x--x-x-0-|


  E5
           ~            PM
   Q   E E Q  E E    E  E E    +E  +Q   E E
|-----------------|-------------------------|
|-----------------|-------2b3==(2)r(2)------|
|-----------------|-------2b3==(2)r(2)------|
|--2-------5----2-|-------2b3==(2)r(2)----2-|
|--2-------5----2-|-----------------------2-|
|--0---0-0-3--0-0-|-----0---------------3-0-|
|
| +W                +W
|-----------------|-------------------------|
|-----------------|-------------------------|
|-----------------|-------------------------|
|-(2)-------------|-(2)---------------------|
|-(2)-------------|-(2)---------------------|
|-(0)-------------|-(0)---------------------|


                                           E5
       PM|               PM
  +Q   E E Q  E E    E   E E    +E  +E  Q  E
|-----------------|--------------------------||
|-----------------|--------2b3==(2)r(2)------||
|-----------------|------0-2b3==(2)r(2)------||
|-(2)------5----2-|------0-2b3==(2)r(2)----2-||
|-(2)------5----2-|------------------------2-||
|-(0)--0-0-3--0-0-|------0--------------3--0-||
|
| +W                +H..                   E
|-----------------|--------------------------||
|-----------------|--------------------------||
|-----------------|--------------------------||
|-(2)-------------|-(2)--------------------2-||
|-(2)-------------|-(2)--------------------2-||
|-(0)-------------|-(0)--------------------0-||


 1st Verse
           G5   E5        A5           G5G#E5
       PM| ~
  +Q   E E Q  E E   +E  E E    +E  +E  E E E
|-----------------|--------------------------|
|-----------------|--------------------------|
|-----------------|--------------------------|
|-(2)------5----2-|-(2)---7b8==(7)r(7)-5s6-2-|
|-(2)------5----2-|-(2)---7b8==(7)r(7)-5s6-2-|
|-(0)--0-0-3--0-0-|-(0)-0-5b6==(5)r(5)-3s4-0-|
|
|      PM| ~
| +Q   E E Q  E E   +E  E E    +E  +E  E E E
|-----------------|--------------------------|
|-----------------|--------------------------|
|-----------------|--------------------------|
|-(2)------5----2-|-(2)---7b8==(7)r(7)-5s6-2-|
|-(2)------5----2-|-(2)---7b8==(7)r(7)-5s6-2-|
|-(0)--0-0-3--0-0-|-(0)-0-5b6==(5)r(5)-3s4-0-|


           G5   E5        A5           G5G#E5
  Gtrs I, II
       PM| ~
  +Q   E E Q  E E   +E  E E    +E  +E  E E E
|-----------------|--------------------------|
|-----------------|--------------------------|
|-----------------|--------------------------|
|-(2)------5----2-|-(2)---7b8==(7)r(7)-5s6-2-|
|-(2)------5----2-|-(2)---7b8==(7)r(7)-5s6-2-|
|-(0)--0-0-3--0-0-|-(0)-0-5b6==(5)r(5)-3s4-0-|


           G5   E5        A5           G5G#E5
       PM| ~
  +Q   E E Q  E E   +E  E E    +E  +E  E E E
|-----------------|--------------------------|
|-----------------|--------------------------|
|-----------------|--------------------------|
|-(2)------5----2-|-(2)---7b8==(7)r(7)-5s6-2-|
|-(2)------5----2-|-(2)---7b8==(7)r(7)-5s6-2-|
|-(0)--0-0-3--0-0-|-(0)-0-5b6==(5)r(5)-3s4-0-|


           G5   E5        A5           N.C.
       PM| ~
  +Q   E E Q  E E   +E  E E    +E  +E  E E E
|-----------------|--------------------------||
|-----------------|--------------------------||
|-----------------|--------------------------||
|-(2)------5----2-|-(2)---7b8==(7)r(7)-------||
|-(2)------5----2-|-(2)---7b8==(7)r(7)-------||
|-(0)--0-0-3--0-0-|-(0)-0-5b6==(5)r(5)-3-0-3-||


  N.C.(G5)
  +Q   E E E E E E   +Q   E E E E E E
|------------------|-------------------|
|------------------|-------------------|
|------------------|-------------------|
|------------------|-------------------|
|----------1h2-----|------3h4-3-1s2----|
|-(3)--3-3-----3-3-|-(3)------------3--|


  +Q   E E E E E E   +Q   E E E E E E   +Q   E E E E E E   +Q   E E E E E E
|------------------|------------------|------------------|-------------------|
|------------------|------------------|------------------|-------------------|
|------------------|------------------|------------------|-------------------|
|------------------|------------------|------------------|-------------------|
|----------1h2-----|------3h4-3-1s2---|----------1h2-----|------3h4-3-1s2----|
|-(3)--3-3-----3-3-|-(3)------------3-|-(3)--3-3-----3-3-|-(3)------------3--|


                                    N.C.
  Gtrs I, II
  +Q   E E E E E E   +Q   E E E E E  E
|------------------|-----------------------|
|------------------|-----------------------|
|------------------|-----------------------|
|------------------|-----------------5-----|
|----------1h2-----|------3h4-3-1s2--------|
|-(3)--3-3-----3-3-|-(3)-------------------|
|
| Gtr III
|  W                  H       Q   E  E
|------------------|-----------------------|
|------------------|----------------18b20==|
|------------------|-----------------------|
|------------------|-----------------------|
|------------------|-----------------------|
|------------------|-----------------------|


                            ~~~~~~~~~              ~~
   +Q     Q   E      E   E  E    +Q    Q   E  E E  E
|-----------------------------|-----------------------|
|-----------------------------|-----------------------|
|-----------------------------|-----------------------|
|--(5)----3-------------------|-----------------------|
|-------------5------3---1--3-|--(3)---1--------------|
|-----------------------------|------------3--1-0--3--|
|
|  +Q     Q   E     +E   E  E    +Q    Q   Q.      E
|-----------------------------|-----------------------|
|-(18)r--18-------------18----|-----------------------|
|------------17b19-(17)----17-|-(17)--17--15------12--|
|-----------------------------|-----------------------|
|-----------------------------|-----------------------|
|-----------------------------|-----------------------|


                                         G5
    ~~~~             ~~~~~~~~~                                 PM|
   +Q    Q   E  E E  E    +Q   Q   E E E  E    +Q     E  E E E E E
|----------------------|--------------------|----------------------|
|----------------------|--------------------|----------------------|
|----------------------|--------------------|----------------------|
|----------------------|------------------5-|--(5)----3----5p3---5-|
|------------5--3-1--3-|--(3)--1----------5-|--(5)----3----5p3-----|
|--(3)---1-------------|-----------3-1-2--3-|--(3)---(3)-3-----3---|
|
| Gtr II
|   ~~~~             ~~~~~~~~~
|  +Q    Q   E  E E  E    +Q   Q   E E E  E    +Q     q    E E E E
|----------------------|--------------------|----------------------|
|----------------------|--------------------|----------------------|
|----------------------|--------------------|----------------------|
|----------------------|------------------5-|--(5)----5----3-5-3-4-|
|------------5--3-1--3-|--(3)--1----------5-|--(5)----5----3-5-3-4-|
|--(3)---1-------------|-----------3-1-2--3-|--(3)----3------------|
|
| Gtr III
|  +Q    Q   E  E E  E    +Q   Q   E E E  E    +H          H
|----------------------|--------------------|----------------------|
|----------------------|--------------------|----------------------|
|-(12)--10-------------|--------------------|----------------------|
|-----------12-10-8-10-|-(10)--8------------|----------------------|
|----------------------|----------10-8-9-10-|-(10)\----------------|
|----------------------|--------------------|----------------------|


  Gtr I
  PM|   PM    PM------|   PM    PM----------|        PM------|   PM    PM|
  E E E E E E E E   E E E E E E E  E     E  E Q  E E E E   E E E E E E E E
|-----------------|-------------------|------------------|------------------|
|-----------------|-------------------|------------------|------------------|
|-----------------|-------------------|-------3----------|------------------|
|-----3---5p3---5-|-----3---5p3----5--|-------3--5p3---5-|-----3---5p3---5--|
|-----3---5p3-----|-----3---5p3-------|----------5p3-----|-----3---5p3------|
|-3-3---3-----3---|-3-3---3-----3-----|--3--3--------3---|-3-3---3-----3----|
|
| Gtr II
| Q   Q   E E E E   Q   q   E E E  E    +H       E E E E   E E q   E E E E
|-----------------|-------------------|------------------|------------------|
|-----------------|-------------------|------------------|------------------|
|-----------------|---------------(3)-|-(3)--------------|---------x-x-x----|
|-5---5---3-5-3-4-|-5---5---3-5----3--|-(3)------3-5-3-4-|-5-5-5---x-x-x-5--|
|-5---5---3-5-3-4-|-5---5---3-5----3--|-(3)------3-5-3-4-|-5-5-5---------5--|
|-----3-----------|-----3-------------|------------------|-----3---------3--|


                                               Gb5 F5E5
   PM-|   PM    PM------|   PM
   E  E E E E E E E   E E E E E E E E   Q   Q  Q   E E
|-------------------|-----------------|----------------|
|-------------------|-----------------|----------------|
|-------------------|-----------------|----------------|
|-------3---5p3---5-|-----3---5p3---5-|-5---5--4---3-2-|
|-------3---5p3-----|-----3---5p3---5-|-5---5--4---3-2-|
|--3--3---3-----3---|-3-3---3-----3-3-|-3---3--2---1-0-|
|
| +E  E q   E E E E   Q   q   E E E E   E E Q  E E E E
|-------------------|-----------------|----------------|
|-------------------|-----------------|----------------|
|-------------------|-----------------|---3------------|
|-(5)-5-5---3-5-3-4-|-5---5---3-5-3-5-|---3----5-4-3-2-|
|-(5)-5-5---3-5-3-4-|-5---5---3-5-3-5-|--------5-4-3-2-|
|-(3)-3-3-----------|-----3-----------|--------3-2-1-0-|


 2nd, 3rd Verses
  $
           G5   E5        A5           G5G#E5
  Gtrs I, II
       PM| ~
  +Q   E E Q  E E   +E  E E    +E  +E  E E E
|-----------------|--------------------------|
|-----------------|--------------------------|
|-----------------|--------------------------|
|-(2)------5----2-|-(2)---7b8==(7)r(7)-5s6-2-|
|-(2)------5----2-|-(2)---7b8==(7)r(7)-5s6-2-|
|-(0)--0-0-3--0-0-|-(0)-0-5b6==(5)r(5)-3s4-0-|


           G5   E5        A5           G5G#E5
       PM| ~
  +Q   E E Q  E E   +E  E E    +E  +E  E E E
|-----------------|---------------------------|
|-----------------|---------------------------|
|-----------------|---------------------------|
|-(2)------5----2-|-(2)---7b8==(7)r(7)-5s6-2--|
|-(2)------5----2-|-(2)---7b8==(7)r(7)-5s6-2--|
|-(0)--0-0-3--0-0-|-(0)-0-5b6==(5)r(5)-3s4-0--|


           G5   E5        A5           G5G#E5
       PM| ~
  +Q   E E Q  E E   +E  E E    +E  +E  E E E
|-----------------|--------------------------|
|-----------------|--------------------------|
|-----------------|--------------------------|
|-(2)------5----2-|-(2)---7b8==(7)r(7)-5s6-2-|
|-(2)------5----2-|-(2)---7b8==(7)r(7)-5s6-2-|
|-(0)--0-0-3--0-0-|-(0)-0-5b6==(5)r(5)-3s4-0-|


           G5   E5        A5           G5G#5
       PM| ~
  +Q   E E Q  E E   +E  E E    +E  +E  E E E
|-----------------|---------------------------||
|-----------------|---------------------------||
|-----------------|---------------------------||
|-(2)------5----2-|-(2)---7b8==(7)r(7)-5s6----||
|-(2)------5----2-|-(2)---7b8==(7)r(7)-5s6-0--||
|-(0)--0-0-3--0-0-|-(0)-0-5b6==(5)r(5)-3s4----||


 Pre-Chorus
  A5              C5/A           A5        C5/A
  Gtr I
   Q    Q   E E E  E       +Q    Q   E E E E
|------------------------|-----------------------|
|------------------------|-----------------------|
|--2----2----------------|-----------------------|
|--2----2---------(2)----|-(2)---2---------2-----|
|-(0)---0---3p0-0--3b3.5-|-(3)---0---3p0-0-3b3.5-|
|------------------------|-----------------------|
|
| Gtr II
| +E  E E E E E E  E       +E  E E E E E E E
|------------------------|-----------------------|
|------------------------|-----------------------|
|------------------5-----|-(5)s2-----------5-----|
|------------------5-----|-(5)s2-----------5-----|
|-(0)-0-0-0-0-0-0--0-----|-(0)-0-0-0-0-0-0-0-----|
|------------------------|-----------------------|


        A5        C5/A           A5        C5/A
  +Q    Q   E E E E        +Q    Q   E E E E
|-----------------------||--------------------|
|-----------------------||--------------------|
|-------2---------------||-------2---------5--|
|-(2)---2---------2-----||-(2)---2---------5--|
|-(3)---0---3p0-0-3b3.5-||-(3)---0---3p0-0-3--|
|-----------------------||--------------------|
|
| +E  E E E E E E E        +E  E E E E E E E
|-----------------------||--------------------|
|-----------------8-----||-(8)-------------8--|
|-(5)s2-----------5-----||-(5)s2-----------5--|
|-(5)s2-----------5-----||-(5)s2-----------5--|
|-(0)-0-0-0-0-0-0-0-----||-(0)-0-0-0-0-0-0-0--|
|-----------------------||--------------------|


        A5        C5/A      A5            N.C.
  +Q    Q   E E E E   +Q    Q   E E E E   Q.   E +Q   Q    E Q.   Q  Q
|-------------------|-------------------|----------------|----------------|
|-------------------|-------------------|----------------|----------------|
|-(5)---2---------5-|-(5)---2-----------|----------------|----------------|
|-(5)---2---------5-|-(5)---2-----------|-7----6-(6)--5--|----------------|
|-(3)---0---3p0-0-3-|-(3)---0---3p0-0-0-|----------------|-3--------------|
|-------------------|-------------------|----------------|---0----1--2----|
|
| +E  E E E E E E E   +E  E E E E E E E   Q.   E +Q   Q    E Q.   Q  Q
|-------------------|-------------------|----------------|----------------|
|-(8)s5-5---------8-|-(8)s5-------------|----------------|----------------|
|-(5)s2-2---------5-|-(5)s2-------------|----------------|----------------|
|-(5)s2-2---------5-|-(5)s2-------------|-7----6-(6)--5--|----------------|
|-(0)-0-0-0-0-0-0-0-|-(0)-0-0-0-0-0-0-0-|----------------|-3--------------|
|-------------------|-------------------|----------------|---0----1--2----|


 Chorus
  N.(G5)
  Q  q   E E E E    Q   q   E E E E   +Q   q   E E E E   +Q   Q   E E E E
|----------------|------------------|------------------|-------------------|
|----------------|------------------|------------------|-------------------|
|----------------|------------------|------------------|-------------------|
|----5---3-5---3h|==5---5---3-5---5-|-(5)--5---3-5---5-|-(5)--5---x-x-x-5--|
|----5---3-5---3h|==5---5---3-5---5-|-(5)--5---3-5---5-|-(5)--5---x-x-x-5--|
|-3--3---------3-|-(3)--3---------3-|-(3)--3---------3-|-(3)--3---------3--|
|
| Q  E E E E E E   +Q   E E E E E E   +Q   E E E E E E   +Q   E E E E E E
|----------------|------------------|------------------|-------------------|
|----------------|------------------|------------------|-------------------|
|----------------|------------------|------------------|-------------------|
|----------------|------------------|------------------|-------------------|
|--------1h2-----|------3h4-3-1s2---|----------1h2-----|------3h4-3-1s2----|
|-3--3-3-----3-3-|-(3)------------3-|-(3)--3-3-----3-3-|-(3)------------3--|


                                                  To Coda
                                                                             N.C.
  +Q   q   Q   E E   +Q   q   E E E E   +Q   Q   E E E E    +H..             E
|------------------|------------------|-------------------|--------------------|
|------------------|------------------|-------------------|--------------------|
|------------------|------------------|-------------------|--------------------|
|-(5)--5-------5-5-|-(5)--5---3-5---5-|-(5)--5---3-5---5--|-(5)--------------5-|
|-(5)--5-------5-5-|-(5)--5---3-5---5-|-(5)--5---3-5---5--|-(5)----------------|
|-(3)--3---------3-|-(3)--3---------3-|-(3)--3---------3--|-(3)----------------|
|
| +Q   E E E E E E   +Q   E E E E E E   +Q   E E E E E E    +E   E E E E E E E
|------------------|------------------|-------------------|--------------------|
|------------------|------------------|-------------------|--------------------|
|------------------|------------------|-------------------|--------------------|
|------------------|------------------|-------------------|------------------5-|
|----------1h2-----|------3h4-3-1s2---|----------1h2------|------2-3-2-3-2-0---|
|-(3)--3-3-----3-3-|-(3)------------3-|-(3)--3-3-----3-3--|-(3)----------------|


                                                                      G5
  Gtrs I, II
                ~~~~~~~~          ~~~~~~~~          ~~~~~~~~
  +Q   Q  E E E E   +Q   Q  E E E E   +Q   Q  E E E E   +Q   Q  E E E E
|-----------------|-----------------|-----------------|------------------|
|-----------------|-----------------|-----------------|------------------|
|-----------------|-----------------|-----------------|------------------|
|-(5)--3----------|-----------------|-----------------|---------------5--|
|---------5-3-1-3-|-(3)--1----------|---------5-3-1-3-|-(3)--1--------5--|
|-----------------|---------3-1-0-3-|-(3)--1----------|---------3-1-2-3--|


           PM    PM--------|   PM    PM------|   PM    PM--------|        PM|
  +Q    E  E E E E E    E  E E E E E E E   E E E E E E E E    E  E Q  E E E E
|--------------------|-------------------|-----------------|-------------------|
|--------------------|-------------------|-----------------|-------------------|
|--------------------|-------------------|-----------------|-------3-----------|
|-(5)---3----5p3---5-|-------3---5p3---5-|-----3---5p3---5-|-------3--5p3---5--|
|-(5)---3----5p3-----|-------3---5p3-----|-----3---5p3-----|----------5p3------|
|-(3)--(3)-3-----3---|--3--3---3-----3---|-3-3---3-----3---|--3--3--------3----|
|
| Gtr II
| +Q    q    E E E E   +Q    q   E E E E   Q   Q   E E E E   +H       E E E E
|--------------------|-------------------|-----------------|-------------------|
|--------------------|-------------------|-----------------|-------------------|
|--------------------|-------------------|-----------------|-------------------|
|-(5)---5----3-5-x-5-|-(5)---5---3-5-3-4-|-5---5---3-5---5-|-(5)------x-x-x-5--|
|-(5)---5----3-5-x-5-|-(5)---5---3-5-3-4-|-5---5---3-5---5-|-(5)------x-x-x-5--|
|-(3)---3----------3-|-(3)---3-----------|-3---3---------3-|-(3)------------3--|


                                                                D.S. al Coda
   PM-|   PM    PM--------|   PM    PM------|   PM    PM
   E  E E E E E E E    E  E E E E E E E   E E E E E E E E    Q   Q  Q   E E
|-------------------|-------------------|-----------------|------------------|
|-------------------|-------------------|-----------------|------------------|
|-------------------|-------------------|-----------------|------------------|
|-------3---5p3---5-|-------3---5p3---5-|-----3---5p3---5-|--5---5--4---3-2--|
|-------3---5p3-----|-------3---5p3-----|-----3---5p3---5-|--5---5--4---3-2--|
|--3--3---3-----3---|--3--3---3-----3---|-3-3---3-----3-3-|--3---3--2---1-0--|
|
| +Q    q   E E E E   +Q    q   E E E E   E E q   E E E E   +Q   Q  E E E E
|-------------------|-------------------|-----------------|------------------|
|-------------------|-------------------|-----------------|------------------|
|-------------------|-------------------|-----------------|------------------|
|-(5)---5---x-x-x-5-|-(5)---5---x-5---3-|-5-5-5---3-5-3-5-|-(5)--5--5-5-2-2--|
|-(5)---5---x-x-x-5-|-(5)---5---x-5---3-|-5-5-5---3-5-3-5-|-(5)--5--5-5-2-2--|
|-(3)---3---------3-|-(3)---3-----3-----|---3-3-----------|------3--3-3-0-0--|


                      Guitar Solo
  &
                  A5            G5A5G5/A
  Gtr I
                            PM----------------|   PM--|     PM
  Q    E E  E E E E    +Q   E E E E E E    E  E E E E E E   E
|-------------------||------------------|-----------------------|
|-------------------||------------------|-----------------------|
|-----------------2-||-(2)--------------|-------2-------2-------|
|-----------------2-||-(2)--------------|-------2-------2-------|
|------3h4--3-1-2-0-||-(0)--0-0-0-0-0-0-|--0--0-0-0-0-0-0---0---|
|-3-----------------||------------------|-----------------------|
|
| Gtr II
| H..             E    +Q   Q   E E E E   +Q    q   E E E   E
|-------------------||------------------|-----------------------|
|-------------------||------------------|-----------------------|
|-----------------2-||-(2)--2-----------|-----------------------|
|-5---------------2-||-(2)--2---5-7-5-5-|-(5)---5---x-x-x---5---|
|-5---------------0-||-(0)--0---5-7-5-5-|-(5)---5---x-x-x---5---|
|-3-----------------||----------5-5-5-5-|-(5)---5---x-x-x---5---|
|
| Gtr III
|                           PM|
|                                                       |--3--|
| H         Q.    E    +Q   E E E E E E   +Q    E E E e E E   E
|-------------------||------------------|-------------5-------5-|
|-------------------||------------------|---------------7h8-----|
|-------------------||----------5h6-----|-------5-7h8-----------|
|----------17S====7-||-(7)--7-7-----5-7-|-(7)-------------------|
|-------------------||------------------|-----------------------|
|-------------------||------------------|-----------------------|


                       A5G5/AA5                   G5A5G5/AG#5
   PM--|       PM------|     PM---------|     PM
   E   E   E   E   E   E E   E      E   E E   E   E E  E  E
|--------------------------------|--------------------------|
|--------------------------------|--------------------------|
|----------2-------------2-------|--------2-----------------|
|----------2-------------2-------|--------2-------2-2-------|
|--0---0---0---0---0---0-0---0---|--0---0-0---0---0-0--3--4-|
|--------------------------------|--------------------------|
|
| +Q       Q       E   E E   E     +Q     Q       E E  E  E
|--------------------------------|--------------------------|
|--------------------------------|--------------------------|
|--------------------------------|--------------------------|
|-(5)------5-------5---7-5---7---|-(7)----7-------5-7--5--6-|
|-(5)------5-------5---7-5---7---|-(7)----7-------5-7--5--6-|
|-(5)------5-------5---5-5---5---|-(5)----5-------5-5--5--4-|
|
|  |--3--| |--3--|       |--3--|          |--3--|
|  E E   E E E   E S S E E E   E    S S E E E   E E E  E  E
|----------------------5---------|--------------------------|
|--8p7p==5-8p7p==5-7h8---8p7p==5-|------5-----------5-(5)---|
|--------------------------------|--7h8---8p7p==5-7----5--0-|
|--------------------------------|--------------------------|
|--------------------------------|--------------------------|
|--------------------------------|--------------------------|


  A5         G5/A5      G5G#5   A5       G5/AA5  G5/AG#5
   PM---------------------------|    PM|     PM
   E E  E  E  E  E      E S S    E E E E E   E   E   E
|-----------------------------|--------------------------|
|-----------------------------|--------------------------|
|-----------------------------|--------------------------|
|-----------------------------|--------------------------|
|--0-0--0--0--0--0------0-0-0-|--0-0-0-0-0---0---3p==0---|
|-----------------------------|--------------------------|
|
|  Q    q     E  E      E E      Q   q   E   E   E   E
|-----------------------------|--------------------------|
|-----------------------------|--------------------------|
|-----------------------------|--------------------------|
|--7----7-----5--7------5-6---|--7---7---5---7---5---6---|
|--7----7-----5--7------5-6---|--7---7---5---7---5---6---|
|--5----5-----5--5------5-4---|--5---5---5---5---5---4---|
|
|                                        |--3--| |--3--|
|  Q    E  E  E  Q.              Q   E E E E   E E E   E
|------------12---------------|--------------------------|
|-10---10-10----13b13.5-------|-10---8-------------------|
|-----------------------------|--------9-7h8h==9-7h8h==9-|
|-----------------------------|--------------------------|
|-----------------------------|--------------------------|
|-----------------------------|--------------------------|


  A5          G5/AA5  G5/AG#5   A5
        |-3-|
  Q     E E E E   E   E   E     E   E   E E E  E E  E
|-----------------------------|-------------------------|
|-----------------------------|-------------------------|
|-----------------------------|-------------------------|
|-------------2---4-----------|-------------------------|
|-0-----0h3h4---------0---0---|-0---0---3-4-3--0-0--2---|
|-----------------------------|-------------------------|
|
| Q     q     E   E   E   E     E   E   E E E  E E  E
|-----------------------------|-------------------------|
|-----------------------------|-------------------------|
|-----------------------------|-------------------------|
|-7-----7-----5---7---5---6---|-7---7---7-7-7--7-7--7---|
|-7-----7-----5---7---5---6---|-7---7---7-7-7--7-7--7---|
|-5-----5-----5---5---5---4---|-5---5---5-5-5--5-5--5---|
|
| |-3-| |-3-| |--3--| |--3--|   |--3--|
| E E E E E E E E   E E E   E   E E   E E E Q.     +E
|-----------------------------|-------------------------|
|-----------------------------|-------------------------|
|-7h8h9-7h8h9-7h8h==9-7h8h==9-|-7h8h==9-7-9-5------(5)/-|
|-----------------------------|-------------------------|
|-----------------------------|-------------------------|
|-----------------------------|-------------------------|


  B5
         PM-----|   PM-------|        PM
  +E  E  E  E E E E E     E   E  E    E       E  E  E E
|---------------------|---------------------------------|
|---------------------|---------------------------------|
|---------------------|---------------------------------|
|---------------------|---------------------------------|
|-(2)-2--2--2-2-2-2-2-|---2---2--2----2-------2--2--2---|
|---------------------|-------------------------------3-|
|
|  Q     Q    E Q   E    +Q      Q            E  E  E E
|---------------------|---------------------------------|
|---------------------|---------------------------------|
|--4-----4----4-4---4-|--(4)-----4------------4--4------|
|--4-----4----4-4---4-|--(4)-----4------------4--4------|
|--2-----2----2-2---2-|--(2)-----2------------2--2------|
|---------------------|-----------------------------0-2-|
|
|  ~~~~~~~~~~~~~~~~~~~~~~~~~~
|                                |---3----|
|  Q     H.              +E   E  Q        E   E  E  Q
|---------------------|-----------------(14)----14------|
|---------------------|------14-17b19--------17----15---|
|-16----16------------|-(16)----------------------------|
|---------------------|---------------------------------|
|---------------------|---------------------------------|
|---------------------|---------------------------------|


  G5
       PM|      PM---|
   Q   E  E  E  E  E  E
|-----------------------|
|-----------------------|
|-----------------------|
|-----------------------|
|-----------------------|
|--3---3--3--3--3--3--3-|
|
|  W
|-----------------------|
|-----------------------|
|-----------------------|
|--5--------------------|
|--5--------------------|
|--3--------------------|
|
|  Q   E  E  E  E  E  E
|-----------------------|
|-----------------------|
|-16--14----16----14----|
|--------16----16----16-|
|-----------------------|
|-----------------------|


                       A5
      PM|      PM--|       PM--|   PM|        PM     PM       PM---|
   E  E  E E E E E E    E  E E E E E  E  E    E   E  E  E  E  E     E  E
|--------------------|---------------------|-----------------------------|
|--------------------|---------------------|-----------------------------|
|--------------------|---------------------|-----------------------------|
|--------------------|---------------------|-----------------------------|
|--------------------|---------------------|-----------------------------|
|--3--3--3-3-3-3-3-3-|--5--5-5-5-5-5--5--5-|--5---5--5--5--5--5-----5--5-|
|
|  Q     Q   Q   Q      Q    Q   E Q     E   +Q      Q     E  Q        E
|--------------------|---------------------|-----------------------------|
|--------------------|---------------------|-----------------------------|
|--------------------|---------------------|-----------------------------|
|--------------------|--7----7---7-7-----7-|-(7)-----7-----7--7--------5-|
|--------------------|--7----7---7-7-----7-|-(7)-----7-----7--7--------5-|
|--3-----2---3---4---|--5----5---5-5-----5-|-(5)-----5-----5--5--------5-|
|
|  E  E  H       Q      H.            E  E    E   E  E  E  E  S  S  E  E
|--------------------|---------------------|-----------------------------|
|--------------------|-22------------19-22-|-19-----22----19-22p19----19-|
|--------------------|---------------------|-----21----21----------21----|
|-15-14S12-----------|---------------------|-----------------------------|
|--------------------|---------------------|-----------------------------|
|--------------------|---------------------|-----------------------------|


                              ~~~~
   E  E  E  E  E  E   E  E    H..                       E
|--------------------------|----------------------------------|
|--------------------------|----------------------------------|
|--------------------------|----------------------------------|
|--------------------------|----------------------------------|
|--------------------------|----------------------------------|
|--5--5--5--5--5--5---5--5-|--5-------------------------3-----|
|
|  Q     Q     E  Q.          Q          Q     Q     E  E
|--------------------------|----------------------------------|
|--------------------------|----------------------------------|
|--------------------------|----------------------------------|
|--7-----7-----7--7--------|--7----------7-----7--------------|
|--7-----7-----7--7--------|--7----------7-----7--------------|
|--5-----5-----5--5--------|--5----------5-----5-----0--3-----|
|
|  E  E  E  E  E  E   E  E    E    S  S  E  E  E  E  E  E
|--------------------------|------------------------15--------|
|----18-19-17--------15----|-15------------------------18b20==|
|-21----------19-17-----18-|------18h19p18-17-14-16-----------|
|--------------------------|----------------------------------|
|--------------------------|----------------------------------|
|--------------------------|----------------------------------|


 4th Verse
  G5
  Gtr I
   +Q   E E   E   E  E    E   +Q      E E E E E E    +Q   E E E E E E
|---------------------------|---------------------|-------------------|
|---------------------------|---------------------|-------------------|
|---------------------------|---------------------|-------------------|
|---------------------------|---------------------|-------------------|
|-------------1h==2---------|---------3h4-3-1s2---|-----------1h2-----|
|--(3)--3-3----------3----3-|-(3)---------------3-|--(3)--3-3-----3-3-|
|
| Gtr II
|   Q   q     E   E  E    E    Q      q   E E E E    +Q   q   E E E E
|---------------------------|---------------------|-------------------|
|---------------------------|---------------------|-------------------|
|---------------------------|---------------------|-------------------|
|-------5-----3---5-------3-|--5------5---3-5---5-|--(5)--5---3-5---5-|
|-------5-----3---5-------3-|--5------5---3-5---5-|--(5)--5---3-5---5-|
|---3---3-----------------3-|-(3)-----3---------3-|--(3)--3---------3-|
|
| Gtr III
|  +H        +Q      Q         W                     +W
|---------------------------|---------------------|-------------------|
|-(18)------(18)r---20b21---|-21b24===============|=(21)--------------|
|---------------------------|---------------------|-------------------|
|---------------------------|---------------------|-------------------|
|---------------------------|---------------------|-------------------|
|---------------------------|---------------------|-------------------|


   +Q   E E   E  E E E    +Q   E E E E E E   +Q    E E E E E E
|----------------------|-------------------|--------------------|
|----------------------|-------------------|--------------------|
|----------------------|-------------------|--------------------|
|----------------------|-------------------|--------------------|
|-------3h4---3--1s2---|-----------1h2-----|-------3h4-3-1s2----|
|--(3)---------------3-|--(3)--3-3-----3-3-|-(3)-------------3--|
|
|  +Q   Q     E  E E E    +Q   q   Q   E E   +Q    q   E E E E
|----------------------|-------------------|--------------------|
|----------------------|-------------------|--------------------|
|----------------------|-------------------|--------------------|
|--(5)--5-----x--x-x-5-|--(5)--5-------5-5-|-(5)---5---3-5---5--|
|--(5)--5-----x--x-x-5-|--(5)--5-------5-5-|-(5)---5---3-5---5--|
|--(3)--3------------3-|--(3)--3---------3-|-(3)---3---------3--|
|
|  +H        +H            W                  H        H
|----------------------|-------------------|--------------------|
|-(21)r=====(21)-------|-[16]--------------|--------------------|
|----------------------|-------------------|-<7>\---------------|
|----------------------|-------------------|--------------------|
|----------------------|-------------------|--------------------|
|----------------------|-------------------|--------------------|


                                     N.C.
                                                       ~~~~~~~~          ~
  +Q   E E E E E E   +Q    E E E E E E   +Q   Q  E E E E   +Q   Q  E E E E
|------------------|-------------------|-----------------|------------------|
|------------------|-------------------|-----------------|------------------|
|------------------|-------------------|-----------------|------------------|
|------------------|-----------------5-|-(5)--3----------|------------------|
|----------1h2-----|-------3h4-3-1s2---|---------5-3-1-3-|-(3)--1-----------|
|-(3)--3-3-----3-3-|-(3)---------------|-----------------|---------3-1-0-3--|
|
|                                                      ~~~~~~~~          ~
| +Q   Q   E E E E   +H..            E   +Q   Q  E E E E   +Q   Q  E E E E
|------------------|-------------------|-----------------|------------------|
|------------------|-------------------|-----------------|------------------|
|------------------|-------------------|-----------------|------------------|
|-(5)--5---3-5---5-|-(5)-------------5-|-(5)--3----------|------------------|
|-(5)--5---3-5---5-|-(5)---------------|---------5-3-1-3-|-(3)--1-----------|
|-(3)--3---------3-|-(3)---------------|-----------------|---------3-1-0-3--|


  Gtrs I, II
   ~~~          ~~~~~~~~
  +Q   Q  E E E E   +Q   Q  E  E  E E
|-----------------|-------------------|
|-----------------|-------------------|
|-----------------|-------------------|
|-----------------|-----------------5-|
|---------5-3-1-3-|-(3)--1----------5-|
|-(3)--1----------|---------3--1--2-3-|
|
| Gtr III
|  W                 H      E  Q    E
|-----------------|-------------------|
|-----------------|-------------------|
|-----------------|-----------15\-----|
|-----------------|-----------------5-|
|-----------------|-------------------|
|-----------------|-------------------|


 Chorus
  G5
  Gtr I
  +Q   E E E E E E   +Q   E E E E E   E    +Q   E E  E  E  E  E
|------------------|--------------------|-----------------------|
|------------------|--------------------|-----------------------|
|------------------|--------------------|-----------------------|
|------------------|--------------------|-----------------------|
|----------1h2-----|------3h4-3-1s2-----|------------1h=2-------|
|-(3)--3-3-----3-3-|-(3)--------------3-|--(3)--3-3--------3--3-|
|
| Gtr II
| +Q   q   E E E E    Q   q   E E E   E    +Q   q    E  E  E  E
|------------------|--------------------|-----------------------|
|------------------|--------------------|-----------------------|
|------------------|--------------------|-----------------------|
|------5---3-5---3-|--5---5---3-5-----5-|--(5)--5----3--5-----5-|
|------5---3-5---3-|--5---5---3-5-----5-|--(5)--5----3--5-----5-|
|-(3)--3---------3-|-(3)--3-----------3-|--(3)--3-------------3-|
|
| Gtr III
| +Q   E E E E E E   +Q   E E E E E   E    +Q   E E  E  E  E  E
|------------------|--------------------|-----------------------|
|------------------|--------------------|-----------11h12-------|
|----------3h4-----|------5-6-5-3-4-/12-|-(12)--x-x-------12-12-|
|-(5)--5-5-----5-5-|-(5)----------------|-----------------------|
|------------------|--------------------|-----------------------|
|------------------|--------------------|-----------------------|


   +Q    E  E  E E E  E    +Q   E E E E  E  E    +Q    E  E  E E E  E
|-----------------------|---------------------|------------------------|
|-----------------------|---------------------|------------------------|
|-----------------------|---------------------|------------------------|
|-----------------------|---------------------|------------------------|
|--------3h=4--3-1s2----|-----------1h2-------|--------3h=4--3-1s2-----|
|--(3)----------------3-|--(3)--3-3------3--3-|--(3)----------------3--|
|
|  +Q    Q     E E E  E    +Q   q   Q    E  E    +Q    q     E E E  E
|-----------------------|---------------------|------------------------|
|-----------------------|---------------------|------------------------|
|-----------------------|---------------------|------------------------|
|--(5)---5-----x-x-x--5-|--(5)--5--------5--5-|--(5)---5-----3-5----5--|
|--(5)---5-----x-x-x--5-|--(5)--5--------5--5-|--(5)---5-----3-5----5--|
|--(3)---3------------3-|--(3)--3-----------3-|--(3)---3------------3--|
|
|  +Q    E  E  E E E  E    +Q   E E E E  E  E    +Q    E  E  E E E  E
|-----------------------|---------------------|------------------------|
|-----------------------|---------------------|------------------------|
|-(12)------------------|---------------------|------------------------|
|-------10-11-10-8-9----|-----------8h9-------|-------10-11-10-8-9-17--|
|--------------------10-|-(10)--x-x-----10-10-|-(10)-------------------|
|-----------------------|---------------------|------------------------|


                                                  N.C.
   +Q    E  E  E  E  E  E    +Q     E  E  E  E  E  E
|-------------------------|------------------------------|
|-------------------------|------------------------------|
|-------------------------|------------------------------|
|-------------------------|------------------------5-----|
|--------------1h=2-------|---------3h=4--3--1--2--------|
|--(3)---3--3--------3--3-|--(3)-------------------------|
|
|  +Q    Q     E  E  E  E    +H..                  E
|-------------------------|------------------------------|
|-------------------------|------------------------------|
|-------------------------|------------------------------|
|--(5)---5-----3--5-----5-|--(5)-------------------5-----|
|--(5)---5-----3--5-----5-|--(5)-------------------------|
|--(3)---3--------------3-|--(3)-------------------------|
|
|  +Q    E  E  E  E  E  E    +Q     E  E  E  E  E  E
|-------------------------|------------------------------|
|-------------------------|-----------------------18b20==|
|-------------15h16-------|--------17-18-17-15-16--------|
|-(17)--17-17-------17-17-|-(17)-------------------------|
|-------------------------|------------------------------|
|-------------------------|------------------------------|


                            ~~~~~~~~~              ~~
   +Q     Q   E      E   E  E    +Q    Q   E  E E  E
|-----------------------------|-----------------------|
|-----------------------------|-----------------------|
|-----------------------------|-----------------------|
|--(5)----3-------------------|-----------------------|
|-------------5------3---1--3-|--(3)---1--------------|
|-----------------------------|------------3--1-0--3--|
|
|                           ~~~~~~~~~              ~~
|  +Q     Q   E      E   E  E    +Q    Q   E  E E  E
|-----------------------------|-----------------------|
|-----------------------------|-----------------------|
|-----------------------------|-----------------------|
|--(5)----3-------------------|-----------------------|
|-------------5------3---1--3-|--(3)---1--------------|
|-----------------------------|------------3--1-0--3--|
|
|                           ~~~~~~~~~
|  +Q     Q   E     +E   E  E    +Q    Q   Q.      E
|-----------------------------|-----------------------|
|-(18)r--18-------------18----|-----------------------|
|------------17b19-(17)----17-|-(17)--17--15------12--|
|-----------------------------|-----------------------|
|-----------------------------|-----------------------|
|-----------------------------|-----------------------|


                                              G5
  Gtrs I, II
    ~~~~                  ~~~~~~~~~
   +Q    Q   E      E  E  E    +Q   Q   E E E   E      +Q    Q  H
|---------------------------|----------------------|-----------------*|
|---------------------------|----------------------|-----------------*|
|---------------------------|----------------------|-----------------*|
|---------------------------|-------------------5--|---(5)-----------*|
|------------5------3--1--3-|--(3)--1-----------5--|---(5)-----------*|
|--(3)---1------------------|-----------3-1-2---3--|---(3)-----------*|
|
| Gtr III
|                                               ~~~~~~~~~~~~
|  +Q    Q   E     +E  E  E    +Q   Q   E E E   E      +Q    Q  H
|---------------------------|----------------------|-----------------*|
|---------------------------|----------------------|-----------------*|
|-(12)--10------------------|----------------------|-----------------*|
|-----------10b12r(10)p8-10-|-(10)--8--------------|-----------------*|
|---------------------------|----------10-8-9-[10]-|-([10])----------*|
|---------------------------|----------------------|-----------------*|




--------------------------------------------------------------------------------


Duration Legend
---------------
W - whole; H - half; Q - quarter; E - 8th; S - 16th; T - 32nd; X - 64th; a - acciaccatura
+ - note tied to previous; . - note dotted; .. - note double dotted
Uncapitalized letters represent notes that are staccato (1/2 duration)
Irregular groupings are notated above the duration line
Duration letters will always appear directly above the note/fret number it represents the
duration for.  Duration letters with no fret number below them represent rests.  Multi-
bar rests are notated in the form Wxn, where n is the number of bars to rest for.  Low
melody durations appear below the staff

Tablature Legend
----------------
 h   - hammer-on
 p   - pull-off
 b   - bend
 pb  - pre-bend
 r   - bend release (if no number after the r, then release immediately)
 /\  - slide into or out of (from/to "nowhere")
 s   - legato slide
 S   - shift slide
<n> - natural harmonic
[n]  - artificial harmonic
n(n) - tapped harmonic
 ~   - vibrato
 tr  - trill
 T   - tap
 TP  - trem. picking
 PM  - palm muting
\n/  - tremolo bar dip; n = amount to dip
 \n  - tremolo bar down
 n/  - tremolo bar up
/n\  - tremolo bar inverted dip
 =   - hold bend; also acts as connecting device for hammers/pulls
 <> - volume swell (louder/softer)
 x   - on rhythm slash represents muted slash
 o   - on rhythm slash represents single note slash

Misc Legend
-----------
 |  - bar
||  - double bar
||o - repeat start
o|| - repeat end
*|  - double bar (ending)
 :  - bar (freetime)
 $  - Segno
 &  - Coda
Tempo markers - <E/E./Q/Q./H/H.> = BPM(8/16=s8/s16), where s8 = swing 8ths, s16 = swing 16ths


comments
print report bad tab
1 comment total.
+1 reply
acefrehley wrote on July 15 2006, 10:03 pm

cool

I want to post or [tab]
guest
You may want to rate the tab now too:
select rating
Please do not post tabs as comments. Select "correction" instead!